  0
SECTION
  2
HEADER
  9
$ACADVER
  1
AC1009
  9
$LUNITS
  70
2
  9
$LIMMIN
  10
234629.487
  20
4616703.918
  9
$LIMMAX
  10
262997.947
  20
4636184.938
  9
$EXTMIN
  10
234629.487
  20
4616703.918
  9
$EXTMAX
  10
262997.947
  20
4636184.938
  999
Created by Global Mapper
  999
Projection: UTM
  999
Datum: ETRS89
  999
Ground Units: meters
  999
ZONE: 30
  0
ENDSEC
  0
SECTION
  2
TABLES
  0
ENDSEC
  0
SECTION
  2
BLOCKS
  0
BLOCK
  8
FeatureAttribs
  70
0
  2
FEATURE
  3
FEATURE
  10
0.00000000
  20
0.00000000
  0
ATTDEF
  8
FeatureAttribs
  70
0
  1
 
  2
NAME
  3
NAME
  10
0.00000000
  20
0.00000000
  40
1.00000000
  0
ENDBLK
  0
ENDSEC
  0
SECTION
  2
ENTITIES
  0
INSERT
  8
FeatureAttribs
  2
FEATURE
  41
1
  42
1
  43
1
  50
0
  10
234954.826
  20
4635328.719
 66
1
  0
ATTRIB
  8
FeatureAttribs
 70
0
  1
PNOA-H_AMS_1956-57_33k_ES_PAN_2
  2
NAME
  10
234954.826
  20
4635328.719
 40
34.41336
  0
SEQEND
  0
POLYLINE
  8
Unknown_Area_Type
  70
1
  66
1
  0
VERTEX
  8
Unknown_Area_Type
  10
235313.631
  20
4636184.938
  0
VERTEX
  8
Unknown_Area_Type
  10
235253.500
  20
4634646.500
  0
VERTEX
  8
Unknown_Area_Type
  10
234874.000
  20
4634473.000
  0
VERTEX
  8
Unknown_Area_Type
  10
234868.500
  20
4634472.500
  0
VERTEX
  8
Unknown_Area_Type
  10
234629.487
  20
4634506.220
  0
VERTEX
  8
Unknown_Area_Type
  10
234629.487
  20
4636184.938
  0
VERTEX
  8
Unknown_Area_Type
  10
235313.631
  20
4636184.938
  0
SEQEND
  8
Unknown_Area_Type
  0
INSERT
  8
FeatureAttribs
  2
FEATURE
  41
1
  42
1
  43
1
  50
0
  10
259846.281
  20
4635728.441
 66
1
  0
ATTRIB
  8
FeatureAttribs
 70
0
  1
PNOA-H_AMS_1956-57_33k_ES_PAN_2
  2
NAME
  10
259846.281
  20
4635728.441
 40
34.41336
  0
SEQEND
  0
POLYLINE
  8
Unknown_Area_Type
  70
1
  66
1
  0
VERTEX
  8
Unknown_Area_Type
  10
261184.863
  20
4636184.938
  0
VERTEX
  8
Unknown_Area_Type
  10
261165.671
  20
4635271.944
  0
VERTEX
  8
Unknown_Area_Type
  10
259537.707
  20
4635326.473
  0
VERTEX
  8
Unknown_Area_Type
  10
258506.167
  20
4635361.527
  0
VERTEX
  8
Unknown_Area_Type
  10
258531.143
  20
4636184.938
  0
VERTEX
  8
Unknown_Area_Type
  10
261184.863
  20
4636184.938
  0
SEQEND
  8
Unknown_Area_Type
  0
INSERT
  8
FeatureAttribs
  2
FEATURE
  41
1
  42
1
  43
1
  50
0
  10
259811.483
  20
4634437.548
 66
1
  0
ATTRIB
  8
FeatureAttribs
 70
0
  1
PNOA-H_AMS_1956-57_33k_ES_PAN_2
  2
NAME
  10
259811.483
  20
4634437.548
 40
34.41336
  0
SEQEND
  0
POLYLINE
  8
Unknown_Area_Type
  70
1
  66
1
  0
VERTEX
  8
Unknown_Area_Type
  10
261165.671
  20
4635271.944
  0
VERTEX
  8
Unknown_Area_Type
  10
261132.500
  20
4633694.000
  0
VERTEX
  8
Unknown_Area_Type
  10
259599.000
  20
4633384.500
  0
VERTEX
  8
Unknown_Area_Type
  10
258459.500
  20
4633823.000
  0
VERTEX
  8
Unknown_Area_Type
  10
258506.167
  20
4635361.527
  0
VERTEX
  8
Unknown_Area_Type
  10
259537.707
  20
4635326.473
  0
VERTEX
  8
Unknown_Area_Type
  10
261165.671
  20
4635271.944
  0
SEQEND
  8
Unknown_Area_Type
  0
INSERT
  8
FeatureAttribs
  2
FEATURE
  41
1
  42
1
  43
1
  50
0
  10
259811.483
  20
4634437.548
 66
1
  0
ATTRIB
  8
FeatureAttribs
 70
0
  1
PNOA-H_AMS_1956-57_33k_ES_PAN_2
  2
NAME
  10
259811.483
  20
4634437.548
 40
34.41336
  0
SEQEND
  0
POLYLINE
  8
Unknown_Area_Type
  70
1
  66
1
  0
VERTEX
  8
Unknown_Area_Type
  10
261165.671
  20
4635271.944
  0
VERTEX
  8
Unknown_Area_Type
  10
259537.707
  20
4635326.473
  0
VERTEX
  8
Unknown_Area_Type
  10
258506.167
  20
4635361.527
  0
VERTEX
  8
Unknown_Area_Type
  10
258459.500
  20
4633823.000
  0
VERTEX
  8
Unknown_Area_Type
  10
259599.000
  20
4633384.500
  0
VERTEX
  8
Unknown_Area_Type
  10
261132.500
  20
4633694.000
  0
VERTEX
  8
Unknown_Area_Type
  10
261165.671
  20
4635271.944
  0
SEQEND
  8
Unknown_Area_Type
  0
INSERT
  8
FeatureAttribs
  2
FEATURE
  41
1
  42
1
  43
1
  50
0
  10
257190.492
  20
4635773.229
 66
1
  0
ATTRIB
  8
FeatureAttribs
 70
0
  1
PNOA-H_AMS_1956-57_33k_ES_PAN_2
  2
NAME
  10
257190.492
  20
4635773.229
 40
34.41336
  0
SEQEND
  0
POLYLINE
  8
Unknown_Area_Type
  70
1
  66
1
  0
VERTEX
  8
Unknown_Area_Type
  10
258531.417
  20
4636184.938
  0
VERTEX
  8
Unknown_Area_Type
  10
258506.345
  20
4635361.521
  0
VERTEX
  8
Unknown_Area_Type
  10
256077.482
  20
4635444.058
  0
VERTEX
  8
Unknown_Area_Type
  10
255857.795
  20
4635451.630
  0
VERTEX
  8
Unknown_Area_Type
  10
255867.618
  20
4636184.938
  0
VERTEX
  8
Unknown_Area_Type
  10
258531.417
  20
4636184.938
  0
SEQEND
  8
Unknown_Area_Type
  0
INSERT
  8
FeatureAttribs
  2
FEATURE
  41
1
  42
1
  43
1
  50
0
  10
257155.344
  20
4634553.793
 66
1
  0
ATTRIB
  8
FeatureAttribs
 70
0
  1
PNOA-H_AMS_1956-57_33k_ES_PAN_2
  2
NAME
  10
257155.344
  20
4634553.793
 40
34.41336
  0
SEQEND
  0
POLYLINE
  8
Unknown_Area_Type
  70
1
  66
1
  0
VERTEX
  8
Unknown_Area_Type
  10
258506.345
  20
4635361.521
  0
VERTEX
  8
Unknown_Area_Type
  10
258459.500
  20
4633823.000
  0
VERTEX
  8
Unknown_Area_Type
  10
256817.000
  20
4633541.000
  0
VERTEX
  8
Unknown_Area_Type
  10
255837.500
  20
4633936.500
  0
VERTEX
  8
Unknown_Area_Type
  10
255857.795
  20
4635451.630
  0
VERTEX
  8
Unknown_Area_Type
  10
256077.482
  20
4635444.058
  0
VERTEX
  8
Unknown_Area_Type
  10
258506.345
  20
4635361.521
  0
SEQEND
  8
Unknown_Area_Type
  0
INSERT
  8
FeatureAttribs
  2
FEATURE
  41
1
  42
1
  43
1
  50
0
  10
257155.344
  20
4634553.793
 66
1
  0
ATTRIB
  8
FeatureAttribs
 70
0
  1
PNOA-H_AMS_1956-57_33k_ES_PAN_2
  2
NAME
  10
257155.344
  20
4634553.793
 40
34.41336
  0
SEQEND
  0
POLYLINE
  8
Unknown_Area_Type
  70
1
  66
1
  0
VERTEX
  8
Unknown_Area_Type
  10
258506.345
  20
4635361.521
  0
VERTEX
  8
Unknown_Area_Type
  10
256077.482
  20
4635444.058
  0
VERTEX
  8
Unknown_Area_Type
  10
255857.795
  20
4635451.630
  0
VERTEX
  8
Unknown_Area_Type
  10
255837.500
  20
4633936.500
  0
VERTEX
  8
Unknown_Area_Type
  10
256817.000
  20
4633541.000
  0
VERTEX
  8
Unknown_Area_Type
  10
258459.500
  20
4633823.000
  0
VERTEX
  8
Unknown_Area_Type
  10
258506.345
  20
4635361.521
  0
SEQEND
  8
Unknown_Area_Type
  0
INSERT
  8
FeatureAttribs
  2
FEATURE
  41
1
  42
1
  43
1
  50
0
  10
251872.771
  20
4635864.442
 66
1
  0
ATTRIB
  8
FeatureAttribs
 70
0
  1
PNOA-H_AMS_1956-57_33k_ES_PAN_2
  2
NAME
  10
251872.771
  20
4635864.442
 40
34.41336
  0
SEQEND
  0
POLYLINE
  8
Unknown_Area_Type
  70
1
  66
1
  0
VERTEX
  8
Unknown_Area_Type
  10
253195.698
  20
4636184.938
  0
VERTEX
  8
Unknown_Area_Type
  10
253179.502
  20
4635543.946
  0
VERTEX
  8
Unknown_Area_Type
  10
252617.243
  20
4635563.325
  0
VERTEX
  8
Unknown_Area_Type
  10
250550.889
  20
4635635.554
  0
VERTEX
  8
Unknown_Area_Type
  10
250567.819
  20
4636184.938
  0
VERTEX
  8
Unknown_Area_Type
  10
253195.698
  20
4636184.938
  0
SEQEND
  8
Unknown_Area_Type
  0
INSERT
  8
FeatureAttribs
  2
FEATURE
  41
1
  42
1
  43
1
  50
0
  10
251821.598
  20
4634747.042
 66
1
  0
ATTRIB
  8
FeatureAttribs
 70
0
  1
PNOA-H_AMS_1956-57_33k_ES_PAN_2
  2
NAME
  10
251821.598
  20
4634747.042
 40
34.41336
  0
SEQEND
  0
POLYLINE
  8
Unknown_Area_Type
  70
1
  66
1
  0
VERTEX
  8
Unknown_Area_Type
  10
253179.502
  20
4635543.946
  0
VERTEX
  8
Unknown_Area_Type
  10
253141.500
  20
4634040.000
  0
VERTEX
  8
Unknown_Area_Type
  10
251284.000
  20
4633757.500
  0
VERTEX
  8
Unknown_Area_Type
  10
250504.000
  20
4634114.000
  0
VERTEX
  8
Unknown_Area_Type
  10
250550.889
  20
4635635.554
  0
VERTEX
  8
Unknown_Area_Type
  10
252617.243
  20
4635563.325
  0
VERTEX
  8
Unknown_Area_Type
  10
253179.502
  20
4635543.946
  0
SEQEND
  8
Unknown_Area_Type
  0
INSERT
  8
FeatureAttribs
  2
FEATURE
  41
1
  42
1
  43
1
  50
0
  10
251821.598
  20
4634747.042
 66
1
  0
ATTRIB
  8
FeatureAttribs
 70
0
  1
PNOA-H_AMS_1956-57_33k_ES_PAN_2
  2
NAME
  10
251821.598
  20
4634747.042
 40
34.41336
  0
SEQEND
  0
POLYLINE
  8
Unknown_Area_Type
  70
1
  66
1
  0
VERTEX
  8
Unknown_Area_Type
  10
253179.502
  20
4635543.946
  0
VERTEX
  8
Unknown_Area_Type
  10
252617.243
  20
4635563.325
  0
VERTEX
  8
Unknown_Area_Type
  10
250550.889
  20
4635635.554
  0
VERTEX
  8
Unknown_Area_Type
  10
250504.000
  20
4634114.000
  0
VERTEX
  8
Unknown_Area_Type
  10
251284.000
  20
4633757.500
  0
VERTEX
  8
Unknown_Area_Type
  10
253141.500
  20
4634040.000
  0
VERTEX
  8
Unknown_Area_Type
  10
253179.502
  20
4635543.946
  0
SEQEND
  8
Unknown_Area_Type
  0
INSERT
  8
FeatureAttribs
  2
FEATURE
  41
1
  42
1
  43
1
  50
0
  10
246724.665
  20
4635955.258
 66
1
  0
ATTRIB
  8
FeatureAttribs
 70
0
  1
PNOA-H_AMS_1956-57_33k_ES_PAN_2
  2
NAME
  10
246724.665
  20
4635955.258
 40
34.41336
  0
SEQEND
  0
POLYLINE
  8
Unknown_Area_Type
  70
1
  66
1
  0
VERTEX
  8
Unknown_Area_Type
  10
248012.184
  20
4636184.938
  0
VERTEX
  8
Unknown_Area_Type
  10
248000.000
  20
4635914.500
  0
VERTEX
  8
Unknown_Area_Type
  10
248000.000
  20
4635912.000
  0
VERTEX
  8
Unknown_Area_Type
  10
247991.629
  20
4635725.578
  0
VERTEX
  8
Unknown_Area_Type
  10
245696.720
  20
4635806.911
  0
VERTEX
  8
Unknown_Area_Type
  10
245442.573
  20
4635816.042
  0
VERTEX
  8
Unknown_Area_Type
  10
245455.610
  20
4636184.938
  0
VERTEX
  8
Unknown_Area_Type
  10
248012.184
  20
4636184.938
  0
SEQEND
  8
Unknown_Area_Type
  0
INSERT
  8
FeatureAttribs
  2
FEATURE
  41
1
  42
1
  43
1
  50
0
  10
246662.287
  20
4634951.436
 66
1
  0
ATTRIB
  8
FeatureAttribs
 70
0
  1
PNOA-H_AMS_1956-57_33k_ES_PAN_2
  2
NAME
  10
246662.287
  20
4634951.436
 40
34.41336
  0
SEQEND
  0
POLYLINE
  8
Unknown_Area_Type
  70
1
  66
1
  0
VERTEX
  8
Unknown_Area_Type
  10
247991.629
  20
4635725.578
  0
VERTEX
  8
Unknown_Area_Type
  10
247924.000
  20
4634219.500
  0
VERTEX
  8
Unknown_Area_Type
  10
245873.000
  20
4634032.000
  0
VERTEX
  8
Unknown_Area_Type
  10
245388.500
  20
4634286.000
  0
VERTEX
  8
Unknown_Area_Type
  10
245442.573
  20
4635816.042
  0
VERTEX
  8
Unknown_Area_Type
  10
245696.720
  20
4635806.911
  0
VERTEX
  8
Unknown_Area_Type
  10
247991.629
  20
4635725.578
  0
SEQEND
  8
Unknown_Area_Type
  0
INSERT
  8
FeatureAttribs
  2
FEATURE
  41
1
  42
1
  43
1
  50
0
  10
246662.287
  20
4634951.436
 66
1
  0
ATTRIB
  8
FeatureAttribs
 70
0
  1
PNOA-H_AMS_1956-57_33k_ES_PAN_2
  2
NAME
  10
246662.287
  20
4634951.436
 40
34.41336
  0
SEQEND
  0
POLYLINE
  8
Unknown_Area_Type
  70
1
  66
1
  0
VERTEX
  8
Unknown_Area_Type
  10
247991.629
  20
4635725.578
  0
VERTEX
  8
Unknown_Area_Type
  10
245696.720
  20
4635806.911
  0
VERTEX
  8
Unknown_Area_Type
  10
245442.573
  20
4635816.042
  0
VERTEX
  8
Unknown_Area_Type
  10
245388.500
  20
4634286.000
  0
VERTEX
  8
Unknown_Area_Type
  10
245873.000
  20
4634032.000
  0
VERTEX
  8
Unknown_Area_Type
  10
247924.000
  20
4634219.500
  0
VERTEX
  8
Unknown_Area_Type
  10
247991.629
  20
4635725.578
  0
SEQEND
  8
Unknown_Area_Type
  0
INSERT
  8
FeatureAttribs
  2
FEATURE
  41
1
  42
1
  43
1
  50
0
  10
249279.689
  20
4635910.246
 66
1
  0
ATTRIB
  8
FeatureAttribs
 70
0
  1
PNOA-H_AMS_1956-57_33k_ES_PAN_2
  2
NAME
  10
249279.689
  20
4635910.246
 40
34.41336
  0
SEQEND
  0
POLYLINE
  8
Unknown_Area_Type
  70
1
  66
1
  0
VERTEX
  8
Unknown_Area_Type
  10
250567.819
  20
4636184.938
  0
VERTEX
  8
Unknown_Area_Type
  10
250550.889
  20
4635635.554
  0
VERTEX
  8
Unknown_Area_Type
  10
249156.988
  20
4635684.277
  0
VERTEX
  8
Unknown_Area_Type
  10
247991.720
  20
4635725.575
  0
VERTEX
  8
Unknown_Area_Type
  10
248012.375
  20
4636184.938
  0
VERTEX
  8
Unknown_Area_Type
  10
250567.819
  20
4636184.938
  0
SEQEND
  8
Unknown_Area_Type
  0
INSERT
  8
FeatureAttribs
  2
FEATURE
  41
1
  42
1
  43
1
  50
0
  10
249223.604
  20
4634846.813
 66
1
  0
ATTRIB
  8
FeatureAttribs
 70
0
  1
PNOA-H_AMS_1956-57_33k_ES_PAN_2
  2
NAME
  10
249223.604
  20
4634846.813
 40
34.41336
  0
SEQEND
  0
POLYLINE
  8
Unknown_Area_Type
  70
1
  66
1
  0
VERTEX
  8
Unknown_Area_Type
  10
250550.889
  20
4635635.554
  0
VERTEX
  8
Unknown_Area_Type
  10
250504.000
  20
4634114.000
  0
VERTEX
  8
Unknown_Area_Type
  10
248598.500
  20
4633895.500
  0
VERTEX
  8
Unknown_Area_Type
  10
247924.000
  20
4634219.500
  0
VERTEX
  8
Unknown_Area_Type
  10
247991.720
  20
4635725.575
  0
VERTEX
  8
Unknown_Area_Type
  10
249156.988
  20
4635684.277
  0
VERTEX
  8
Unknown_Area_Type
  10
250550.889
  20
4635635.554
  0
SEQEND
  8
Unknown_Area_Type
  0
INSERT
  8
FeatureAttribs
  2
FEATURE
  41
1
  42
1
  43
1
  50
0
  10
249223.604
  20
4634846.813
 66
1
  0
ATTRIB
  8
FeatureAttribs
 70
0
  1
PNOA-H_AMS_1956-57_33k_ES_PAN_2
  2
NAME
  10
249223.604
  20
4634846.813
 40
34.41336
  0
SEQEND
  0
POLYLINE
  8
Unknown_Area_Type
  70
1
  66
1
  0
VERTEX
  8
Unknown_Area_Type
  10
250550.889
  20
4635635.554
  0
VERTEX
  8
Unknown_Area_Type
  10
249156.988
  20
4635684.277
  0
VERTEX
  8
Unknown_Area_Type
  10
247991.720
  20
4635725.575
  0
VERTEX
  8
Unknown_Area_Type
  10
247924.000
  20
4634219.500
  0
VERTEX
  8
Unknown_Area_Type
  10
248598.500
  20
4633895.500
  0
VERTEX
  8
Unknown_Area_Type
  10
250504.000
  20
4634114.000
  0
VERTEX
  8
Unknown_Area_Type
  10
250550.889
  20
4635635.554
  0
SEQEND
  8
Unknown_Area_Type
  0
INSERT
  8
FeatureAttribs
  2
FEATURE
  41
1
  42
1
  43
1
  50
0
  10
241699.637
  20
4636045.736
 66
1
  0
ATTRIB
  8
FeatureAttribs
 70
0
  1
PNOA-H_AMS_1956-57_33k_ES_PAN_2
  2
NAME
  10
241699.637
  20
4636045.736
 40
34.41336
  0
SEQEND
  0
POLYLINE
  8
Unknown_Area_Type
  70
1
  66
1
  0
VERTEX
  8
Unknown_Area_Type
  10
242937.416
  20
4636184.938
  0
VERTEX
  8
Unknown_Area_Type
  10
242923.811
  20
4635906.534
  0
VERTEX
  8
Unknown_Area_Type
  10
242236.436
  20
4635931.230
  0
VERTEX
  8
Unknown_Area_Type
  10
240465.512
  20
4635995.716
  0
VERTEX
  8
Unknown_Area_Type
  10
240477.420
  20
4636184.938
  0
VERTEX
  8
Unknown_Area_Type
  10
242937.416
  20
4636184.938
  0
SEQEND
  8
Unknown_Area_Type
  0
INSERT
  8
FeatureAttribs
  2
FEATURE
  41
1
  42
1
  43
1
  50
0
  10
241642.191
  20
4635144.496
 66
1
  0
ATTRIB
  8
FeatureAttribs
 70
0
  1
PNOA-H_AMS_1956-57_33k_ES_PAN_2
  2
NAME
  10
241642.191
  20
4635144.496
 40
34.41336
  0
SEQEND
  0
POLYLINE
  8
Unknown_Area_Type
  70
1
  66
1
  0
VERTEX
  8
Unknown_Area_Type
  10
242923.811
  20
4635906.534
  0
VERTEX
  8
Unknown_Area_Type
  10
242846.500
  20
4634324.500
  0
VERTEX
  8
Unknown_Area_Type
  10
240425.500
  20
4634354.000
  0
VERTEX
  8
Unknown_Area_Type
  10
240364.500
  20
4634390.500
  0
VERTEX
  8
Unknown_Area_Type
  10
240465.512
  20
4635995.716
  0
VERTEX
  8
Unknown_Area_Type
  10
242236.436
  20
4635931.230
  0
VERTEX
  8
Unknown_Area_Type
  10
242923.811
  20
4635906.534
  0
SEQEND
  8
Unknown_Area_Type
  0
INSERT
  8
FeatureAttribs
  2
FEATURE
  41
1
  42
1
  43
1
  50
0
  10
241642.191
  20
4635144.496
 66
1
  0
ATTRIB
  8
FeatureAttribs
 70
0
  1
PNOA-H_AMS_1956-57_33k_ES_PAN_2
  2
NAME
  10
241642.191
  20
4635144.496
 40
34.41336
  0
SEQEND
  0
POLYLINE
  8
Unknown_Area_Type
  70
1
  66
1
  0
VERTEX
  8
Unknown_Area_Type
  10
242923.811
  20
4635906.534
  0
VERTEX
  8
Unknown_Area_Type
  10
242236.436
  20
4635931.230
  0
VERTEX
  8
Unknown_Area_Type
  10
240465.512
  20
4635995.716
  0
VERTEX
  8
Unknown_Area_Type
  10
240364.500
  20
4634390.500
  0
VERTEX
  8
Unknown_Area_Type
  10
240425.500
  20
4634354.000
  0
VERTEX
  8
Unknown_Area_Type
  10
242846.500
  20
4634324.500
  0
VERTEX
  8
Unknown_Area_Type
  10
242923.811
  20
4635906.534
  0
SEQEND
  8
Unknown_Area_Type
  0
INSERT
  8
FeatureAttribs
  2
FEATURE
  41
1
  42
1
  43
1
  50
0
  10
262086.410
  20
4635697.755
 66
1
  0
ATTRIB
  8
FeatureAttribs
 70
0
  1
PNOA-H_AMS_1956-57_33k_ES_PAN_2
  2
NAME
  10
262086.410
  20
4635697.755
 40
34.41336
  0
SEQEND
  0
POLYLINE
  8
Unknown_Area_Type
  70
1
  66
1
  0
VERTEX
  8
Unknown_Area_Type
  10
261185.057
  20
4636184.938
  0
VERTEX
  8
Unknown_Area_Type
  10
262997.947
  20
4636184.938
  0
VERTEX
  8
Unknown_Area_Type
  10
262997.947
  20
4635211.425
  0
VERTEX
  8
Unknown_Area_Type
  10
262997.918
  20
4635210.572
  0
VERTEX
  8
Unknown_Area_Type
  10
261165.972
  20
4635271.934
  0
VERTEX
  8
Unknown_Area_Type
  10
261185.057
  20
4636184.938
  0
SEQEND
  8
Unknown_Area_Type
  0
INSERT
  8
FeatureAttribs
  2
FEATURE
  41
1
  42
1
  43
1
  50
0
  10
262997.933
  20
4635210.785
 66
1
  0
ATTRIB
  8
FeatureAttribs
 70
0
  1
PNOA-H_AMS_1956-57_33k_ES_PAN_2
  2
NAME
  10
262997.933
  20
4635210.785
 40
34.41336
  0
SEQEND
  0
POLYLINE
  8
Unknown_Area_Type
  70
1
  66
1
  0
VERTEX
  8
Unknown_Area_Type
  10
262997.947
  20
4635211.425
  0
VERTEX
  8
Unknown_Area_Type
  10
262997.947
  20
4635210.571
  0
VERTEX
  8
Unknown_Area_Type
  10
262997.918
  20
4635210.572
  0
VERTEX
  8
Unknown_Area_Type
  10
262997.947
  20
4635211.425
  0
SEQEND
  8
Unknown_Area_Type
  0
INSERT
  8
FeatureAttribs
  2
FEATURE
  41
1
  42
1
  43
1
  50
0
  10
262983.319
  20
4634331.459
 66
1
  0
ATTRIB
  8
FeatureAttribs
 70
0
  1
PNOA-H_AMS_1956-57_33k_ES_PAN_2
  2
NAME
  10
262983.319
  20
4634331.459
 40
34.41336
  0
SEQEND
  0
POLYLINE
  8
Unknown_Area_Type
  70
1
  66
1
  0
VERTEX
  8
Unknown_Area_Type
  10
262997.947
  20
4633466.147
  0
VERTEX
  8
Unknown_Area_Type
  10
262939.465
  20
4633452.346
  0
VERTEX
  8
Unknown_Area_Type
  10
262997.918
  20
4635210.572
  0
VERTEX
  8
Unknown_Area_Type
  10
262997.947
  20
4635210.571
  0
VERTEX
  8
Unknown_Area_Type
  10
262997.947
  20
4633466.147
  0
SEQEND
  8
Unknown_Area_Type
  0
INSERT
  8
FeatureAttribs
  2
FEATURE
  41
1
  42
1
  43
1
  50
0
  10
262078.978
  20
4634347.216
 66
1
  0
ATTRIB
  8
FeatureAttribs
 70
0
  1
PNOA-H_AMS_1956-57_33k_ES_PAN_2
  2
NAME
  10
262078.978
  20
4634347.216
 40
34.41336
  0
SEQEND
  0
POLYLINE
  8
Unknown_Area_Type
  70
1
  66
1
  0
VERTEX
  8
Unknown_Area_Type
  10
262939.465
  20
4633452.346
  0
VERTEX
  8
Unknown_Area_Type
  10
262304.500
  20
4633302.500
  0
VERTEX
  8
Unknown_Area_Type
  10
261133.000
  20
4633694.500
  0
VERTEX
  8
Unknown_Area_Type
  10
261165.972
  20
4635271.934
  0
VERTEX
  8
Unknown_Area_Type
  10
262997.918
  20
4635210.572
  0
VERTEX
  8
Unknown_Area_Type
  10
262939.465
  20
4633452.346
  0
SEQEND
  8
Unknown_Area_Type
  0
INSERT
  8
FeatureAttribs
  2
FEATURE
  41
1
  42
1
  43
1
  50
0
  10
262078.978
  20
4634347.216
 66
1
  0
ATTRIB
  8
FeatureAttribs
 70
0
  1
PNOA-H_AMS_1956-57_33k_ES_PAN_2
  2
NAME
  10
262078.978
  20
4634347.216
 40
34.41336
  0
SEQEND
  0
POLYLINE
  8
Unknown_Area_Type
  70
1
  66
1
  0
VERTEX
  8
Unknown_Area_Type
  10
262939.465
  20
4633452.346
  0
VERTEX
  8
Unknown_Area_Type
  10
262997.918
  20
4635210.572
  0
VERTEX
  8
Unknown_Area_Type
  10
261165.972
  20
4635271.934
  0
VERTEX
  8
Unknown_Area_Type
  10
261133.000
  20
4633694.500
  0
VERTEX
  8
Unknown_Area_Type
  10
262304.500
  20
4633302.500
  0
VERTEX
  8
Unknown_Area_Type
  10
262939.465
  20
4633452.346
  0
SEQEND
  8
Unknown_Area_Type
  0
INSERT
  8
FeatureAttribs
  2
FEATURE
  41
1
  42
1
  43
1
  50
0
  10
254524.572
  20
4635818.284
 66
1
  0
ATTRIB
  8
FeatureAttribs
 70
0
  1
PNOA-H_AMS_1956-57_33k_ES_PAN_2
  2
NAME
  10
254524.572
  20
4635818.284
 40
34.41336
  0
SEQEND
  0
POLYLINE
  8
Unknown_Area_Type
  70
1
  66
1
  0
VERTEX
  8
Unknown_Area_Type
  10
255867.622
  20
4636184.938
  0
VERTEX
  8
Unknown_Area_Type
  10
255857.798
  20
4635451.630
  0
VERTEX
  8
Unknown_Area_Type
  10
253179.502
  20
4635543.946
  0
VERTEX
  8
Unknown_Area_Type
  10
253195.698
  20
4636184.938
  0
VERTEX
  8
Unknown_Area_Type
  10
255867.622
  20
4636184.938
  0
SEQEND
  8
Unknown_Area_Type
  0
INSERT
  8
FeatureAttribs
  2
FEATURE
  41
1
  42
1
  43
1
  50
0
  10
254488.218
  20
4634648.729
 66
1
  0
ATTRIB
  8
FeatureAttribs
 70
0
  1
PNOA-H_AMS_1956-57_33k_ES_PAN_2
  2
NAME
  10
254488.218
  20
4634648.729
 40
34.41336
  0
SEQEND
  0
POLYLINE
  8
Unknown_Area_Type
  70
1
  66
1
  0
VERTEX
  8
Unknown_Area_Type
  10
255857.798
  20
4635451.630
  0
VERTEX
  8
Unknown_Area_Type
  10
255837.500
  20
4633936.500
  0
VERTEX
  8
Unknown_Area_Type
  10
254052.000
  20
4633642.500
  0
VERTEX
  8
Unknown_Area_Type
  10
253141.500
  20
4634040.000
  0
VERTEX
  8
Unknown_Area_Type
  10
253179.502
  20
4635543.946
  0
VERTEX
  8
Unknown_Area_Type
  10
255857.798
  20
4635451.630
  0
SEQEND
  8
Unknown_Area_Type
  0
INSERT
  8
FeatureAttribs
  2
FEATURE
  41
1
  42
1
  43
1
  50
0
  10
254488.218
  20
4634648.729
 66
1
  0
ATTRIB
  8
FeatureAttribs
 70
0
  1
PNOA-H_AMS_1956-57_33k_ES_PAN_2
  2
NAME
  10
254488.218
  20
4634648.729
 40
34.41336
  0
SEQEND
  0
POLYLINE
  8
Unknown_Area_Type
  70
1
  66
1
  0
VERTEX
  8
Unknown_Area_Type
  10
255857.798
  20
4635451.630
  0
VERTEX
  8
Unknown_Area_Type
  10
253179.502
  20
4635543.946
  0
VERTEX
  8
Unknown_Area_Type
  10
253141.500
  20
4634040.000
  0
VERTEX
  8
Unknown_Area_Type
  10
254052.000
  20
4633642.500
  0
VERTEX
  8
Unknown_Area_Type
  10
255837.500
  20
4633936.500
  0
VERTEX
  8
Unknown_Area_Type
  10
255857.798
  20
4635451.630
  0
SEQEND
  8
Unknown_Area_Type
  0
INSERT
  8
FeatureAttribs
  2
FEATURE
  41
1
  42
1
  43
1
  50
0
  10
239200.338
  20
4636090.327
 66
1
  0
ATTRIB
  8
FeatureAttribs
 70
0
  1
PNOA-H_AMS_1956-57_33k_ES_PAN_2
  2
NAME
  10
239200.338
  20
4636090.327
 40
34.41336
  0
SEQEND
  0
POLYLINE
  8
Unknown_Area_Type
  70
1
  66
1
  0
VERTEX
  8
Unknown_Area_Type
  10
240477.420
  20
4636184.938
  0
VERTEX
  8
Unknown_Area_Type
  10
240465.512
  20
4635995.716
  0
VERTEX
  8
Unknown_Area_Type
  10
238776.137
  20
4636057.232
  0
VERTEX
  8
Unknown_Area_Type
  10
237929.119
  20
4636088.487
  0
VERTEX
  8
Unknown_Area_Type
  10
237933.850
  20
4636184.938
  0
VERTEX
  8
Unknown_Area_Type
  10
240477.420
  20
4636184.938
  0
SEQEND
  8
Unknown_Area_Type
  0
INSERT
  8
FeatureAttribs
  2
FEATURE
  41
1
  42
1
  43
1
  50
0
  10
239157.316
  20
4635248.568
 66
1
  0
ATTRIB
  8
FeatureAttribs
 70
0
  1
PNOA-H_AMS_1956-57_33k_ES_PAN_2
  2
NAME
  10
239157.316
  20
4635248.568
 40
34.41336
  0
SEQEND
  0
POLYLINE
  8
Unknown_Area_Type
  70
1
  66
1
  0
VERTEX
  8
Unknown_Area_Type
  10
240465.512
  20
4635995.716
  0
VERTEX
  8
Unknown_Area_Type
  10
240364.500
  20
4634390.500
  0
VERTEX
  8
Unknown_Area_Type
  10
237852.000
  20
4634516.000
  0
VERTEX
  8
Unknown_Area_Type
  10
237929.119
  20
4636088.487
  0
VERTEX
  8
Unknown_Area_Type
  10
238776.137
  20
4636057.232
  0
VERTEX
  8
Unknown_Area_Type
  10
240465.512
  20
4635995.716
  0
SEQEND
  8
Unknown_Area_Type
  0
INSERT
  8
FeatureAttribs
  2
FEATURE
  41
1
  42
1
  43
1
  50
0
  10
239157.316
  20
4635248.568
 66
1
  0
ATTRIB
  8
FeatureAttribs
 70
0
  1
PNOA-H_AMS_1956-57_33k_ES_PAN_2
  2
NAME
  10
239157.316
  20
4635248.568
 40
34.41336
  0
SEQEND
  0
POLYLINE
  8
Unknown_Area_Type
  70
1
  66
1
  0
VERTEX
  8
Unknown_Area_Type
  10
240465.512
  20
4635995.716
  0
VERTEX
  8
Unknown_Area_Type
  10
238776.137
  20
4636057.232
  0
VERTEX
  8
Unknown_Area_Type
  10
237929.119
  20
4636088.487
  0
VERTEX
  8
Unknown_Area_Type
  10
237852.000
  20
4634516.000
  0
VERTEX
  8
Unknown_Area_Type
  10
240364.500
  20
4634390.500
  0
VERTEX
  8
Unknown_Area_Type
  10
240465.512
  20
4635995.716
  0
SEQEND
  8
Unknown_Area_Type
  0
INSERT
  8
FeatureAttribs
  2
FEATURE
  41
1
  42
1
  43
1
  50
0
  10
235315.692
  20
4636184.928
 66
1
  0
ATTRIB
  8
FeatureAttribs
 70
0
  1
PNOA-H_AMS_1956-57_33k_ES_PAN_2
  2
NAME
  10
235315.692
  20
4636184.928
 40
34.41336
  0
SEQEND
  0
POLYLINE
  8
Unknown_Area_Type
  70
1
  66
1
  0
VERTEX
  8
Unknown_Area_Type
  10
235315.823
  20
4636184.938
  0
VERTEX
  8
Unknown_Area_Type
  10
235315.823
  20
4636184.918
  0
VERTEX
  8
Unknown_Area_Type
  10
235315.301
  20
4636184.938
  0
VERTEX
  8
Unknown_Area_Type
  10
235315.823
  20
4636184.938
  0
SEQEND
  8
Unknown_Area_Type
  0
INSERT
  8
FeatureAttribs
  2
FEATURE
  41
1
  42
1
  43
1
  50
0
  10
237276.967
  20
4636136.709
 66
1
  0
ATTRIB
  8
FeatureAttribs
 70
0
  1
PNOA-H_AMS_1956-57_33k_ES_PAN_2
  2
NAME
  10
237276.967
  20
4636136.709
 40
34.41336
  0
SEQEND
  0
POLYLINE
  8
Unknown_Area_Type
  70
1
  66
1
  0
VERTEX
  8
Unknown_Area_Type
  10
237934.008
  20
4636184.938
  0
VERTEX
  8
Unknown_Area_Type
  10
237929.283
  20
4636088.481
  0
VERTEX
  8
Unknown_Area_Type
  10
235315.823
  20
4636184.918
  0
VERTEX
  8
Unknown_Area_Type
  10
235315.823
  20
4636184.938
  0
VERTEX
  8
Unknown_Area_Type
  10
237934.008
  20
4636184.938
  0
SEQEND
  8
Unknown_Area_Type
  0
INSERT
  8
FeatureAttribs
  2
FEATURE
  41
1
  42
1
  43
1
  50
0
  10
235284.911
  20
4635397.387
 66
1
  0
ATTRIB
  8
FeatureAttribs
 70
0
  1
PNOA-H_AMS_1956-57_33k_ES_PAN_2
  2
NAME
  10
235284.911
  20
4635397.387
 40
34.41336
  0
SEQEND
  0
POLYLINE
  8
Unknown_Area_Type
  70
1
  66
1
  0
VERTEX
  8
Unknown_Area_Type
  10
235258.695
  20
4634646.587
  0
VERTEX
  8
Unknown_Area_Type
  10
235254.000
  20
4634647.000
  0
VERTEX
  8
Unknown_Area_Type
  10
235313.780
  20
4636184.938
  0
VERTEX
  8
Unknown_Area_Type
  10
235315.301
  20
4636184.938
  0
VERTEX
  8
Unknown_Area_Type
  10
235315.823
  20
4636184.918
  0
VERTEX
  8
Unknown_Area_Type
  10
235258.695
  20
4634646.587
  0
SEQEND
  8
Unknown_Area_Type
  0
INSERT
  8
FeatureAttribs
  2
FEATURE
  41
1
  42
1
  43
1
  50
0
  10
236603.544
  20
4635336.239
 66
1
  0
ATTRIB
  8
FeatureAttribs
 70
0
  1
PNOA-H_AMS_1956-57_33k_ES_PAN_2
  2
NAME
  10
236603.544
  20
4635336.239
 40
34.41336
  0
SEQEND
  0
POLYLINE
  8
Unknown_Area_Type
  70
1
  66
1
  0
VERTEX
  8
Unknown_Area_Type
  10
237929.283
  20
4636088.481
  0
VERTEX
  8
Unknown_Area_Type
  10
237852.500
  20
4634521.000
  0
VERTEX
  8
Unknown_Area_Type
  10
237851.500
  20
4634515.500
  0
VERTEX
  8
Unknown_Area_Type
  10
237688.500
  20
4634433.000
  0
VERTEX
  8
Unknown_Area_Type
  10
235258.695
  20
4634646.587
  0
VERTEX
  8
Unknown_Area_Type
  10
235315.823
  20
4636184.918
  0
VERTEX
  8
Unknown_Area_Type
  10
237929.283
  20
4636088.481
  0
SEQEND
  8
Unknown_Area_Type
  0
INSERT
  8
FeatureAttribs
  2
FEATURE
  41
1
  42
1
  43
1
  50
0
  10
236603.544
  20
4635336.239
 66
1
  0
ATTRIB
  8
FeatureAttribs
 70
0
  1
PNOA-H_AMS_1956-57_33k_ES_PAN_2
  2
NAME
  10
236603.544
  20
4635336.239
 40
34.41336
  0
SEQEND
  0
POLYLINE
  8
Unknown_Area_Type
  70
1
  66
1
  0
VERTEX
  8
Unknown_Area_Type
  10
237929.283
  20
4636088.481
  0
VERTEX
  8
Unknown_Area_Type
  10
235315.823
  20
4636184.918
  0
VERTEX
  8
Unknown_Area_Type
  10
235258.695
  20
4634646.587
  0
VERTEX
  8
Unknown_Area_Type
  10
237688.500
  20
4634433.000
  0
VERTEX
  8
Unknown_Area_Type
  10
237851.500
  20
4634515.500
  0
VERTEX
  8
Unknown_Area_Type
  10
237852.500
  20
4634521.000
  0
VERTEX
  8
Unknown_Area_Type
  10
237929.283
  20
4636088.481
  0
SEQEND
  8
Unknown_Area_Type
  0
INSERT
  8
FeatureAttribs
  2
FEATURE
  41
1
  42
1
  43
1
  50
0
  10
244188.752
  20
4636000.488
 66
1
  0
ATTRIB
  8
FeatureAttribs
 70
0
  1
PNOA-H_AMS_1956-57_33k_ES_PAN_2
  2
NAME
  10
244188.752
  20
4636000.488
 40
34.41336
  0
SEQEND
  0
POLYLINE
  8
Unknown_Area_Type
  70
1
  66
1
  0
VERTEX
  8
Unknown_Area_Type
  10
245455.741
  20
4636184.938
  0
VERTEX
  8
Unknown_Area_Type
  10
245442.679
  20
4635816.038
  0
VERTEX
  8
Unknown_Area_Type
  10
242923.708
  20
4635906.538
  0
VERTEX
  8
Unknown_Area_Type
  10
242937.295
  20
4636184.938
  0
VERTEX
  8
Unknown_Area_Type
  10
245455.741
  20
4636184.938
  0
SEQEND
  8
Unknown_Area_Type
  0
INSERT
  8
FeatureAttribs
  2
FEATURE
  41
1
  42
1
  43
1
  50
0
  10
244125.945
  20
4635042.108
 66
1
  0
ATTRIB
  8
FeatureAttribs
 70
0
  1
PNOA-H_AMS_1956-57_33k_ES_PAN_2
  2
NAME
  10
244125.945
  20
4635042.108
 40
34.41336
  0
SEQEND
  0
POLYLINE
  8
Unknown_Area_Type
  70
1
  66
1
  0
VERTEX
  8
Unknown_Area_Type
  10
245442.679
  20
4635816.038
  0
VERTEX
  8
Unknown_Area_Type
  10
245388.500
  20
4634286.000
  0
VERTEX
  8
Unknown_Area_Type
  10
243135.000
  20
4634161.000
  0
VERTEX
  8
Unknown_Area_Type
  10
242846.500
  20
4634324.500
  0
VERTEX
  8
Unknown_Area_Type
  10
242923.708
  20
4635906.538
  0
VERTEX
  8
Unknown_Area_Type
  10
245442.679
  20
4635816.038
  0
SEQEND
  8
Unknown_Area_Type
  0
INSERT
  8
FeatureAttribs
  2
FEATURE
  41
1
  42
1
  43
1
  50
0
  10
244125.945
  20
4635042.108
 66
1
  0
ATTRIB
  8
FeatureAttribs
 70
0
  1
PNOA-H_AMS_1956-57_33k_ES_PAN_2
  2
NAME
  10
244125.945
  20
4635042.108
 40
34.41336
  0
SEQEND
  0
POLYLINE
  8
Unknown_Area_Type
  70
1
  66
1
  0
VERTEX
  8
Unknown_Area_Type
  10
245442.679
  20
4635816.038
  0
VERTEX
  8
Unknown_Area_Type
  10
242923.708
  20
4635906.538
  0
VERTEX
  8
Unknown_Area_Type
  10
242846.500
  20
4634324.500
  0
VERTEX
  8
Unknown_Area_Type
  10
243135.000
  20
4634161.000
  0
VERTEX
  8
Unknown_Area_Type
  10
245388.500
  20
4634286.000
  0
VERTEX
  8
Unknown_Area_Type
  10
245442.679
  20
4635816.038
  0
SEQEND
  8
Unknown_Area_Type
  0
INSERT
  8
FeatureAttribs
  2
FEATURE
  41
1
  42
1
  43
1
  50
0
  10
234731.971
  20
4623210.340
 66
1
  0
ATTRIB
  8
FeatureAttribs
 70
0
  1
PNOA-H_AMS_1956-57_33k_ES_PAN_2
  2
NAME
  10
234731.971
  20
4623210.340
 40
34.41336
  0
SEQEND
  0
POLYLINE
  8
Unknown_Area_Type
  70
1
  66
1
  0
VERTEX
  8
Unknown_Area_Type
  10
234918.115
  20
4625467.387
  0
VERTEX
  8
Unknown_Area_Type
  10
234886.617
  20
4624617.824
  0
VERTEX
  8
Unknown_Area_Type
  10
234800.881
  20
4622304.422
  0
VERTEX
  8
Unknown_Area_Type
  10
234750.454
  20
4620943.174
  0
VERTEX
  8
Unknown_Area_Type
  10
234629.487
  20
4620946.674
  0
VERTEX
  8
Unknown_Area_Type
  10
234629.487
  20
4625477.507
  0
VERTEX
  8
Unknown_Area_Type
  10
234918.115
  20
4625467.387
  0
SEQEND
  8
Unknown_Area_Type
  0
INSERT
  8
FeatureAttribs
  2
FEATURE
  41
1
  42
1
  43
1
  50
0
  10
235245.329
  20
4623166.173
 66
1
  0
ATTRIB
  8
FeatureAttribs
 70
0
  1
PNOA-H_AMS_1956-57_33k_ES_PAN_2
  2
NAME
  10
235245.329
  20
4623166.173
 40
34.41336
  0
SEQEND
  0
POLYLINE
  8
Unknown_Area_Type
  70
1
  66
1
  0
VERTEX
  8
Unknown_Area_Type
  10
234918.115
  20
4625467.387
  0
VERTEX
  8
Unknown_Area_Type
  10
235713.500
  20
4625439.500
  0
VERTEX
  8
Unknown_Area_Type
  10
235603.000
  20
4620927.500
  0
VERTEX
  8
Unknown_Area_Type
  10
235602.500
  20
4620919.000
  0
VERTEX
  8
Unknown_Area_Type
  10
235586.000
  20
4620919.000
  0
VERTEX
  8
Unknown_Area_Type
  10
234750.454
  20
4620943.174
  0
VERTEX
  8
Unknown_Area_Type
  10
234800.881
  20
4622304.422
  0
VERTEX
  8
Unknown_Area_Type
  10
234886.617
  20
4624617.824
  0
VERTEX
  8
Unknown_Area_Type
  10
234918.115
  20
4625467.387
  0
SEQEND
  8
Unknown_Area_Type
  0
INSERT
  8
FeatureAttribs
  2
FEATURE
  41
1
  42
1
  43
1
  50
0
  10
235245.329
  20
4623166.173
 66
1
  0
ATTRIB
  8
FeatureAttribs
 70
0
  1
PNOA-H_AMS_1956-57_33k_ES_PAN_2
  2
NAME
  10
235245.329
  20
4623166.173
 40
34.41336
  0
SEQEND
  0
POLYLINE
  8
Unknown_Area_Type
  70
1
  66
1
  0
VERTEX
  8
Unknown_Area_Type
  10
234918.115
  20
4625467.387
  0
VERTEX
  8
Unknown_Area_Type
  10
234886.617
  20
4624617.824
  0
VERTEX
  8
Unknown_Area_Type
  10
234800.881
  20
4622304.422
  0
VERTEX
  8
Unknown_Area_Type
  10
234750.454
  20
4620943.174
  0
VERTEX
  8
Unknown_Area_Type
  10
235586.000
  20
4620919.000
  0
VERTEX
  8
Unknown_Area_Type
  10
235602.500
  20
4620919.000
  0
VERTEX
  8
Unknown_Area_Type
  10
235603.000
  20
4620927.500
  0
VERTEX
  8
Unknown_Area_Type
  10
235713.500
  20
4625439.500
  0
VERTEX
  8
Unknown_Area_Type
  10
234918.115
  20
4625467.387
  0
SEQEND
  8
Unknown_Area_Type
  0
INSERT
  8
FeatureAttribs
  2
FEATURE
  41
1
  42
1
  43
1
  50
0
  10
261043.288
  20
4622784.802
 66
1
  0
ATTRIB
  8
FeatureAttribs
 70
0
  1
PNOA-H_AMS_1956-57_33k_ES_PAN_2
  2
NAME
  10
261043.288
  20
4622784.802
 40
34.41336
  0
SEQEND
  0
POLYLINE
  8
Unknown_Area_Type
  70
1
  66
1
  0
VERTEX
  8
Unknown_Area_Type
  10
259729.500
  20
4623622.500
  0
VERTEX
  8
Unknown_Area_Type
  10
259729.500
  20
4623632.000
  0
VERTEX
  8
Unknown_Area_Type
  10
259799.000
  20
4624961.500
  0
VERTEX
  8
Unknown_Area_Type
  10
260347.500
  20
4625216.000
  0
VERTEX
  8
Unknown_Area_Type
  10
262562.000
  20
4624914.500
  0
VERTEX
  8
Unknown_Area_Type
  10
262238.500
  20
4620595.000
  0
VERTEX
  8
Unknown_Area_Type
  10
262237.000
  20
4620585.500
  0
VERTEX
  8
Unknown_Area_Type
  10
261005.000
  20
4620265.000
  0
VERTEX
  8
Unknown_Area_Type
  10
259580.000
  20
4620758.500
  0
VERTEX
  8
Unknown_Area_Type
  10
259729.500
  20
4623622.500
  0
SEQEND
  8
Unknown_Area_Type
  0
INSERT
  8
FeatureAttribs
  2
FEATURE
  41
1
  42
1
  43
1
  50
0
  10
261043.288
  20
4622784.802
 66
1
  0
ATTRIB
  8
FeatureAttribs
 70
0
  1
PNOA-H_AMS_1956-57_33k_ES_PAN_2
  2
NAME
  10
261043.288
  20
4622784.802
 40
34.41336
  0
SEQEND
  0
POLYLINE
  8
Unknown_Area_Type
  70
1
  66
1
  0
VERTEX
  8
Unknown_Area_Type
  10
259729.500
  20
4623622.500
  0
VERTEX
  8
Unknown_Area_Type
  10
259580.000
  20
4620758.500
  0
VERTEX
  8
Unknown_Area_Type
  10
261005.000
  20
4620265.000
  0
VERTEX
  8
Unknown_Area_Type
  10
262237.000
  20
4620585.500
  0
VERTEX
  8
Unknown_Area_Type
  10
262238.500
  20
4620595.000
  0
VERTEX
  8
Unknown_Area_Type
  10
262562.000
  20
4624914.500
  0
VERTEX
  8
Unknown_Area_Type
  10
260347.500
  20
4625216.000
  0
VERTEX
  8
Unknown_Area_Type
  10
259799.000
  20
4624961.500
  0
VERTEX
  8
Unknown_Area_Type
  10
259729.500
  20
4623632.000
  0
VERTEX
  8
Unknown_Area_Type
  10
259729.500
  20
4623622.500
  0
SEQEND
  8
Unknown_Area_Type
  0
INSERT
  8
FeatureAttribs
  2
FEATURE
  41
1
  42
1
  43
1
  50
0
  10
255605.235
  20
4622918.431
 66
1
  0
ATTRIB
  8
FeatureAttribs
 70
0
  1
PNOA-H_AMS_1956-57_33k_ES_PAN_2
  2
NAME
  10
255605.235
  20
4622918.431
 40
34.41336
  0
SEQEND
  0
POLYLINE
  8
Unknown_Area_Type
  70
1
  66
1
  0
VERTEX
  8
Unknown_Area_Type
  10
255634.000
  20
4625252.000
  0
VERTEX
  8
Unknown_Area_Type
  10
257050.000
  20
4625032.000
  0
VERTEX
  8
Unknown_Area_Type
  10
256850.500
  20
4620835.500
  0
VERTEX
  8
Unknown_Area_Type
  10
256850.000
  20
4620833.000
  0
VERTEX
  8
Unknown_Area_Type
  10
256848.000
  20
4620832.500
  0
VERTEX
  8
Unknown_Area_Type
  10
255232.500
  20
4620466.000
  0
VERTEX
  8
Unknown_Area_Type
  10
254172.500
  20
4620811.500
  0
VERTEX
  8
Unknown_Area_Type
  10
254420.000
  20
4625116.500
  0
VERTEX
  8
Unknown_Area_Type
  10
254922.000
  20
4625362.500
  0
VERTEX
  8
Unknown_Area_Type
  10
255631.500
  20
4625252.000
  0
VERTEX
  8
Unknown_Area_Type
  10
255634.000
  20
4625252.000
  0
SEQEND
  8
Unknown_Area_Type
  0
INSERT
  8
FeatureAttribs
  2
FEATURE
  41
1
  42
1
  43
1
  50
0
  10
255605.235
  20
4622918.431
 66
1
  0
ATTRIB
  8
FeatureAttribs
 70
0
  1
PNOA-H_AMS_1956-57_33k_ES_PAN_2
  2
NAME
  10
255605.235
  20
4622918.431
 40
34.41336
  0
SEQEND
  0
POLYLINE
  8
Unknown_Area_Type
  70
1
  66
1
  0
VERTEX
  8
Unknown_Area_Type
  10
255634.000
  20
4625252.000
  0
VERTEX
  8
Unknown_Area_Type
  10
255631.500
  20
4625252.000
  0
VERTEX
  8
Unknown_Area_Type
  10
254922.000
  20
4625362.500
  0
VERTEX
  8
Unknown_Area_Type
  10
254420.000
  20
4625116.500
  0
VERTEX
  8
Unknown_Area_Type
  10
254172.500
  20
4620811.500
  0
VERTEX
  8
Unknown_Area_Type
  10
255232.500
  20
4620466.000
  0
VERTEX
  8
Unknown_Area_Type
  10
256848.000
  20
4620832.500
  0
VERTEX
  8
Unknown_Area_Type
  10
256850.000
  20
4620833.000
  0
VERTEX
  8
Unknown_Area_Type
  10
256850.500
  20
4620835.500
  0
VERTEX
  8
Unknown_Area_Type
  10
257050.000
  20
4625032.000
  0
VERTEX
  8
Unknown_Area_Type
  10
255634.000
  20
4625252.000
  0
SEQEND
  8
Unknown_Area_Type
  0
INSERT
  8
FeatureAttribs
  2
FEATURE
  41
1
  42
1
  43
1
  50
0
  10
258308.834
  20
4622862.694
 66
1
  0
ATTRIB
  8
FeatureAttribs
 70
0
  1
PNOA-H_AMS_1956-57_33k_ES_PAN_2
  2
NAME
  10
258308.834
  20
4622862.694
 40
34.41336
  0
SEQEND
  0
POLYLINE
  8
Unknown_Area_Type
  70
1
  66
1
  0
VERTEX
  8
Unknown_Area_Type
  10
257050.000
  20
4625032.500
  0
VERTEX
  8
Unknown_Area_Type
  10
257589.000
  20
4625282.500
  0
VERTEX
  8
Unknown_Area_Type
  10
257593.500
  20
4625284.500
  0
VERTEX
  8
Unknown_Area_Type
  10
257597.500
  20
4625284.500
  0
VERTEX
  8
Unknown_Area_Type
  10
259726.000
  20
4624972.000
  0
VERTEX
  8
Unknown_Area_Type
  10
259730.000
  20
4624971.500
  0
VERTEX
  8
Unknown_Area_Type
  10
259797.500
  20
4624962.000
  0
VERTEX
  8
Unknown_Area_Type
  10
259799.000
  20
4624961.500
  0
VERTEX
  8
Unknown_Area_Type
  10
259799.000
  20
4624955.000
  0
VERTEX
  8
Unknown_Area_Type
  10
259580.000
  20
4620758.500
  0
VERTEX
  8
Unknown_Area_Type
  10
258113.000
  20
4620388.500
  0
VERTEX
  8
Unknown_Area_Type
  10
256850.000
  20
4620833.000
  0
VERTEX
  8
Unknown_Area_Type
  10
257050.000
  20
4625032.500
  0
SEQEND
  8
Unknown_Area_Type
  0
INSERT
  8
FeatureAttribs
  2
FEATURE
  41
1
  42
1
  43
1
  50
0
  10
258308.834
  20
4622862.694
 66
1
  0
ATTRIB
  8
FeatureAttribs
 70
0
  1
PNOA-H_AMS_1956-57_33k_ES_PAN_2
  2
NAME
  10
258308.834
  20
4622862.694
 40
34.41336
  0
SEQEND
  0
POLYLINE
  8
Unknown_Area_Type
  70
1
  66
1
  0
VERTEX
  8
Unknown_Area_Type
  10
257050.000
  20
4625032.500
  0
VERTEX
  8
Unknown_Area_Type
  10
256850.000
  20
4620833.000
  0
VERTEX
  8
Unknown_Area_Type
  10
258113.000
  20
4620388.500
  0
VERTEX
  8
Unknown_Area_Type
  10
259580.000
  20
4620758.500
  0
VERTEX
  8
Unknown_Area_Type
  10
259799.000
  20
4624955.000
  0
VERTEX
  8
Unknown_Area_Type
  10
259799.000
  20
4624961.500
  0
VERTEX
  8
Unknown_Area_Type
  10
259797.500
  20
4624962.000
  0
VERTEX
  8
Unknown_Area_Type
  10
259730.000
  20
4624971.500
  0
VERTEX
  8
Unknown_Area_Type
  10
259726.000
  20
4624972.000
  0
VERTEX
  8
Unknown_Area_Type
  10
257597.500
  20
4625284.500
  0
VERTEX
  8
Unknown_Area_Type
  10
257593.500
  20
4625284.500
  0
VERTEX
  8
Unknown_Area_Type
  10
257589.000
  20
4625282.500
  0
VERTEX
  8
Unknown_Area_Type
  10
257050.000
  20
4625032.500
  0
SEQEND
  8
Unknown_Area_Type
  0
INSERT
  8
FeatureAttribs
  2
FEATURE
  41
1
  42
1
  43
1
  50
0
  10
234815.925
  20
4627739.398
 66
1
  0
ATTRIB
  8
FeatureAttribs
 70
0
  1
PNOA-H_AMS_1956-57_33k_ES_PAN_2
  2
NAME
  10
234815.925
  20
4627739.398
 40
34.41336
  0
SEQEND
  0
POLYLINE
  8
Unknown_Area_Type
  70
1
  66
1
  0
VERTEX
  8
Unknown_Area_Type
  10
234918.112
  20
4625467.296
  0
VERTEX
  8
Unknown_Area_Type
  10
234629.487
  20
4625477.427
  0
VERTEX
  8
Unknown_Area_Type
  10
234629.487
  20
4629987.890
  0
VERTEX
  8
Unknown_Area_Type
  10
234736.000
  20
4630011.500
  0
VERTEX
  8
Unknown_Area_Type
  10
234741.000
  20
4630011.000
  0
VERTEX
  8
Unknown_Area_Type
  10
235081.962
  20
4629885.208
  0
VERTEX
  8
Unknown_Area_Type
  10
235058.194
  20
4629244.644
  0
VERTEX
  8
Unknown_Area_Type
  10
234972.388
  20
4626931.231
  0
VERTEX
  8
Unknown_Area_Type
  10
234918.112
  20
4625467.296
  0
SEQEND
  8
Unknown_Area_Type
  0
INSERT
  8
FeatureAttribs
  2
FEATURE
  41
1
  42
1
  43
1
  50
0
  10
235407.261
  20
4627537.052
 66
1
  0
ATTRIB
  8
FeatureAttribs
 70
0
  1
PNOA-H_AMS_1956-57_33k_ES_PAN_2
  2
NAME
  10
235407.261
  20
4627537.052
 40
34.41336
  0
SEQEND
  0
POLYLINE
  8
Unknown_Area_Type
  70
1
  66
1
  0
VERTEX
  8
Unknown_Area_Type
  10
235081.962
  20
4629885.208
  0
VERTEX
  8
Unknown_Area_Type
  10
235153.000
  20
4629859.000
  0
VERTEX
  8
Unknown_Area_Type
  10
235154.000
  20
4629858.500
  0
VERTEX
  8
Unknown_Area_Type
  10
235830.000
  20
4629610.500
  0
VERTEX
  8
Unknown_Area_Type
  10
235823.500
  20
4625512.000
  0
VERTEX
  8
Unknown_Area_Type
  10
235714.000
  20
4625439.500
  0
VERTEX
  8
Unknown_Area_Type
  10
235710.000
  20
4625439.500
  0
VERTEX
  8
Unknown_Area_Type
  10
234918.112
  20
4625467.296
  0
VERTEX
  8
Unknown_Area_Type
  10
234972.388
  20
4626931.231
  0
VERTEX
  8
Unknown_Area_Type
  10
235058.194
  20
4629244.644
  0
VERTEX
  8
Unknown_Area_Type
  10
235081.962
  20
4629885.208
  0
SEQEND
  8
Unknown_Area_Type
  0
INSERT
  8
FeatureAttribs
  2
FEATURE
  41
1
  42
1
  43
1
  50
0
  10
235407.261
  20
4627537.052
 66
1
  0
ATTRIB
  8
FeatureAttribs
 70
0
  1
PNOA-H_AMS_1956-57_33k_ES_PAN_2
  2
NAME
  10
235407.261
  20
4627537.052
 40
34.41336
  0
SEQEND
  0
POLYLINE
  8
Unknown_Area_Type
  70
1
  66
1
  0
VERTEX
  8
Unknown_Area_Type
  10
235081.962
  20
4629885.208
  0
VERTEX
  8
Unknown_Area_Type
  10
235058.194
  20
4629244.644
  0
VERTEX
  8
Unknown_Area_Type
  10
234972.388
  20
4626931.231
  0
VERTEX
  8
Unknown_Area_Type
  10
234918.112
  20
4625467.296
  0
VERTEX
  8
Unknown_Area_Type
  10
235710.000
  20
4625439.500
  0
VERTEX
  8
Unknown_Area_Type
  10
235714.000
  20
4625439.500
  0
VERTEX
  8
Unknown_Area_Type
  10
235823.500
  20
4625512.000
  0
VERTEX
  8
Unknown_Area_Type
  10
235830.000
  20
4629610.500
  0
VERTEX
  8
Unknown_Area_Type
  10
235154.000
  20
4629858.500
  0
VERTEX
  8
Unknown_Area_Type
  10
235153.000
  20
4629859.000
  0
VERTEX
  8
Unknown_Area_Type
  10
235081.962
  20
4629885.208
  0
SEQEND
  8
Unknown_Area_Type
  0
INSERT
  8
FeatureAttribs
  2
FEATURE
  41
1
  42
1
  43
1
  50
0
  10
252976.557
  20
4622965.851
 66
1
  0
ATTRIB
  8
FeatureAttribs
 70
0
  1
PNOA-H_AMS_1956-57_33k_ES_PAN_2
  2
NAME
  10
252976.557
  20
4622965.851
 40
34.41336
  0
SEQEND
  0
POLYLINE
  8
Unknown_Area_Type
  70
1
  66
1
  0
VERTEX
  8
Unknown_Area_Type
  10
253586.000
  20
4625218.500
  0
VERTEX
  8
Unknown_Area_Type
  10
254420.500
  20
4625117.000
  0
VERTEX
  8
Unknown_Area_Type
  10
254172.500
  20
4620811.500
  0
VERTEX
  8
Unknown_Area_Type
  10
252474.500
  20
4620482.500
  0
VERTEX
  8
Unknown_Area_Type
  10
251614.500
  20
4620791.500
  0
VERTEX
  8
Unknown_Area_Type
  10
251761.500
  20
4625162.500
  0
VERTEX
  8
Unknown_Area_Type
  10
252183.500
  20
4625388.500
  0
VERTEX
  8
Unknown_Area_Type
  10
253582.500
  20
4625218.500
  0
VERTEX
  8
Unknown_Area_Type
  10
253586.000
  20
4625218.500
  0
SEQEND
  8
Unknown_Area_Type
  0
INSERT
  8
FeatureAttribs
  2
FEATURE
  41
1
  42
1
  43
1
  50
0
  10
252976.557
  20
4622965.851
 66
1
  0
ATTRIB
  8
FeatureAttribs
 70
0
  1
PNOA-H_AMS_1956-57_33k_ES_PAN_2
  2
NAME
  10
252976.557
  20
4622965.851
 40
34.41336
  0
SEQEND
  0
POLYLINE
  8
Unknown_Area_Type
  70
1
  66
1
  0
VERTEX
  8
Unknown_Area_Type
  10
253586.000
  20
4625218.500
  0
VERTEX
  8
Unknown_Area_Type
  10
253582.500
  20
4625218.500
  0
VERTEX
  8
Unknown_Area_Type
  10
252183.500
  20
4625388.500
  0
VERTEX
  8
Unknown_Area_Type
  10
251761.500
  20
4625162.500
  0
VERTEX
  8
Unknown_Area_Type
  10
251614.500
  20
4620791.500
  0
VERTEX
  8
Unknown_Area_Type
  10
252474.500
  20
4620482.500
  0
VERTEX
  8
Unknown_Area_Type
  10
254172.500
  20
4620811.500
  0
VERTEX
  8
Unknown_Area_Type
  10
254420.500
  20
4625117.000
  0
VERTEX
  8
Unknown_Area_Type
  10
253586.000
  20
4625218.500
  0
SEQEND
  8
Unknown_Area_Type
  0
INSERT
  8
FeatureAttribs
  2
FEATURE
  41
1
  42
1
  43
1
  50
0
  10
247657.813
  20
4622953.878
 66
1
  0
ATTRIB
  8
FeatureAttribs
 70
0
  1
PNOA-H_AMS_1956-57_33k_ES_PAN_2
  2
NAME
  10
247657.813
  20
4622953.878
 40
34.41336
  0
SEQEND
  0
POLYLINE
  8
Unknown_Area_Type
  70
1
  66
1
  0
VERTEX
  8
Unknown_Area_Type
  10
247442.000
  20
4625349.000
  0
VERTEX
  8
Unknown_Area_Type
  10
249017.500
  20
4625205.000
  0
VERTEX
  8
Unknown_Area_Type
  10
249031.500
  20
4620726.500
  0
VERTEX
  8
Unknown_Area_Type
  10
246715.500
  20
4620485.000
  0
VERTEX
  8
Unknown_Area_Type
  10
246708.000
  20
4620486.000
  0
VERTEX
  8
Unknown_Area_Type
  10
246334.500
  20
4620651.500
  0
VERTEX
  8
Unknown_Area_Type
  10
246330.500
  20
4620653.500
  0
VERTEX
  8
Unknown_Area_Type
  10
246330.000
  20
4620658.500
  0
VERTEX
  8
Unknown_Area_Type
  10
246317.000
  20
4625182.500
  0
VERTEX
  8
Unknown_Area_Type
  10
246729.000
  20
4625414.500
  0
VERTEX
  8
Unknown_Area_Type
  10
247439.500
  20
4625349.000
  0
VERTEX
  8
Unknown_Area_Type
  10
247442.000
  20
4625349.000
  0
SEQEND
  8
Unknown_Area_Type
  0
INSERT
  8
FeatureAttribs
  2
FEATURE
  41
1
  42
1
  43
1
  50
0
  10
247657.813
  20
4622953.878
 66
1
  0
ATTRIB
  8
FeatureAttribs
 70
0
  1
PNOA-H_AMS_1956-57_33k_ES_PAN_2
  2
NAME
  10
247657.813
  20
4622953.878
 40
34.41336
  0
SEQEND
  0
POLYLINE
  8
Unknown_Area_Type
  70
1
  66
1
  0
VERTEX
  8
Unknown_Area_Type
  10
247442.000
  20
4625349.000
  0
VERTEX
  8
Unknown_Area_Type
  10
247439.500
  20
4625349.000
  0
VERTEX
  8
Unknown_Area_Type
  10
246729.000
  20
4625414.500
  0
VERTEX
  8
Unknown_Area_Type
  10
246317.000
  20
4625182.500
  0
VERTEX
  8
Unknown_Area_Type
  10
246330.000
  20
4620658.500
  0
VERTEX
  8
Unknown_Area_Type
  10
246330.500
  20
4620653.500
  0
VERTEX
  8
Unknown_Area_Type
  10
246334.500
  20
4620651.500
  0
VERTEX
  8
Unknown_Area_Type
  10
246708.000
  20
4620486.000
  0
VERTEX
  8
Unknown_Area_Type
  10
246715.500
  20
4620485.000
  0
VERTEX
  8
Unknown_Area_Type
  10
249031.500
  20
4620726.500
  0
VERTEX
  8
Unknown_Area_Type
  10
249017.500
  20
4625205.000
  0
VERTEX
  8
Unknown_Area_Type
  10
247442.000
  20
4625349.000
  0
SEQEND
  8
Unknown_Area_Type
  0
INSERT
  8
FeatureAttribs
  2
FEATURE
  41
1
  42
1
  43
1
  50
0
  10
244977.237
  20
4622927.776
 66
1
  0
ATTRIB
  8
FeatureAttribs
 70
0
  1
PNOA-H_AMS_1956-57_33k_ES_PAN_2
  2
NAME
  10
244977.237
  20
4622927.776
 40
34.41336
  0
SEQEND
  0
POLYLINE
  8
Unknown_Area_Type
  70
1
  66
1
  0
VERTEX
  8
Unknown_Area_Type
  10
245394.000
  20
4625279.500
  0
VERTEX
  8
Unknown_Area_Type
  10
246317.000
  20
4625182.500
  0
VERTEX
  8
Unknown_Area_Type
  10
246330.500
  20
4620653.500
  0
VERTEX
  8
Unknown_Area_Type
  10
243940.500
  20
4620518.000
  0
VERTEX
  8
Unknown_Area_Type
  10
243933.500
  20
4620518.000
  0
VERTEX
  8
Unknown_Area_Type
  10
243930.000
  20
4620519.500
  0
VERTEX
  8
Unknown_Area_Type
  10
243604.500
  20
4620670.500
  0
VERTEX
  8
Unknown_Area_Type
  10
243713.000
  20
4625236.000
  0
VERTEX
  8
Unknown_Area_Type
  10
244037.000
  20
4625422.000
  0
VERTEX
  8
Unknown_Area_Type
  10
245391.500
  20
4625279.500
  0
VERTEX
  8
Unknown_Area_Type
  10
245394.000
  20
4625279.500
  0
SEQEND
  8
Unknown_Area_Type
  0
INSERT
  8
FeatureAttribs
  2
FEATURE
  41
1
  42
1
  43
1
  50
0
  10
244977.237
  20
4622927.776
 66
1
  0
ATTRIB
  8
FeatureAttribs
 70
0
  1
PNOA-H_AMS_1956-57_33k_ES_PAN_2
  2
NAME
  10
244977.237
  20
4622927.776
 40
34.41336
  0
SEQEND
  0
POLYLINE
  8
Unknown_Area_Type
  70
1
  66
1
  0
VERTEX
  8
Unknown_Area_Type
  10
245394.000
  20
4625279.500
  0
VERTEX
  8
Unknown_Area_Type
  10
245391.500
  20
4625279.500
  0
VERTEX
  8
Unknown_Area_Type
  10
244037.000
  20
4625422.000
  0
VERTEX
  8
Unknown_Area_Type
  10
243713.000
  20
4625236.000
  0
VERTEX
  8
Unknown_Area_Type
  10
243604.500
  20
4620670.500
  0
VERTEX
  8
Unknown_Area_Type
  10
243930.000
  20
4620519.500
  0
VERTEX
  8
Unknown_Area_Type
  10
243933.500
  20
4620518.000
  0
VERTEX
  8
Unknown_Area_Type
  10
243940.500
  20
4620518.000
  0
VERTEX
  8
Unknown_Area_Type
  10
246330.500
  20
4620653.500
  0
VERTEX
  8
Unknown_Area_Type
  10
246317.000
  20
4625182.500
  0
VERTEX
  8
Unknown_Area_Type
  10
245394.000
  20
4625279.500
  0
SEQEND
  8
Unknown_Area_Type
  0
INSERT
  8
FeatureAttribs
  2
FEATURE
  41
1
  42
1
  43
1
  50
0
  10
250336.923
  20
4622992.613
 66
1
  0
ATTRIB
  8
FeatureAttribs
 70
0
  1
PNOA-H_AMS_1956-57_33k_ES_PAN_2
  2
NAME
  10
250336.923
  20
4622992.613
 40
34.41336
  0
SEQEND
  0
POLYLINE
  8
Unknown_Area_Type
  70
1
  66
1
  0
VERTEX
  8
Unknown_Area_Type
  10
249410.000
  20
4625432.000
  0
VERTEX
  8
Unknown_Area_Type
  10
251761.500
  20
4625162.500
  0
VERTEX
  8
Unknown_Area_Type
  10
251614.500
  20
4620791.500
  0
VERTEX
  8
Unknown_Area_Type
  10
249614.000
  20
4620494.000
  0
VERTEX
  8
Unknown_Area_Type
  10
249610.000
  20
4620494.500
  0
VERTEX
  8
Unknown_Area_Type
  10
249031.500
  20
4620726.500
  0
VERTEX
  8
Unknown_Area_Type
  10
249017.500
  20
4625205.000
  0
VERTEX
  8
Unknown_Area_Type
  10
249409.000
  20
4625431.500
  0
VERTEX
  8
Unknown_Area_Type
  10
249410.000
  20
4625432.000
  0
SEQEND
  8
Unknown_Area_Type
  0
INSERT
  8
FeatureAttribs
  2
FEATURE
  41
1
  42
1
  43
1
  50
0
  10
250336.923
  20
4622992.613
 66
1
  0
ATTRIB
  8
FeatureAttribs
 70
0
  1
PNOA-H_AMS_1956-57_33k_ES_PAN_2
  2
NAME
  10
250336.923
  20
4622992.613
 40
34.41336
  0
SEQEND
  0
POLYLINE
  8
Unknown_Area_Type
  70
1
  66
1
  0
VERTEX
  8
Unknown_Area_Type
  10
249410.000
  20
4625432.000
  0
VERTEX
  8
Unknown_Area_Type
  10
249409.000
  20
4625431.500
  0
VERTEX
  8
Unknown_Area_Type
  10
249017.500
  20
4625205.000
  0
VERTEX
  8
Unknown_Area_Type
  10
249031.500
  20
4620726.500
  0
VERTEX
  8
Unknown_Area_Type
  10
249610.000
  20
4620494.500
  0
VERTEX
  8
Unknown_Area_Type
  10
249614.000
  20
4620494.000
  0
VERTEX
  8
Unknown_Area_Type
  10
251614.500
  20
4620791.500
  0
VERTEX
  8
Unknown_Area_Type
  10
251761.500
  20
4625162.500
  0
VERTEX
  8
Unknown_Area_Type
  10
249410.000
  20
4625432.000
  0
SEQEND
  8
Unknown_Area_Type
  0
INSERT
  8
FeatureAttribs
  2
FEATURE
  41
1
  42
1
  43
1
  50
0
  10
240642.500
  20
4620837.750
 66
1
  0
ATTRIB
  8
FeatureAttribs
 70
0
  1
PNOA-H_AMS_1956-57_33k_ES_PAN_2
  2
NAME
  10
240642.500
  20
4620837.750
 40
34.41336
  0
SEQEND
  0
POLYLINE
  8
Unknown_Area_Type
  70
1
  66
1
  0
VERTEX
  8
Unknown_Area_Type
  10
240644.000
  20
4620849.500
  0
VERTEX
  8
Unknown_Area_Type
  10
240645.000
  20
4620849.000
  0
VERTEX
  8
Unknown_Area_Type
  10
240653.500
  20
4620841.000
  0
VERTEX
  8
Unknown_Area_Type
  10
240654.500
  20
4620839.000
  0
VERTEX
  8
Unknown_Area_Type
  10
240654.500
  20
4620831.000
  0
VERTEX
  8
Unknown_Area_Type
  10
240650.500
  20
4620826.000
  0
VERTEX
  8
Unknown_Area_Type
  10
240644.500
  20
4620826.000
  0
VERTEX
  8
Unknown_Area_Type
  10
240641.000
  20
4620830.500
  0
VERTEX
  8
Unknown_Area_Type
  10
240634.000
  20
4620831.500
  0
VERTEX
  8
Unknown_Area_Type
  10
240630.500
  20
4620836.000
  0
VERTEX
  8
Unknown_Area_Type
  10
240630.500
  20
4620844.000
  0
VERTEX
  8
Unknown_Area_Type
  10
240634.000
  20
4620848.500
  0
VERTEX
  8
Unknown_Area_Type
  10
240636.000
  20
4620849.500
  0
VERTEX
  8
Unknown_Area_Type
  10
240644.000
  20
4620849.500
  0
SEQEND
  8
Unknown_Area_Type
  0
INSERT
  8
FeatureAttribs
  2
FEATURE
  41
1
  42
1
  43
1
  50
0
  10
240642.500
  20
4620837.750
 66
1
  0
ATTRIB
  8
FeatureAttribs
 70
0
  1
PNOA-H_AMS_1956-57_33k_ES_PAN_2
  2
NAME
  10
240642.500
  20
4620837.750
 40
34.41336
  0
SEQEND
  0
POLYLINE
  8
Unknown_Area_Type
  70
1
  66
1
  0
VERTEX
  8
Unknown_Area_Type
  10
240644.000
  20
4620849.500
  0
VERTEX
  8
Unknown_Area_Type
  10
240636.000
  20
4620849.500
  0
VERTEX
  8
Unknown_Area_Type
  10
240634.000
  20
4620848.500
  0
VERTEX
  8
Unknown_Area_Type
  10
240630.500
  20
4620844.000
  0
VERTEX
  8
Unknown_Area_Type
  10
240630.500
  20
4620836.000
  0
VERTEX
  8
Unknown_Area_Type
  10
240634.000
  20
4620831.500
  0
VERTEX
  8
Unknown_Area_Type
  10
240641.000
  20
4620830.500
  0
VERTEX
  8
Unknown_Area_Type
  10
240644.500
  20
4620826.000
  0
VERTEX
  8
Unknown_Area_Type
  10
240650.500
  20
4620826.000
  0
VERTEX
  8
Unknown_Area_Type
  10
240654.500
  20
4620831.000
  0
VERTEX
  8
Unknown_Area_Type
  10
240654.500
  20
4620839.000
  0
VERTEX
  8
Unknown_Area_Type
  10
240653.500
  20
4620841.000
  0
VERTEX
  8
Unknown_Area_Type
  10
240645.000
  20
4620849.000
  0
VERTEX
  8
Unknown_Area_Type
  10
240644.000
  20
4620849.500
  0
SEQEND
  8
Unknown_Area_Type
  0
INSERT
  8
FeatureAttribs
  2
FEATURE
  41
1
  42
1
  43
1
  50
0
  10
239700.024
  20
4623044.984
 66
1
  0
ATTRIB
  8
FeatureAttribs
 70
0
  1
PNOA-H_AMS_1956-57_33k_ES_PAN_2
  2
NAME
  10
239700.024
  20
4623044.984
 40
34.41336
  0
SEQEND
  0
POLYLINE
  8
Unknown_Area_Type
  70
1
  66
1
  0
VERTEX
  8
Unknown_Area_Type
  10
239250.000
  20
4625412.500
  0
VERTEX
  8
Unknown_Area_Type
  10
241114.500
  20
4625279.500
  0
VERTEX
  8
Unknown_Area_Type
  10
240978.000
  20
4620703.000
  0
VERTEX
  8
Unknown_Area_Type
  10
238412.000
  20
4620749.000
  0
VERTEX
  8
Unknown_Area_Type
  10
238401.000
  20
4620749.500
  0
VERTEX
  8
Unknown_Area_Type
  10
238397.000
  20
4620751.500
  0
VERTEX
  8
Unknown_Area_Type
  10
238277.500
  20
4620817.500
  0
VERTEX
  8
Unknown_Area_Type
  10
238454.000
  20
4625385.500
  0
VERTEX
  8
Unknown_Area_Type
  10
238570.500
  20
4625461.000
  0
VERTEX
  8
Unknown_Area_Type
  10
239246.000
  20
4625412.500
  0
VERTEX
  8
Unknown_Area_Type
  10
239250.000
  20
4625412.500
  0
SEQEND
  8
Unknown_Area_Type
  0
INSERT
  8
FeatureAttribs
  2
FEATURE
  41
1
  42
1
  43
1
  50
0
  10
239700.024
  20
4623044.984
 66
1
  0
ATTRIB
  8
FeatureAttribs
 70
0
  1
PNOA-H_AMS_1956-57_33k_ES_PAN_2
  2
NAME
  10
239700.024
  20
4623044.984
 40
34.41336
  0
SEQEND
  0
POLYLINE
  8
Unknown_Area_Type
  70
1
  66
1
  0
VERTEX
  8
Unknown_Area_Type
  10
239250.000
  20
4625412.500
  0
VERTEX
  8
Unknown_Area_Type
  10
239246.000
  20
4625412.500
  0
VERTEX
  8
Unknown_Area_Type
  10
238570.500
  20
4625461.000
  0
VERTEX
  8
Unknown_Area_Type
  10
238454.000
  20
4625385.500
  0
VERTEX
  8
Unknown_Area_Type
  10
238277.500
  20
4620817.500
  0
VERTEX
  8
Unknown_Area_Type
  10
238397.000
  20
4620751.500
  0
VERTEX
  8
Unknown_Area_Type
  10
238401.000
  20
4620749.500
  0
VERTEX
  8
Unknown_Area_Type
  10
238412.000
  20
4620749.000
  0
VERTEX
  8
Unknown_Area_Type
  10
240978.000
  20
4620703.000
  0
VERTEX
  8
Unknown_Area_Type
  10
241114.500
  20
4625279.500
  0
VERTEX
  8
Unknown_Area_Type
  10
239250.000
  20
4625412.500
  0
SEQEND
  8
Unknown_Area_Type
  0
INSERT
  8
FeatureAttribs
  2
FEATURE
  41
1
  42
1
  43
1
  50
0
  10
237009.913
  20
4623159.780
 66
1
  0
ATTRIB
  8
FeatureAttribs
 70
0
  1
PNOA-H_AMS_1956-57_33k_ES_PAN_2
  2
NAME
  10
237009.913
  20
4623159.780
 40
34.41336
  0
SEQEND
  0
POLYLINE
  8
Unknown_Area_Type
  70
1
  66
1
  0
VERTEX
  8
Unknown_Area_Type
  10
235713.500
  20
4625439.500
  0
VERTEX
  8
Unknown_Area_Type
  10
235823.000
  20
4625512.000
  0
VERTEX
  8
Unknown_Area_Type
  10
237197.500
  20
4625445.500
  0
VERTEX
  8
Unknown_Area_Type
  10
237202.000
  20
4625445.500
  0
VERTEX
  8
Unknown_Area_Type
  10
238454.000
  20
4625385.000
  0
VERTEX
  8
Unknown_Area_Type
  10
238277.500
  20
4620817.500
  0
VERTEX
  8
Unknown_Area_Type
  10
235668.000
  20
4620883.000
  0
VERTEX
  8
Unknown_Area_Type
  10
235602.500
  20
4620918.500
  0
VERTEX
  8
Unknown_Area_Type
  10
235713.500
  20
4625439.500
  0
SEQEND
  8
Unknown_Area_Type
  0
INSERT
  8
FeatureAttribs
  2
FEATURE
  41
1
  42
1
  43
1
  50
0
  10
237009.913
  20
4623159.780
 66
1
  0
ATTRIB
  8
FeatureAttribs
 70
0
  1
PNOA-H_AMS_1956-57_33k_ES_PAN_2
  2
NAME
  10
237009.913
  20
4623159.780
 40
34.41336
  0
SEQEND
  0
POLYLINE
  8
Unknown_Area_Type
  70
1
  66
1
  0
VERTEX
  8
Unknown_Area_Type
  10
235713.500
  20
4625439.500
  0
VERTEX
  8
Unknown_Area_Type
  10
235602.500
  20
4620918.500
  0
VERTEX
  8
Unknown_Area_Type
  10
235668.000
  20
4620883.000
  0
VERTEX
  8
Unknown_Area_Type
  10
238277.500
  20
4620817.500
  0
VERTEX
  8
Unknown_Area_Type
  10
238454.000
  20
4625385.000
  0
VERTEX
  8
Unknown_Area_Type
  10
237202.000
  20
4625445.500
  0
VERTEX
  8
Unknown_Area_Type
  10
237197.500
  20
4625445.500
  0
VERTEX
  8
Unknown_Area_Type
  10
235823.000
  20
4625512.000
  0
VERTEX
  8
Unknown_Area_Type
  10
235713.500
  20
4625439.500
  0
SEQEND
  8
Unknown_Area_Type
  0
INSERT
  8
FeatureAttribs
  2
FEATURE
  41
1
  42
1
  43
1
  50
0
  10
262862.193
  20
4627040.382
 66
1
  0
ATTRIB
  8
FeatureAttribs
 70
0
  1
PNOA-H_AMS_1956-57_33k_ES_PAN_2
  2
NAME
  10
262862.193
  20
4627040.382
 40
34.41336
  0
SEQEND
  0
POLYLINE
  8
Unknown_Area_Type
  70
1
  66
1
  0
VERTEX
  8
Unknown_Area_Type
  10
262997.947
  20
4629015.729
  0
VERTEX
  8
Unknown_Area_Type
  10
262997.947
  20
4625100.030
  0
VERTEX
  8
Unknown_Area_Type
  10
262657.208
  20
4624955.019
  0
VERTEX
  8
Unknown_Area_Type
  10
262690.472
  20
4625957.204
  0
VERTEX
  8
Unknown_Area_Type
  10
262767.287
  20
4628270.536
  0
VERTEX
  8
Unknown_Area_Type
  10
262795.696
  20
4629125.745
  0
VERTEX
  8
Unknown_Area_Type
  10
262997.947
  20
4629015.729
  0
SEQEND
  8
Unknown_Area_Type
  0
INSERT
  8
FeatureAttribs
  2
FEATURE
  41
1
  42
1
  43
1
  50
0
  10
261558.186
  20
4627170.187
 66
1
  0
ATTRIB
  8
FeatureAttribs
 70
0
  1
PNOA-H_AMS_1956-57_33k_ES_PAN_2
  2
NAME
  10
261558.186
  20
4627170.187
 40
34.41336
  0
SEQEND
  0
POLYLINE
  8
Unknown_Area_Type
  70
1
  66
1
  0
VERTEX
  8
Unknown_Area_Type
  10
262795.696
  20
4629125.745
  0
VERTEX
  8
Unknown_Area_Type
  10
262767.287
  20
4628270.536
  0
VERTEX
  8
Unknown_Area_Type
  10
262690.472
  20
4625957.204
  0
VERTEX
  8
Unknown_Area_Type
  10
262657.208
  20
4624955.019
  0
VERTEX
  8
Unknown_Area_Type
  10
262562.000
  20
4624914.500
  0
VERTEX
  8
Unknown_Area_Type
  10
260352.000
  20
4625215.000
  0
VERTEX
  8
Unknown_Area_Type
  10
260348.500
  20
4625215.500
  0
VERTEX
  8
Unknown_Area_Type
  10
260347.500
  20
4625219.000
  0
VERTEX
  8
Unknown_Area_Type
  10
260305.500
  20
4628994.500
  0
VERTEX
  8
Unknown_Area_Type
  10
262236.000
  20
4629427.000
  0
VERTEX
  8
Unknown_Area_Type
  10
262238.000
  20
4629427.500
  0
VERTEX
  8
Unknown_Area_Type
  10
262240.500
  20
4629427.500
  0
VERTEX
  8
Unknown_Area_Type
  10
262257.500
  20
4629418.500
  0
VERTEX
  8
Unknown_Area_Type
  10
262795.696
  20
4629125.745
  0
SEQEND
  8
Unknown_Area_Type
  0
INSERT
  8
FeatureAttribs
  2
FEATURE
  41
1
  42
1
  43
1
  50
0
  10
261558.186
  20
4627170.187
 66
1
  0
ATTRIB
  8
FeatureAttribs
 70
0
  1
PNOA-H_AMS_1956-57_33k_ES_PAN_2
  2
NAME
  10
261558.186
  20
4627170.187
 40
34.41336
  0
SEQEND
  0
POLYLINE
  8
Unknown_Area_Type
  70
1
  66
1
  0
VERTEX
  8
Unknown_Area_Type
  10
262795.696
  20
4629125.745
  0
VERTEX
  8
Unknown_Area_Type
  10
262257.500
  20
4629418.500
  0
VERTEX
  8
Unknown_Area_Type
  10
262240.500
  20
4629427.500
  0
VERTEX
  8
Unknown_Area_Type
  10
262238.000
  20
4629427.500
  0
VERTEX
  8
Unknown_Area_Type
  10
262236.000
  20
4629427.000
  0
VERTEX
  8
Unknown_Area_Type
  10
260305.500
  20
4628994.500
  0
VERTEX
  8
Unknown_Area_Type
  10
260347.500
  20
4625219.000
  0
VERTEX
  8
Unknown_Area_Type
  10
260348.500
  20
4625215.500
  0
VERTEX
  8
Unknown_Area_Type
  10
260352.000
  20
4625215.000
  0
VERTEX
  8
Unknown_Area_Type
  10
262562.000
  20
4624914.500
  0
VERTEX
  8
Unknown_Area_Type
  10
262657.208
  20
4624955.019
  0
VERTEX
  8
Unknown_Area_Type
  10
262690.472
  20
4625957.204
  0
VERTEX
  8
Unknown_Area_Type
  10
262767.287
  20
4628270.536
  0
VERTEX
  8
Unknown_Area_Type
  10
262795.696
  20
4629125.745
  0
SEQEND
  8
Unknown_Area_Type
  0
INSERT
  8
FeatureAttribs
  2
FEATURE
  41
1
  42
1
  43
1
  50
0
  10
256261.778
  20
4627287.696
 66
1
  0
ATTRIB
  8
FeatureAttribs
 70
0
  1
PNOA-H_AMS_1956-57_33k_ES_PAN_2
  2
NAME
  10
256261.778
  20
4627287.696
 40
34.41336
  0
SEQEND
  0
POLYLINE
  8
Unknown_Area_Type
  70
1
  66
1
  0
VERTEX
  8
Unknown_Area_Type
  10
256550.000
  20
4629573.000
  0
VERTEX
  8
Unknown_Area_Type
  10
257621.500
  20
4629088.000
  0
VERTEX
  8
Unknown_Area_Type
  10
257594.500
  20
4625284.500
  0
VERTEX
  8
Unknown_Area_Type
  10
257050.000
  20
4625032.000
  0
VERTEX
  8
Unknown_Area_Type
  10
254922.000
  20
4625362.500
  0
VERTEX
  8
Unknown_Area_Type
  10
254856.500
  20
4629180.000
  0
VERTEX
  8
Unknown_Area_Type
  10
256548.000
  20
4629572.500
  0
VERTEX
  8
Unknown_Area_Type
  10
256550.000
  20
4629573.000
  0
SEQEND
  8
Unknown_Area_Type
  0
INSERT
  8
FeatureAttribs
  2
FEATURE
  41
1
  42
1
  43
1
  50
0
  10
256261.778
  20
4627287.696
 66
1
  0
ATTRIB
  8
FeatureAttribs
 70
0
  1
PNOA-H_AMS_1956-57_33k_ES_PAN_2
  2
NAME
  10
256261.778
  20
4627287.696
 40
34.41336
  0
SEQEND
  0
POLYLINE
  8
Unknown_Area_Type
  70
1
  66
1
  0
VERTEX
  8
Unknown_Area_Type
  10
256550.000
  20
4629573.000
  0
VERTEX
  8
Unknown_Area_Type
  10
256548.000
  20
4629572.500
  0
VERTEX
  8
Unknown_Area_Type
  10
254856.500
  20
4629180.000
  0
VERTEX
  8
Unknown_Area_Type
  10
254922.000
  20
4625362.500
  0
VERTEX
  8
Unknown_Area_Type
  10
257050.000
  20
4625032.000
  0
VERTEX
  8
Unknown_Area_Type
  10
257594.500
  20
4625284.500
  0
VERTEX
  8
Unknown_Area_Type
  10
257621.500
  20
4629088.000
  0
VERTEX
  8
Unknown_Area_Type
  10
256550.000
  20
4629573.000
  0
SEQEND
  8
Unknown_Area_Type
  0
INSERT
  8
FeatureAttribs
  2
FEATURE
  41
1
  42
1
  43
1
  50
0
  10
253543.370
  20
4627332.795
 66
1
  0
ATTRIB
  8
FeatureAttribs
 70
0
  1
PNOA-H_AMS_1956-57_33k_ES_PAN_2
  2
NAME
  10
253543.370
  20
4627332.795
 40
34.41336
  0
SEQEND
  0
POLYLINE
  8
Unknown_Area_Type
  70
1
  66
1
  0
VERTEX
  8
Unknown_Area_Type
  10
253827.500
  20
4629627.000
  0
VERTEX
  8
Unknown_Area_Type
  10
254855.000
  20
4629181.000
  0
VERTEX
  8
Unknown_Area_Type
  10
254857.000
  20
4629178.500
  0
VERTEX
  8
Unknown_Area_Type
  10
254922.000
  20
4625362.000
  0
VERTEX
  8
Unknown_Area_Type
  10
254421.000
  20
4625117.000
  0
VERTEX
  8
Unknown_Area_Type
  10
252184.500
  20
4625388.500
  0
VERTEX
  8
Unknown_Area_Type
  10
252166.000
  20
4629254.000
  0
VERTEX
  8
Unknown_Area_Type
  10
253825.500
  20
4629626.500
  0
VERTEX
  8
Unknown_Area_Type
  10
253827.500
  20
4629627.000
  0
SEQEND
  8
Unknown_Area_Type
  0
INSERT
  8
FeatureAttribs
  2
FEATURE
  41
1
  42
1
  43
1
  50
0
  10
253543.370
  20
4627332.795
 66
1
  0
ATTRIB
  8
FeatureAttribs
 70
0
  1
PNOA-H_AMS_1956-57_33k_ES_PAN_2
  2
NAME
  10
253543.370
  20
4627332.795
 40
34.41336
  0
SEQEND
  0
POLYLINE
  8
Unknown_Area_Type
  70
1
  66
1
  0
VERTEX
  8
Unknown_Area_Type
  10
253827.500
  20
4629627.000
  0
VERTEX
  8
Unknown_Area_Type
  10
253825.500
  20
4629626.500
  0
VERTEX
  8
Unknown_Area_Type
  10
252166.000
  20
4629254.000
  0
VERTEX
  8
Unknown_Area_Type
  10
252184.500
  20
4625388.500
  0
VERTEX
  8
Unknown_Area_Type
  10
254421.000
  20
4625117.000
  0
VERTEX
  8
Unknown_Area_Type
  10
254922.000
  20
4625362.000
  0
VERTEX
  8
Unknown_Area_Type
  10
254857.000
  20
4629178.500
  0
VERTEX
  8
Unknown_Area_Type
  10
254855.000
  20
4629181.000
  0
VERTEX
  8
Unknown_Area_Type
  10
253827.500
  20
4629627.000
  0
SEQEND
  8
Unknown_Area_Type
  0
INSERT
  8
FeatureAttribs
  2
FEATURE
  41
1
  42
1
  43
1
  50
0
  10
248085.313
  20
4627450.281
 66
1
  0
ATTRIB
  8
FeatureAttribs
 70
0
  1
PNOA-H_AMS_1956-57_33k_ES_PAN_2
  2
NAME
  10
248085.313
  20
4627450.281
 40
34.41336
  0
SEQEND
  0
POLYLINE
  8
Unknown_Area_Type
  70
1
  66
1
  0
VERTEX
  8
Unknown_Area_Type
  10
248377.000
  20
4629750.000
  0
VERTEX
  8
Unknown_Area_Type
  10
248380.000
  20
4629750.000
  0
VERTEX
  8
Unknown_Area_Type
  10
248422.500
  20
4629733.000
  0
VERTEX
  8
Unknown_Area_Type
  10
249467.000
  20
4629312.500
  0
VERTEX
  8
Unknown_Area_Type
  10
249410.500
  20
4625434.500
  0
VERTEX
  8
Unknown_Area_Type
  10
249410.000
  20
4625431.500
  0
VERTEX
  8
Unknown_Area_Type
  10
249018.000
  20
4625205.000
  0
VERTEX
  8
Unknown_Area_Type
  10
246729.000
  20
4625414.500
  0
VERTEX
  8
Unknown_Area_Type
  10
246711.000
  20
4629428.500
  0
VERTEX
  8
Unknown_Area_Type
  10
248374.500
  20
4629749.500
  0
VERTEX
  8
Unknown_Area_Type
  10
248377.000
  20
4629750.000
  0
SEQEND
  8
Unknown_Area_Type
  0
INSERT
  8
FeatureAttribs
  2
FEATURE
  41
1
  42
1
  43
1
  50
0
  10
248085.313
  20
4627450.281
 66
1
  0
ATTRIB
  8
FeatureAttribs
 70
0
  1
PNOA-H_AMS_1956-57_33k_ES_PAN_2
  2
NAME
  10
248085.313
  20
4627450.281
 40
34.41336
  0
SEQEND
  0
POLYLINE
  8
Unknown_Area_Type
  70
1
  66
1
  0
VERTEX
  8
Unknown_Area_Type
  10
248377.000
  20
4629750.000
  0
VERTEX
  8
Unknown_Area_Type
  10
248374.500
  20
4629749.500
  0
VERTEX
  8
Unknown_Area_Type
  10
246711.000
  20
4629428.500
  0
VERTEX
  8
Unknown_Area_Type
  10
246729.000
  20
4625414.500
  0
VERTEX
  8
Unknown_Area_Type
  10
249018.000
  20
4625205.000
  0
VERTEX
  8
Unknown_Area_Type
  10
249410.000
  20
4625431.500
  0
VERTEX
  8
Unknown_Area_Type
  10
249410.500
  20
4625434.500
  0
VERTEX
  8
Unknown_Area_Type
  10
249467.000
  20
4629312.500
  0
VERTEX
  8
Unknown_Area_Type
  10
248422.500
  20
4629733.000
  0
VERTEX
  8
Unknown_Area_Type
  10
248380.000
  20
4629750.000
  0
VERTEX
  8
Unknown_Area_Type
  10
248377.000
  20
4629750.000
  0
SEQEND
  8
Unknown_Area_Type
  0
INSERT
  8
FeatureAttribs
  2
FEATURE
  41
1
  42
1
  43
1
  50
0
  10
242343.146
  20
4622979.899
 66
1
  0
ATTRIB
  8
FeatureAttribs
 70
0
  1
PNOA-H_AMS_1956-57_33k_ES_PAN_2
  2
NAME
  10
242343.146
  20
4622979.899
 40
34.41336
  0
SEQEND
  0
POLYLINE
  8
Unknown_Area_Type
  70
1
  66
1
  0
VERTEX
  8
Unknown_Area_Type
  10
241297.000
  20
4625387.000
  0
VERTEX
  8
Unknown_Area_Type
  10
241346.500
  20
4625416.000
  0
VERTEX
  8
Unknown_Area_Type
  10
241351.000
  20
4625416.000
  0
VERTEX
  8
Unknown_Area_Type
  10
243713.000
  20
4625236.000
  0
VERTEX
  8
Unknown_Area_Type
  10
243605.000
  20
4620671.000
  0
VERTEX
  8
Unknown_Area_Type
  10
243558.500
  20
4620669.000
  0
VERTEX
  8
Unknown_Area_Type
  10
241166.000
  20
4620607.000
  0
VERTEX
  8
Unknown_Area_Type
  10
240978.000
  20
4620703.000
  0
VERTEX
  8
Unknown_Area_Type
  10
241114.000
  20
4625273.500
  0
VERTEX
  8
Unknown_Area_Type
  10
241114.500
  20
4625280.000
  0
VERTEX
  8
Unknown_Area_Type
  10
241296.500
  20
4625386.000
  0
VERTEX
  8
Unknown_Area_Type
  10
241297.000
  20
4625387.000
  0
SEQEND
  8
Unknown_Area_Type
  0
INSERT
  8
FeatureAttribs
  2
FEATURE
  41
1
  42
1
  43
1
  50
0
  10
242343.146
  20
4622979.899
 66
1
  0
ATTRIB
  8
FeatureAttribs
 70
0
  1
PNOA-H_AMS_1956-57_33k_ES_PAN_2
  2
NAME
  10
242343.146
  20
4622979.899
 40
34.41336
  0
SEQEND
  0
POLYLINE
  8
Unknown_Area_Type
  70
1
  66
1
  0
VERTEX
  8
Unknown_Area_Type
  10
241297.000
  20
4625387.000
  0
VERTEX
  8
Unknown_Area_Type
  10
241296.500
  20
4625386.000
  0
VERTEX
  8
Unknown_Area_Type
  10
241114.500
  20
4625280.000
  0
VERTEX
  8
Unknown_Area_Type
  10
241114.000
  20
4625273.500
  0
VERTEX
  8
Unknown_Area_Type
  10
240978.000
  20
4620703.000
  0
VERTEX
  8
Unknown_Area_Type
  10
241166.000
  20
4620607.000
  0
VERTEX
  8
Unknown_Area_Type
  10
243558.500
  20
4620669.000
  0
VERTEX
  8
Unknown_Area_Type
  10
243605.000
  20
4620671.000
  0
VERTEX
  8
Unknown_Area_Type
  10
243713.000
  20
4625236.000
  0
VERTEX
  8
Unknown_Area_Type
  10
241351.000
  20
4625416.000
  0
VERTEX
  8
Unknown_Area_Type
  10
241346.500
  20
4625416.000
  0
VERTEX
  8
Unknown_Area_Type
  10
241297.000
  20
4625387.000
  0
SEQEND
  8
Unknown_Area_Type
  0
INSERT
  8
FeatureAttribs
  2
FEATURE
  41
1
  42
1
  43
1
  50
0
  10
258981.563
  20
4627186.414
 66
1
  0
ATTRIB
  8
FeatureAttribs
 70
0
  1
PNOA-H_AMS_1956-57_33k_ES_PAN_2
  2
NAME
  10
258981.563
  20
4627186.414
 40
34.41336
  0
SEQEND
  0
POLYLINE
  8
Unknown_Area_Type
  70
1
  66
1
  0
VERTEX
  8
Unknown_Area_Type
  10
257681.000
  20
4629102.500
  0
VERTEX
  8
Unknown_Area_Type
  10
259329.500
  20
4629493.500
  0
VERTEX
  8
Unknown_Area_Type
  10
260305.500
  20
4628994.500
  0
VERTEX
  8
Unknown_Area_Type
  10
260348.000
  20
4625216.000
  0
VERTEX
  8
Unknown_Area_Type
  10
259799.500
  20
4624961.500
  0
VERTEX
  8
Unknown_Area_Type
  10
257594.500
  20
4625284.500
  0
VERTEX
  8
Unknown_Area_Type
  10
257621.500
  20
4629088.000
  0
VERTEX
  8
Unknown_Area_Type
  10
257679.000
  20
4629102.000
  0
VERTEX
  8
Unknown_Area_Type
  10
257681.000
  20
4629102.500
  0
SEQEND
  8
Unknown_Area_Type
  0
INSERT
  8
FeatureAttribs
  2
FEATURE
  41
1
  42
1
  43
1
  50
0
  10
258981.563
  20
4627186.414
 66
1
  0
ATTRIB
  8
FeatureAttribs
 70
0
  1
PNOA-H_AMS_1956-57_33k_ES_PAN_2
  2
NAME
  10
258981.563
  20
4627186.414
 40
34.41336
  0
SEQEND
  0
POLYLINE
  8
Unknown_Area_Type
  70
1
  66
1
  0
VERTEX
  8
Unknown_Area_Type
  10
257681.000
  20
4629102.500
  0
VERTEX
  8
Unknown_Area_Type
  10
257679.000
  20
4629102.000
  0
VERTEX
  8
Unknown_Area_Type
  10
257621.500
  20
4629088.000
  0
VERTEX
  8
Unknown_Area_Type
  10
257594.500
  20
4625284.500
  0
VERTEX
  8
Unknown_Area_Type
  10
259799.500
  20
4624961.500
  0
VERTEX
  8
Unknown_Area_Type
  10
260348.000
  20
4625216.000
  0
VERTEX
  8
Unknown_Area_Type
  10
260305.500
  20
4628994.500
  0
VERTEX
  8
Unknown_Area_Type
  10
259329.500
  20
4629493.500
  0
VERTEX
  8
Unknown_Area_Type
  10
257681.000
  20
4629102.500
  0
SEQEND
  8
Unknown_Area_Type
  0
INSERT
  8
FeatureAttribs
  2
FEATURE
  41
1
  42
1
  43
1
  50
0
  10
242696.763
  20
4627500.378
 66
1
  0
ATTRIB
  8
FeatureAttribs
 70
0
  1
PNOA-H_AMS_1956-57_33k_ES_PAN_2
  2
NAME
  10
242696.763
  20
4627500.378
 40
34.41336
  0
SEQEND
  0
POLYLINE
  8
Unknown_Area_Type
  70
1
  66
1
  0
VERTEX
  8
Unknown_Area_Type
  10
244037.000
  20
4625672.000
  0
VERTEX
  8
Unknown_Area_Type
  10
244037.500
  20
4625422.000
  0
VERTEX
  8
Unknown_Area_Type
  10
243713.500
  20
4625236.000
  0
VERTEX
  8
Unknown_Area_Type
  10
241347.000
  20
4625416.000
  0
VERTEX
  8
Unknown_Area_Type
  10
241348.000
  20
4629521.500
  0
VERTEX
  8
Unknown_Area_Type
  10
242969.000
  20
4629857.500
  0
VERTEX
  8
Unknown_Area_Type
  10
244023.500
  20
4629457.500
  0
VERTEX
  8
Unknown_Area_Type
  10
244037.000
  20
4625705.500
  0
VERTEX
  8
Unknown_Area_Type
  10
244037.000
  20
4625672.000
  0
SEQEND
  8
Unknown_Area_Type
  0
INSERT
  8
FeatureAttribs
  2
FEATURE
  41
1
  42
1
  43
1
  50
0
  10
242696.763
  20
4627500.378
 66
1
  0
ATTRIB
  8
FeatureAttribs
 70
0
  1
PNOA-H_AMS_1956-57_33k_ES_PAN_2
  2
NAME
  10
242696.763
  20
4627500.378
 40
34.41336
  0
SEQEND
  0
POLYLINE
  8
Unknown_Area_Type
  70
1
  66
1
  0
VERTEX
  8
Unknown_Area_Type
  10
244037.000
  20
4625672.000
  0
VERTEX
  8
Unknown_Area_Type
  10
244037.000
  20
4625705.500
  0
VERTEX
  8
Unknown_Area_Type
  10
244023.500
  20
4629457.500
  0
VERTEX
  8
Unknown_Area_Type
  10
242969.000
  20
4629857.500
  0
VERTEX
  8
Unknown_Area_Type
  10
241348.000
  20
4629521.500
  0
VERTEX
  8
Unknown_Area_Type
  10
241347.000
  20
4625416.000
  0
VERTEX
  8
Unknown_Area_Type
  10
243713.500
  20
4625236.000
  0
VERTEX
  8
Unknown_Area_Type
  10
244037.500
  20
4625422.000
  0
VERTEX
  8
Unknown_Area_Type
  10
244037.000
  20
4625672.000
  0
SEQEND
  8
Unknown_Area_Type
  0
INSERT
  8
FeatureAttribs
  2
FEATURE
  41
1
  42
1
  43
1
  50
0
  10
250819.386
  20
4627381.612
 66
1
  0
ATTRIB
  8
FeatureAttribs
 70
0
  1
PNOA-H_AMS_1956-57_33k_ES_PAN_2
  2
NAME
  10
250819.386
  20
4627381.612
 40
34.41336
  0
SEQEND
  0
POLYLINE
  8
Unknown_Area_Type
  70
1
  66
1
  0
VERTEX
  8
Unknown_Area_Type
  10
249489.500
  20
4629318.000
  0
VERTEX
  8
Unknown_Area_Type
  10
251085.500
  20
4629687.000
  0
VERTEX
  8
Unknown_Area_Type
  10
252166.000
  20
4629254.000
  0
VERTEX
  8
Unknown_Area_Type
  10
252184.500
  20
4625388.500
  0
VERTEX
  8
Unknown_Area_Type
  10
251762.000
  20
4625162.500
  0
VERTEX
  8
Unknown_Area_Type
  10
249410.000
  20
4625432.000
  0
VERTEX
  8
Unknown_Area_Type
  10
249466.500
  20
4629306.000
  0
VERTEX
  8
Unknown_Area_Type
  10
249467.000
  20
4629312.500
  0
VERTEX
  8
Unknown_Area_Type
  10
249487.500
  20
4629317.500
  0
VERTEX
  8
Unknown_Area_Type
  10
249489.500
  20
4629318.000
  0
SEQEND
  8
Unknown_Area_Type
  0
INSERT
  8
FeatureAttribs
  2
FEATURE
  41
1
  42
1
  43
1
  50
0
  10
250819.386
  20
4627381.612
 66
1
  0
ATTRIB
  8
FeatureAttribs
 70
0
  1
PNOA-H_AMS_1956-57_33k_ES_PAN_2
  2
NAME
  10
250819.386
  20
4627381.612
 40
34.41336
  0
SEQEND
  0
POLYLINE
  8
Unknown_Area_Type
  70
1
  66
1
  0
VERTEX
  8
Unknown_Area_Type
  10
249489.500
  20
4629318.000
  0
VERTEX
  8
Unknown_Area_Type
  10
249487.500
  20
4629317.500
  0
VERTEX
  8
Unknown_Area_Type
  10
249467.000
  20
4629312.500
  0
VERTEX
  8
Unknown_Area_Type
  10
249466.500
  20
4629306.000
  0
VERTEX
  8
Unknown_Area_Type
  10
249410.000
  20
4625432.000
  0
VERTEX
  8
Unknown_Area_Type
  10
251762.000
  20
4625162.500
  0
VERTEX
  8
Unknown_Area_Type
  10
252184.500
  20
4625388.500
  0
VERTEX
  8
Unknown_Area_Type
  10
252166.000
  20
4629254.000
  0
VERTEX
  8
Unknown_Area_Type
  10
251085.500
  20
4629687.000
  0
VERTEX
  8
Unknown_Area_Type
  10
249489.500
  20
4629318.000
  0
SEQEND
  8
Unknown_Area_Type
  0
INSERT
  8
FeatureAttribs
  2
FEATURE
  41
1
  42
1
  43
1
  50
0
  10
237230.462
  20
4627623.364
 66
1
  0
ATTRIB
  8
FeatureAttribs
 70
0
  1
PNOA-H_AMS_1956-57_33k_ES_PAN_2
  2
NAME
  10
237230.462
  20
4627623.364
 40
34.41336
  0
SEQEND
  0
POLYLINE
  8
Unknown_Area_Type
  70
1
  66
1
  0
VERTEX
  8
Unknown_Area_Type
  10
235830.000
  20
4629610.500
  0
VERTEX
  8
Unknown_Area_Type
  10
237199.000
  20
4629882.500
  0
VERTEX
  8
Unknown_Area_Type
  10
237201.500
  20
4629883.000
  0
VERTEX
  8
Unknown_Area_Type
  10
237601.000
  20
4629962.000
  0
VERTEX
  8
Unknown_Area_Type
  10
238659.000
  20
4629548.000
  0
VERTEX
  8
Unknown_Area_Type
  10
238571.000
  20
4625465.500
  0
VERTEX
  8
Unknown_Area_Type
  10
238570.500
  20
4625460.500
  0
VERTEX
  8
Unknown_Area_Type
  10
238454.000
  20
4625385.000
  0
VERTEX
  8
Unknown_Area_Type
  10
235823.500
  20
4625512.000
  0
VERTEX
  8
Unknown_Area_Type
  10
235830.000
  20
4629610.500
  0
SEQEND
  8
Unknown_Area_Type
  0
INSERT
  8
FeatureAttribs
  2
FEATURE
  41
1
  42
1
  43
1
  50
0
  10
237230.462
  20
4627623.364
 66
1
  0
ATTRIB
  8
FeatureAttribs
 70
0
  1
PNOA-H_AMS_1956-57_33k_ES_PAN_2
  2
NAME
  10
237230.462
  20
4627623.364
 40
34.41336
  0
SEQEND
  0
POLYLINE
  8
Unknown_Area_Type
  70
1
  66
1
  0
VERTEX
  8
Unknown_Area_Type
  10
235830.000
  20
4629610.500
  0
VERTEX
  8
Unknown_Area_Type
  10
235823.500
  20
4625512.000
  0
VERTEX
  8
Unknown_Area_Type
  10
238454.000
  20
4625385.000
  0
VERTEX
  8
Unknown_Area_Type
  10
238570.500
  20
4625460.500
  0
VERTEX
  8
Unknown_Area_Type
  10
238571.000
  20
4625465.500
  0
VERTEX
  8
Unknown_Area_Type
  10
238659.000
  20
4629548.000
  0
VERTEX
  8
Unknown_Area_Type
  10
237601.000
  20
4629962.000
  0
VERTEX
  8
Unknown_Area_Type
  10
237201.500
  20
4629883.000
  0
VERTEX
  8
Unknown_Area_Type
  10
237199.000
  20
4629882.500
  0
VERTEX
  8
Unknown_Area_Type
  10
235830.000
  20
4629610.500
  0
SEQEND
  8
Unknown_Area_Type
  0
INSERT
  8
FeatureAttribs
  2
FEATURE
  41
1
  42
1
  43
1
  50
0
  10
245387.507
  20
4627465.947
 66
1
  0
ATTRIB
  8
FeatureAttribs
 70
0
  1
PNOA-H_AMS_1956-57_33k_ES_PAN_2
  2
NAME
  10
245387.507
  20
4627465.947
 40
34.41336
  0
SEQEND
  0
POLYLINE
  8
Unknown_Area_Type
  70
1
  66
1
  0
VERTEX
  8
Unknown_Area_Type
  10
245721.500
  20
4629813.000
  0
VERTEX
  8
Unknown_Area_Type
  10
246711.000
  20
4629428.500
  0
VERTEX
  8
Unknown_Area_Type
  10
246729.000
  20
4625414.000
  0
VERTEX
  8
Unknown_Area_Type
  10
246317.500
  20
4625182.500
  0
VERTEX
  8
Unknown_Area_Type
  10
244037.500
  20
4625422.000
  0
VERTEX
  8
Unknown_Area_Type
  10
244023.500
  20
4629457.500
  0
VERTEX
  8
Unknown_Area_Type
  10
245719.000
  20
4629812.500
  0
VERTEX
  8
Unknown_Area_Type
  10
245721.500
  20
4629813.000
  0
SEQEND
  8
Unknown_Area_Type
  0
INSERT
  8
FeatureAttribs
  2
FEATURE
  41
1
  42
1
  43
1
  50
0
  10
245387.507
  20
4627465.947
 66
1
  0
ATTRIB
  8
FeatureAttribs
 70
0
  1
PNOA-H_AMS_1956-57_33k_ES_PAN_2
  2
NAME
  10
245387.507
  20
4627465.947
 40
34.41336
  0
SEQEND
  0
POLYLINE
  8
Unknown_Area_Type
  70
1
  66
1
  0
VERTEX
  8
Unknown_Area_Type
  10
245721.500
  20
4629813.000
  0
VERTEX
  8
Unknown_Area_Type
  10
245719.000
  20
4629812.500
  0
VERTEX
  8
Unknown_Area_Type
  10
244023.500
  20
4629457.500
  0
VERTEX
  8
Unknown_Area_Type
  10
244037.500
  20
4625422.000
  0
VERTEX
  8
Unknown_Area_Type
  10
246317.500
  20
4625182.500
  0
VERTEX
  8
Unknown_Area_Type
  10
246729.000
  20
4625414.000
  0
VERTEX
  8
Unknown_Area_Type
  10
246711.000
  20
4629428.500
  0
VERTEX
  8
Unknown_Area_Type
  10
245721.500
  20
4629813.000
  0
SEQEND
  8
Unknown_Area_Type
  0
INSERT
  8
FeatureAttribs
  2
FEATURE
  41
1
  42
1
  43
1
  50
0
  10
239992.753
  20
4627527.714
 66
1
  0
ATTRIB
  8
FeatureAttribs
 70
0
  1
PNOA-H_AMS_1956-57_33k_ES_PAN_2
  2
NAME
  10
239992.753
  20
4627527.714
 40
34.41336
  0
SEQEND
  0
POLYLINE
  8
Unknown_Area_Type
  70
1
  66
1
  0
VERTEX
  8
Unknown_Area_Type
  10
241347.000
  20
4625672.000
  0
VERTEX
  8
Unknown_Area_Type
  10
241347.000
  20
4625416.000
  0
VERTEX
  8
Unknown_Area_Type
  10
241114.500
  20
4625279.500
  0
VERTEX
  8
Unknown_Area_Type
  10
238570.500
  20
4625461.000
  0
VERTEX
  8
Unknown_Area_Type
  10
238659.000
  20
4629548.000
  0
VERTEX
  8
Unknown_Area_Type
  10
240304.000
  20
4629881.500
  0
VERTEX
  8
Unknown_Area_Type
  10
240308.000
  20
4629881.500
  0
VERTEX
  8
Unknown_Area_Type
  10
240318.500
  20
4629878.000
  0
VERTEX
  8
Unknown_Area_Type
  10
241348.000
  20
4629521.500
  0
VERTEX
  8
Unknown_Area_Type
  10
241347.000
  20
4625924.000
  0
VERTEX
  8
Unknown_Area_Type
  10
241347.000
  20
4625672.000
  0
SEQEND
  8
Unknown_Area_Type
  0
INSERT
  8
FeatureAttribs
  2
FEATURE
  41
1
  42
1
  43
1
  50
0
  10
239992.753
  20
4627527.714
 66
1
  0
ATTRIB
  8
FeatureAttribs
 70
0
  1
PNOA-H_AMS_1956-57_33k_ES_PAN_2
  2
NAME
  10
239992.753
  20
4627527.714
 40
34.41336
  0
SEQEND
  0
POLYLINE
  8
Unknown_Area_Type
  70
1
  66
1
  0
VERTEX
  8
Unknown_Area_Type
  10
241347.000
  20
4625672.000
  0
VERTEX
  8
Unknown_Area_Type
  10
241347.000
  20
4625924.000
  0
VERTEX
  8
Unknown_Area_Type
  10
241348.000
  20
4629521.500
  0
VERTEX
  8
Unknown_Area_Type
  10
240318.500
  20
4629878.000
  0
VERTEX
  8
Unknown_Area_Type
  10
240308.000
  20
4629881.500
  0
VERTEX
  8
Unknown_Area_Type
  10
240304.000
  20
4629881.500
  0
VERTEX
  8
Unknown_Area_Type
  10
238659.000
  20
4629548.000
  0
VERTEX
  8
Unknown_Area_Type
  10
238570.500
  20
4625461.000
  0
VERTEX
  8
Unknown_Area_Type
  10
241114.500
  20
4625279.500
  0
VERTEX
  8
Unknown_Area_Type
  10
241347.000
  20
4625416.000
  0
VERTEX
  8
Unknown_Area_Type
  10
241347.000
  20
4625672.000
  0
SEQEND
  8
Unknown_Area_Type
  0
INSERT
  8
FeatureAttribs
  2
FEATURE
  41
1
  42
1
  43
1
  50
0
  10
262490.468
  20
4622726.835
 66
1
  0
ATTRIB
  8
FeatureAttribs
 70
0
  1
PNOA-H_AMS_1956-57_33k_ES_PAN_2
  2
NAME
  10
262490.468
  20
4622726.835
 40
34.41336
  0
SEQEND
  0
POLYLINE
  8
Unknown_Area_Type
  70
1
  66
1
  0
VERTEX
  8
Unknown_Area_Type
  10
262509.353
  20
4620498.790
  0
VERTEX
  8
Unknown_Area_Type
  10
262247.000
  20
4620582.500
  0
VERTEX
  8
Unknown_Area_Type
  10
262238.000
  20
4620585.500
  0
VERTEX
  8
Unknown_Area_Type
  10
262237.500
  20
4620588.500
  0
VERTEX
  8
Unknown_Area_Type
  10
262561.500
  20
4624914.000
  0
VERTEX
  8
Unknown_Area_Type
  10
262657.204
  20
4624954.880
  0
VERTEX
  8
Unknown_Area_Type
  10
262613.690
  20
4623643.878
  0
VERTEX
  8
Unknown_Area_Type
  10
262536.938
  20
4621330.558
  0
VERTEX
  8
Unknown_Area_Type
  10
262509.353
  20
4620498.790
  0
SEQEND
  8
Unknown_Area_Type
  0
INSERT
  8
FeatureAttribs
  2
FEATURE
  41
1
  42
1
  43
1
  50
0
  10
262490.468
  20
4622726.835
 66
1
  0
ATTRIB
  8
FeatureAttribs
 70
0
  1
PNOA-H_AMS_1956-57_33k_ES_PAN_2
  2
NAME
  10
262490.468
  20
4622726.835
 40
34.41336
  0
SEQEND
  0
POLYLINE
  8
Unknown_Area_Type
  70
1
  66
1
  0
VERTEX
  8
Unknown_Area_Type
  10
262509.353
  20
4620498.790
  0
VERTEX
  8
Unknown_Area_Type
  10
262247.000
  20
4620582.500
  0
VERTEX
  8
Unknown_Area_Type
  10
262238.000
  20
4620585.500
  0
VERTEX
  8
Unknown_Area_Type
  10
262237.500
  20
4620588.500
  0
VERTEX
  8
Unknown_Area_Type
  10
262561.500
  20
4624914.000
  0
VERTEX
  8
Unknown_Area_Type
  10
262657.204
  20
4624954.880
  0
VERTEX
  8
Unknown_Area_Type
  10
262613.690
  20
4623643.878
  0
VERTEX
  8
Unknown_Area_Type
  10
262536.938
  20
4621330.558
  0
VERTEX
  8
Unknown_Area_Type
  10
262509.353
  20
4620498.790
  0
SEQEND
  8
Unknown_Area_Type
  0
INSERT
  8
FeatureAttribs
  2
FEATURE
  41
1
  42
1
  43
1
  50
0
  10
262790.520
  20
4622721.661
 66
1
  0
ATTRIB
  8
FeatureAttribs
 70
0
  1
PNOA-H_AMS_1956-57_33k_ES_PAN_2
  2
NAME
  10
262790.520
  20
4622721.661
 40
34.41336
  0
SEQEND
  0
POLYLINE
  8
Unknown_Area_Type
  70
1
  66
1
  0
VERTEX
  8
Unknown_Area_Type
  10
262997.947
  20
4620342.893
  0
VERTEX
  8
Unknown_Area_Type
  10
262509.353
  20
4620498.790
  0
VERTEX
  8
Unknown_Area_Type
  10
262536.938
  20
4621330.558
  0
VERTEX
  8
Unknown_Area_Type
  10
262613.690
  20
4623643.878
  0
VERTEX
  8
Unknown_Area_Type
  10
262657.204
  20
4624954.880
  0
VERTEX
  8
Unknown_Area_Type
  10
262997.947
  20
4625100.429
  0
VERTEX
  8
Unknown_Area_Type
  10
262997.947
  20
4620342.893
  0
SEQEND
  8
Unknown_Area_Type
  0
INSERT
  8
FeatureAttribs
  2
FEATURE
  41
1
  42
1
  43
1
  50
0
  10
234659.768
  20
4619312.299
 66
1
  0
ATTRIB
  8
FeatureAttribs
 70
0
  1
PNOA-H_AMS_1956-57_33k_ES_PAN_2
  2
NAME
  10
234659.768
  20
4619312.299
 40
34.41336
  0
SEQEND
  0
POLYLINE
  8
Unknown_Area_Type
  70
1
  66
1
  0
VERTEX
  8
Unknown_Area_Type
  10
234750.465
  20
4620943.485
  0
VERTEX
  8
Unknown_Area_Type
  10
234715.181
  20
4619991.026
  0
VERTEX
  8
Unknown_Area_Type
  10
234629.516
  20
4617677.637
  0
VERTEX
  8
Unknown_Area_Type
  10
234629.487
  20
4617677.638
  0
VERTEX
  8
Unknown_Area_Type
  10
234629.487
  20
4620946.961
  0
VERTEX
  8
Unknown_Area_Type
  10
234750.465
  20
4620943.485
  0
SEQEND
  8
Unknown_Area_Type
  0
INSERT
  8
FeatureAttribs
  2
FEATURE
  41
1
  42
1
  43
1
  50
0
  10
234629.502
  20
4617677.445
 66
1
  0
ATTRIB
  8
FeatureAttribs
 70
0
  1
PNOA-H_AMS_1956-57_33k_ES_PAN_2
  2
NAME
  10
234629.502
  20
4617677.445
 40
34.41336
  0
SEQEND
  0
POLYLINE
  8
Unknown_Area_Type
  70
1
  66
1
  0
VERTEX
  8
Unknown_Area_Type
  10
234629.487
  20
4617677.638
  0
VERTEX
  8
Unknown_Area_Type
  10
234629.516
  20
4617677.637
  0
VERTEX
  8
Unknown_Area_Type
  10
234629.487
  20
4617676.870
  0
VERTEX
  8
Unknown_Area_Type
  10
234629.487
  20
4617677.638
  0
SEQEND
  8
Unknown_Area_Type
  0
INSERT
  8
FeatureAttribs
  2
FEATURE
  41
1
  42
1
  43
1
  50
0
  10
235047.785
  20
4617190.777
 66
1
  0
ATTRIB
  8
FeatureAttribs
 70
0
  1
PNOA-H_AMS_1956-57_33k_ES_PAN_2
  2
NAME
  10
235047.785
  20
4617190.777
 40
34.41336
  0
SEQEND
  0
POLYLINE
  8
Unknown_Area_Type
  70
1
  66
1
  0
VERTEX
  8
Unknown_Area_Type
  10
235439.460
  20
4616703.918
  0
VERTEX
  8
Unknown_Area_Type
  10
234629.487
  20
4616703.918
  0
VERTEX
  8
Unknown_Area_Type
  10
234629.487
  20
4617676.870
  0
VERTEX
  8
Unknown_Area_Type
  10
234629.516
  20
4617677.637
  0
VERTEX
  8
Unknown_Area_Type
  10
235490.971
  20
4617645.952
  0
VERTEX
  8
Unknown_Area_Type
  10
235439.460
  20
4616703.918
  0
SEQEND
  8
Unknown_Area_Type
  0
INSERT
  8
FeatureAttribs
  2
FEATURE
  41
1
  42
1
  43
1
  50
0
  10
235135.966
  20
4619313.028
 66
1
  0
ATTRIB
  8
FeatureAttribs
 70
0
  1
PNOA-H_AMS_1956-57_33k_ES_PAN_2
  2
NAME
  10
235135.966
  20
4619313.028
 40
34.41336
  0
SEQEND
  0
POLYLINE
  8
Unknown_Area_Type
  70
1
  66
1
  0
VERTEX
  8
Unknown_Area_Type
  10
235490.971
  20
4617645.952
  0
VERTEX
  8
Unknown_Area_Type
  10
234629.516
  20
4617677.637
  0
VERTEX
  8
Unknown_Area_Type
  10
234715.181
  20
4619991.026
  0
VERTEX
  8
Unknown_Area_Type
  10
234750.465
  20
4620943.485
  0
VERTEX
  8
Unknown_Area_Type
  10
235602.500
  20
4620919.000
  0
VERTEX
  8
Unknown_Area_Type
  10
235668.000
  20
4620883.500
  0
VERTEX
  8
Unknown_Area_Type
  10
235490.971
  20
4617645.952
  0
SEQEND
  8
Unknown_Area_Type
  0
INSERT
  8
FeatureAttribs
  2
FEATURE
  41
1
  42
1
  43
1
  50
0
  10
235135.966
  20
4619313.028
 66
1
  0
ATTRIB
  8
FeatureAttribs
 70
0
  1
PNOA-H_AMS_1956-57_33k_ES_PAN_2
  2
NAME
  10
235135.966
  20
4619313.028
 40
34.41336
  0
SEQEND
  0
POLYLINE
  8
Unknown_Area_Type
  70
1
  66
1
  0
VERTEX
  8
Unknown_Area_Type
  10
235490.971
  20
4617645.952
  0
VERTEX
  8
Unknown_Area_Type
  10
235668.000
  20
4620883.500
  0
VERTEX
  8
Unknown_Area_Type
  10
235602.500
  20
4620919.000
  0
VERTEX
  8
Unknown_Area_Type
  10
234750.465
  20
4620943.485
  0
VERTEX
  8
Unknown_Area_Type
  10
234715.181
  20
4619991.026
  0
VERTEX
  8
Unknown_Area_Type
  10
234629.516
  20
4617677.637
  0
VERTEX
  8
Unknown_Area_Type
  10
235490.971
  20
4617645.952
  0
SEQEND
  8
Unknown_Area_Type
  0
INSERT
  8
FeatureAttribs
  2
FEATURE
  41
1
  42
1
  43
1
  50
0
  10
234717.194
  20
4632247.040
 66
1
  0
ATTRIB
  8
FeatureAttribs
 70
0
  1
PNOA-H_AMS_1956-57_33k_ES_PAN_2
  2
NAME
  10
234717.194
  20
4632247.040
 40
34.41336
  0
SEQEND
  0
POLYLINE
  8
Unknown_Area_Type
  70
1
  66
1
  0
VERTEX
  8
Unknown_Area_Type
  10
234629.487
  20
4634506.597
  0
VERTEX
  8
Unknown_Area_Type
  10
234871.500
  20
4634472.500
  0
VERTEX
  8
Unknown_Area_Type
  10
234738.000
  20
4630011.500
  0
VERTEX
  8
Unknown_Area_Type
  10
234629.487
  20
4629987.484
  0
VERTEX
  8
Unknown_Area_Type
  10
234629.487
  20
4634506.597
  0
SEQEND
  8
Unknown_Area_Type
  0
INSERT
  8
FeatureAttribs
  2
FEATURE
  41
1
  42
1
  43
1
  50
0
  10
236840.852
  20
4617174.929
 66
1
  0
ATTRIB
  8
FeatureAttribs
 70
0
  1
PNOA-H_AMS_1956-57_33k_ES_PAN_2
  2
NAME
  10
236840.852
  20
4617174.929
 40
34.41336
  0
SEQEND
  0
POLYLINE
  8
Unknown_Area_Type
  70
1
  66
1
  0
VERTEX
  8
Unknown_Area_Type
  10
238191.685
  20
4616703.918
  0
VERTEX
  8
Unknown_Area_Type
  10
235439.881
  20
4616703.918
  0
VERTEX
  8
Unknown_Area_Type
  10
235491.302
  20
4617645.940
  0
VERTEX
  8
Unknown_Area_Type
  10
238098.823
  20
4617550.035
  0
VERTEX
  8
Unknown_Area_Type
  10
238235.310
  20
4617545.081
  0
VERTEX
  8
Unknown_Area_Type
  10
238191.685
  20
4616703.918
  0
SEQEND
  8
Unknown_Area_Type
  0
INSERT
  8
FeatureAttribs
  2
FEATURE
  41
1
  42
1
  43
1
  50
0
  10
236951.439
  20
4619220.436
 66
1
  0
ATTRIB
  8
FeatureAttribs
 70
0
  1
PNOA-H_AMS_1956-57_33k_ES_PAN_2
  2
NAME
  10
236951.439
  20
4619220.436
 40
34.41336
  0
SEQEND
  0
POLYLINE
  8
Unknown_Area_Type
  70
1
  66
1
  0
VERTEX
  8
Unknown_Area_Type
  10
238235.310
  20
4617545.081
  0
VERTEX
  8
Unknown_Area_Type
  10
238098.823
  20
4617550.035
  0
VERTEX
  8
Unknown_Area_Type
  10
235491.302
  20
4617645.940
  0
VERTEX
  8
Unknown_Area_Type
  10
235668.000
  20
4620883.000
  0
VERTEX
  8
Unknown_Area_Type
  10
237201.000
  20
4620844.500
  0
VERTEX
  8
Unknown_Area_Type
  10
237202.000
  20
4620844.500
  0
VERTEX
  8
Unknown_Area_Type
  10
238276.500
  20
4620818.000
  0
VERTEX
  8
Unknown_Area_Type
  10
238401.500
  20
4620749.500
  0
VERTEX
  8
Unknown_Area_Type
  10
238235.310
  20
4617545.081
  0
SEQEND
  8
Unknown_Area_Type
  0
INSERT
  8
FeatureAttribs
  2
FEATURE
  41
1
  42
1
  43
1
  50
0
  10
236951.439
  20
4619220.436
 66
1
  0
ATTRIB
  8
FeatureAttribs
 70
0
  1
PNOA-H_AMS_1956-57_33k_ES_PAN_2
  2
NAME
  10
236951.439
  20
4619220.436
 40
34.41336
  0
SEQEND
  0
POLYLINE
  8
Unknown_Area_Type
  70
1
  66
1
  0
VERTEX
  8
Unknown_Area_Type
  10
238235.310
  20
4617545.081
  0
VERTEX
  8
Unknown_Area_Type
  10
238401.500
  20
4620749.500
  0
VERTEX
  8
Unknown_Area_Type
  10
238276.500
  20
4620818.000
  0
VERTEX
  8
Unknown_Area_Type
  10
237202.000
  20
4620844.500
  0
VERTEX
  8
Unknown_Area_Type
  10
237201.000
  20
4620844.500
  0
VERTEX
  8
Unknown_Area_Type
  10
235668.000
  20
4620883.000
  0
VERTEX
  8
Unknown_Area_Type
  10
235491.302
  20
4617645.940
  0
VERTEX
  8
Unknown_Area_Type
  10
238098.823
  20
4617550.035
  0
VERTEX
  8
Unknown_Area_Type
  10
238235.310
  20
4617545.081
  0
SEQEND
  8
Unknown_Area_Type
  0
INSERT
  8
FeatureAttribs
  2
FEATURE
  41
1
  42
1
  43
1
  50
0
  10
245322.255
  20
4617022.607
 66
1
  0
ATTRIB
  8
FeatureAttribs
 70
0
  1
PNOA-H_AMS_1956-57_33k_ES_PAN_2
  2
NAME
  10
245322.255
  20
4617022.607
 40
34.41336
  0
SEQEND
  0
POLYLINE
  8
Unknown_Area_Type
  70
1
  66
1
  0
VERTEX
  8
Unknown_Area_Type
  10
246774.306
  20
4616703.918
  0
VERTEX
  8
Unknown_Area_Type
  10
243870.164
  20
4616703.918
  0
VERTEX
  8
Unknown_Area_Type
  10
243880.832
  20
4617341.297
  0
VERTEX
  8
Unknown_Area_Type
  10
245037.388
  20
4617299.880
  0
VERTEX
  8
Unknown_Area_Type
  10
246765.421
  20
4617238.837
  0
VERTEX
  8
Unknown_Area_Type
  10
246774.306
  20
4616703.918
  0
SEQEND
  8
Unknown_Area_Type
  0
INSERT
  8
FeatureAttribs
  2
FEATURE
  41
1
  42
1
  43
1
  50
0
  10
245335.934
  20
4618926.268
 66
1
  0
ATTRIB
  8
FeatureAttribs
 70
0
  1
PNOA-H_AMS_1956-57_33k_ES_PAN_2
  2
NAME
  10
245335.934
  20
4618926.268
 40
34.41336
  0
SEQEND
  0
POLYLINE
  8
Unknown_Area_Type
  70
1
  66
1
  0
VERTEX
  8
Unknown_Area_Type
  10
246765.421
  20
4617238.837
  0
VERTEX
  8
Unknown_Area_Type
  10
245037.388
  20
4617299.880
  0
VERTEX
  8
Unknown_Area_Type
  10
243880.832
  20
4617341.297
  0
VERTEX
  8
Unknown_Area_Type
  10
243934.000
  20
4620518.000
  0
VERTEX
  8
Unknown_Area_Type
  10
245378.000
  20
4620600.000
  0
VERTEX
  8
Unknown_Area_Type
  10
245387.000
  20
4620600.500
  0
VERTEX
  8
Unknown_Area_Type
  10
246331.500
  20
4620653.500
  0
VERTEX
  8
Unknown_Area_Type
  10
246711.500
  20
4620485.000
  0
VERTEX
  8
Unknown_Area_Type
  10
246765.421
  20
4617238.837
  0
SEQEND
  8
Unknown_Area_Type
  0
INSERT
  8
FeatureAttribs
  2
FEATURE
  41
1
  42
1
  43
1
  50
0
  10
245335.934
  20
4618926.268
 66
1
  0
ATTRIB
  8
FeatureAttribs
 70
0
  1
PNOA-H_AMS_1956-57_33k_ES_PAN_2
  2
NAME
  10
245335.934
  20
4618926.268
 40
34.41336
  0
SEQEND
  0
POLYLINE
  8
Unknown_Area_Type
  70
1
  66
1
  0
VERTEX
  8
Unknown_Area_Type
  10
246765.421
  20
4617238.837
  0
VERTEX
  8
Unknown_Area_Type
  10
246711.500
  20
4620485.000
  0
VERTEX
  8
Unknown_Area_Type
  10
246331.500
  20
4620653.500
  0
VERTEX
  8
Unknown_Area_Type
  10
245387.000
  20
4620600.500
  0
VERTEX
  8
Unknown_Area_Type
  10
245378.000
  20
4620600.000
  0
VERTEX
  8
Unknown_Area_Type
  10
243934.000
  20
4620518.000
  0
VERTEX
  8
Unknown_Area_Type
  10
243880.832
  20
4617341.297
  0
VERTEX
  8
Unknown_Area_Type
  10
245037.388
  20
4617299.880
  0
VERTEX
  8
Unknown_Area_Type
  10
246765.421
  20
4617238.837
  0
SEQEND
  8
Unknown_Area_Type
  0
INSERT
  8
FeatureAttribs
  2
FEATURE
  41
1
  42
1
  43
1
  50
0
  10
240642.500
  20
4620837.750
 66
1
  0
ATTRIB
  8
FeatureAttribs
 70
0
  1
PNOA-H_AMS_1956-57_33k_ES_PAN_2
  2
NAME
  10
240642.500
  20
4620837.750
 40
34.41336
  0
SEQEND
  0
POLYLINE
  8
Unknown_Area_Type
  70
1
  66
1
  0
VERTEX
  8
Unknown_Area_Type
  10
240636.000
  20
4620849.500
  0
VERTEX
  8
Unknown_Area_Type
  10
240644.000
  20
4620849.500
  0
VERTEX
  8
Unknown_Area_Type
  10
240653.500
  20
4620841.000
  0
VERTEX
  8
Unknown_Area_Type
  10
240654.500
  20
4620839.000
  0
VERTEX
  8
Unknown_Area_Type
  10
240654.500
  20
4620831.000
  0
VERTEX
  8
Unknown_Area_Type
  10
240650.500
  20
4620826.000
  0
VERTEX
  8
Unknown_Area_Type
  10
240644.500
  20
4620826.000
  0
VERTEX
  8
Unknown_Area_Type
  10
240641.000
  20
4620830.500
  0
VERTEX
  8
Unknown_Area_Type
  10
240636.000
  20
4620830.500
  0
VERTEX
  8
Unknown_Area_Type
  10
240631.500
  20
4620834.000
  0
VERTEX
  8
Unknown_Area_Type
  10
240630.500
  20
4620836.000
  0
VERTEX
  8
Unknown_Area_Type
  10
240630.500
  20
4620844.000
  0
VERTEX
  8
Unknown_Area_Type
  10
240635.000
  20
4620849.000
  0
VERTEX
  8
Unknown_Area_Type
  10
240636.000
  20
4620849.500
  0
SEQEND
  8
Unknown_Area_Type
  0
INSERT
  8
FeatureAttribs
  2
FEATURE
  41
1
  42
1
  43
1
  50
0
  10
240642.500
  20
4620837.750
 66
1
  0
ATTRIB
  8
FeatureAttribs
 70
0
  1
PNOA-H_AMS_1956-57_33k_ES_PAN_2
  2
NAME
  10
240642.500
  20
4620837.750
 40
34.41336
  0
SEQEND
  0
POLYLINE
  8
Unknown_Area_Type
  70
1
  66
1
  0
VERTEX
  8
Unknown_Area_Type
  10
240636.000
  20
4620849.500
  0
VERTEX
  8
Unknown_Area_Type
  10
240635.000
  20
4620849.000
  0
VERTEX
  8
Unknown_Area_Type
  10
240630.500
  20
4620844.000
  0
VERTEX
  8
Unknown_Area_Type
  10
240630.500
  20
4620836.000
  0
VERTEX
  8
Unknown_Area_Type
  10
240631.500
  20
4620834.000
  0
VERTEX
  8
Unknown_Area_Type
  10
240636.000
  20
4620830.500
  0
VERTEX
  8
Unknown_Area_Type
  10
240641.000
  20
4620830.500
  0
VERTEX
  8
Unknown_Area_Type
  10
240644.500
  20
4620826.000
  0
VERTEX
  8
Unknown_Area_Type
  10
240650.500
  20
4620826.000
  0
VERTEX
  8
Unknown_Area_Type
  10
240654.500
  20
4620831.000
  0
VERTEX
  8
Unknown_Area_Type
  10
240654.500
  20
4620839.000
  0
VERTEX
  8
Unknown_Area_Type
  10
240653.500
  20
4620841.000
  0
VERTEX
  8
Unknown_Area_Type
  10
240644.000
  20
4620849.500
  0
VERTEX
  8
Unknown_Area_Type
  10
240636.000
  20
4620849.500
  0
SEQEND
  8
Unknown_Area_Type
  0
INSERT
  8
FeatureAttribs
  2
FEATURE
  41
1
  42
1
  43
1
  50
0
  10
239632.333
  20
4617124.499
 66
1
  0
ATTRIB
  8
FeatureAttribs
 70
0
  1
PNOA-H_AMS_1956-57_33k_ES_PAN_2
  2
NAME
  10
239632.333
  20
4617124.499
 40
34.41336
  0
SEQEND
  0
POLYLINE
  8
Unknown_Area_Type
  70
1
  66
1
  0
VERTEX
  8
Unknown_Area_Type
  10
241037.240
  20
4616703.918
  0
VERTEX
  8
Unknown_Area_Type
  10
238191.685
  20
4616703.918
  0
VERTEX
  8
Unknown_Area_Type
  10
238235.310
  20
4617545.081
  0
VERTEX
  8
Unknown_Area_Type
  10
241061.700
  20
4617442.497
  0
VERTEX
  8
Unknown_Area_Type
  10
241037.240
  20
4616703.918
  0
SEQEND
  8
Unknown_Area_Type
  0
INSERT
  8
FeatureAttribs
  2
FEATURE
  41
1
  42
1
  43
1
  50
0
  10
239719.105
  20
4619101.647
 66
1
  0
ATTRIB
  8
FeatureAttribs
 70
0
  1
PNOA-H_AMS_1956-57_33k_ES_PAN_2
  2
NAME
  10
239719.105
  20
4619101.647
 40
34.41336
  0
SEQEND
  0
POLYLINE
  8
Unknown_Area_Type
  70
1
  66
1
  0
VERTEX
  8
Unknown_Area_Type
  10
241061.700
  20
4617442.497
  0
VERTEX
  8
Unknown_Area_Type
  10
238235.310
  20
4617545.081
  0
VERTEX
  8
Unknown_Area_Type
  10
238401.500
  20
4620749.500
  0
VERTEX
  8
Unknown_Area_Type
  10
239242.000
  20
4620734.000
  0
VERTEX
  8
Unknown_Area_Type
  10
239250.000
  20
4620734.000
  0
VERTEX
  8
Unknown_Area_Type
  10
240978.500
  20
4620703.000
  0
VERTEX
  8
Unknown_Area_Type
  10
241166.500
  20
4620607.000
  0
VERTEX
  8
Unknown_Area_Type
  10
241061.700
  20
4617442.497
  0
SEQEND
  8
Unknown_Area_Type
  0
INSERT
  8
FeatureAttribs
  2
FEATURE
  41
1
  42
1
  43
1
  50
0
  10
239719.105
  20
4619101.647
 66
1
  0
ATTRIB
  8
FeatureAttribs
 70
0
  1
PNOA-H_AMS_1956-57_33k_ES_PAN_2
  2
NAME
  10
239719.105
  20
4619101.647
 40
34.41336
  0
SEQEND
  0
POLYLINE
  8
Unknown_Area_Type
  70
1
  66
1
  0
VERTEX
  8
Unknown_Area_Type
  10
241061.700
  20
4617442.497
  0
VERTEX
  8
Unknown_Area_Type
  10
241166.500
  20
4620607.000
  0
VERTEX
  8
Unknown_Area_Type
  10
240978.500
  20
4620703.000
  0
VERTEX
  8
Unknown_Area_Type
  10
239250.000
  20
4620734.000
  0
VERTEX
  8
Unknown_Area_Type
  10
239242.000
  20
4620734.000
  0
VERTEX
  8
Unknown_Area_Type
  10
238401.500
  20
4620749.500
  0
VERTEX
  8
Unknown_Area_Type
  10
238235.310
  20
4617545.081
  0
VERTEX
  8
Unknown_Area_Type
  10
241061.700
  20
4617442.497
  0
SEQEND
  8
Unknown_Area_Type
  0
INSERT
  8
FeatureAttribs
  2
FEATURE
  41
1
  42
1
  43
1
  50
0
  10
251178.033
  20
4616919.473
 66
1
  0
ATTRIB
  8
FeatureAttribs
 70
0
  1
PNOA-H_AMS_1956-57_33k_ES_PAN_2
  2
NAME
  10
251178.033
  20
4616919.473
 40
34.41336
  0
SEQEND
  0
POLYLINE
  8
Unknown_Area_Type
  70
1
  66
1
  0
VERTEX
  8
Unknown_Area_Type
  10
252637.714
  20
4616703.918
  0
VERTEX
  8
Unknown_Area_Type
  10
249734.706
  20
4616703.918
  0
VERTEX
  8
Unknown_Area_Type
  10
249720.726
  20
4617135.028
  0
VERTEX
  8
Unknown_Area_Type
  10
251975.891
  20
4617056.456
  0
VERTEX
  8
Unknown_Area_Type
  10
252623.366
  20
4617034.212
  0
VERTEX
  8
Unknown_Area_Type
  10
252637.714
  20
4616703.918
  0
SEQEND
  8
Unknown_Area_Type
  0
INSERT
  8
FeatureAttribs
  2
FEATURE
  41
1
  42
1
  43
1
  50
0
  10
251119.035
  20
4618859.766
 66
1
  0
ATTRIB
  8
FeatureAttribs
 70
0
  1
PNOA-H_AMS_1956-57_33k_ES_PAN_2
  2
NAME
  10
251119.035
  20
4618859.766
 40
34.41336
  0
SEQEND
  0
POLYLINE
  8
Unknown_Area_Type
  70
1
  66
1
  0
VERTEX
  8
Unknown_Area_Type
  10
252623.366
  20
4617034.212
  0
VERTEX
  8
Unknown_Area_Type
  10
251975.891
  20
4617056.456
  0
VERTEX
  8
Unknown_Area_Type
  10
249720.726
  20
4617135.028
  0
VERTEX
  8
Unknown_Area_Type
  10
249612.000
  20
4620488.000
  0
VERTEX
  8
Unknown_Area_Type
  10
249612.000
  20
4620494.000
  0
VERTEX
  8
Unknown_Area_Type
  10
249614.000
  20
4620494.500
  0
VERTEX
  8
Unknown_Area_Type
  10
251616.000
  20
4620791.500
  0
VERTEX
  8
Unknown_Area_Type
  10
252474.000
  20
4620482.500
  0
VERTEX
  8
Unknown_Area_Type
  10
252604.000
  20
4617486.500
  0
VERTEX
  8
Unknown_Area_Type
  10
252604.000
  20
4617480.000
  0
VERTEX
  8
Unknown_Area_Type
  10
252623.366
  20
4617034.212
  0
SEQEND
  8
Unknown_Area_Type
  0
INSERT
  8
FeatureAttribs
  2
FEATURE
  41
1
  42
1
  43
1
  50
0
  10
251119.035
  20
4618859.766
 66
1
  0
ATTRIB
  8
FeatureAttribs
 70
0
  1
PNOA-H_AMS_1956-57_33k_ES_PAN_2
  2
NAME
  10
251119.035
  20
4618859.766
 40
34.41336
  0
SEQEND
  0
POLYLINE
  8
Unknown_Area_Type
  70
1
  66
1
  0
VERTEX
  8
Unknown_Area_Type
  10
252623.366
  20
4617034.212
  0
VERTEX
  8
Unknown_Area_Type
  10
252604.000
  20
4617480.000
  0
VERTEX
  8
Unknown_Area_Type
  10
252604.000
  20
4617486.500
  0
VERTEX
  8
Unknown_Area_Type
  10
252474.000
  20
4620482.500
  0
VERTEX
  8
Unknown_Area_Type
  10
251616.000
  20
4620791.500
  0
VERTEX
  8
Unknown_Area_Type
  10
249614.000
  20
4620494.500
  0
VERTEX
  8
Unknown_Area_Type
  10
249612.000
  20
4620494.000
  0
VERTEX
  8
Unknown_Area_Type
  10
249612.000
  20
4620488.000
  0
VERTEX
  8
Unknown_Area_Type
  10
249720.726
  20
4617135.028
  0
VERTEX
  8
Unknown_Area_Type
  10
251975.891
  20
4617056.456
  0
VERTEX
  8
Unknown_Area_Type
  10
252623.366
  20
4617034.212
  0
SEQEND
  8
Unknown_Area_Type
  0
INSERT
  8
FeatureAttribs
  2
FEATURE
  41
1
  42
1
  43
1
  50
0
  10
254014.924
  20
4616869.069
 66
1
  0
ATTRIB
  8
FeatureAttribs
 70
0
  1
PNOA-H_AMS_1956-57_33k_ES_PAN_2
  2
NAME
  10
254014.924
  20
4616869.069
 40
34.41336
  0
SEQEND
  0
POLYLINE
  8
Unknown_Area_Type
  70
1
  66
1
  0
VERTEX
  8
Unknown_Area_Type
  10
255407.260
  20
4616703.918
  0
VERTEX
  8
Unknown_Area_Type
  10
252637.424
  20
4616703.918
  0
VERTEX
  8
Unknown_Area_Type
  10
252623.138
  20
4617034.220
  0
VERTEX
  8
Unknown_Area_Type
  10
255396.311
  20
4616938.945
  0
VERTEX
  8
Unknown_Area_Type
  10
255407.260
  20
4616703.918
  0
SEQEND
  8
Unknown_Area_Type
  0
INSERT
  8
FeatureAttribs
  2
FEATURE
  41
1
  42
1
  43
1
  50
0
  10
253937.644
  20
4618815.065
 66
1
  0
ATTRIB
  8
FeatureAttribs
 70
0
  1
PNOA-H_AMS_1956-57_33k_ES_PAN_2
  2
NAME
  10
253937.644
  20
4618815.065
 40
34.41336
  0
SEQEND
  0
POLYLINE
  8
Unknown_Area_Type
  70
1
  66
1
  0
VERTEX
  8
Unknown_Area_Type
  10
255396.311
  20
4616938.945
  0
VERTEX
  8
Unknown_Area_Type
  10
252623.138
  20
4617034.220
  0
VERTEX
  8
Unknown_Area_Type
  10
252474.000
  20
4620482.500
  0
VERTEX
  8
Unknown_Area_Type
  10
254168.500
  20
4620811.000
  0
VERTEX
  8
Unknown_Area_Type
  10
254171.000
  20
4620811.500
  0
VERTEX
  8
Unknown_Area_Type
  10
255232.000
  20
4620466.000
  0
VERTEX
  8
Unknown_Area_Type
  10
255396.311
  20
4616938.945
  0
SEQEND
  8
Unknown_Area_Type
  0
INSERT
  8
FeatureAttribs
  2
FEATURE
  41
1
  42
1
  43
1
  50
0
  10
253937.644
  20
4618815.065
 66
1
  0
ATTRIB
  8
FeatureAttribs
 70
0
  1
PNOA-H_AMS_1956-57_33k_ES_PAN_2
  2
NAME
  10
253937.644
  20
4618815.065
 40
34.41336
  0
SEQEND
  0
POLYLINE
  8
Unknown_Area_Type
  70
1
  66
1
  0
VERTEX
  8
Unknown_Area_Type
  10
255396.311
  20
4616938.945
  0
VERTEX
  8
Unknown_Area_Type
  10
255232.000
  20
4620466.000
  0
VERTEX
  8
Unknown_Area_Type
  10
254171.000
  20
4620811.500
  0
VERTEX
  8
Unknown_Area_Type
  10
254168.500
  20
4620811.000
  0
VERTEX
  8
Unknown_Area_Type
  10
252474.000
  20
4620482.500
  0
VERTEX
  8
Unknown_Area_Type
  10
252623.138
  20
4617034.220
  0
VERTEX
  8
Unknown_Area_Type
  10
255396.311
  20
4616938.945
  0
SEQEND
  8
Unknown_Area_Type
  0
INSERT
  8
FeatureAttribs
  2
FEATURE
  41
1
  42
1
  43
1
  50
0
  10
242462.695
  20
4617073.215
 66
1
  0
ATTRIB
  8
FeatureAttribs
 70
0
  1
PNOA-H_AMS_1956-57_33k_ES_PAN_2
  2
NAME
  10
242462.695
  20
4617073.215
 40
34.41336
  0
SEQEND
  0
POLYLINE
  8
Unknown_Area_Type
  70
1
  66
1
  0
VERTEX
  8
Unknown_Area_Type
  10
243870.164
  20
4616703.918
  0
VERTEX
  8
Unknown_Area_Type
  10
241036.801
  20
4616703.918
  0
VERTEX
  8
Unknown_Area_Type
  10
241061.288
  20
4617442.512
  0
VERTEX
  8
Unknown_Area_Type
  10
241568.114
  20
4617424.116
  0
VERTEX
  8
Unknown_Area_Type
  10
243880.832
  20
4617341.297
  0
VERTEX
  8
Unknown_Area_Type
  10
243870.164
  20
4616703.918
  0
SEQEND
  8
Unknown_Area_Type
  0
INSERT
  8
FeatureAttribs
  2
FEATURE
  41
1
  42
1
  43
1
  50
0
  10
242519.664
  20
4619007.499
 66
1
  0
ATTRIB
  8
FeatureAttribs
 70
0
  1
PNOA-H_AMS_1956-57_33k_ES_PAN_2
  2
NAME
  10
242519.664
  20
4619007.499
 40
34.41336
  0
SEQEND
  0
POLYLINE
  8
Unknown_Area_Type
  70
1
  66
1
  0
VERTEX
  8
Unknown_Area_Type
  10
243880.832
  20
4617341.297
  0
VERTEX
  8
Unknown_Area_Type
  10
241568.114
  20
4617424.116
  0
VERTEX
  8
Unknown_Area_Type
  10
241061.288
  20
4617442.512
  0
VERTEX
  8
Unknown_Area_Type
  10
241166.000
  20
4620601.000
  0
VERTEX
  8
Unknown_Area_Type
  10
241166.500
  20
4620607.000
  0
VERTEX
  8
Unknown_Area_Type
  10
241274.000
  20
4620610.000
  0
VERTEX
  8
Unknown_Area_Type
  10
241293.000
  20
4620610.500
  0
VERTEX
  8
Unknown_Area_Type
  10
243605.000
  20
4620670.500
  0
VERTEX
  8
Unknown_Area_Type
  10
243934.000
  20
4620518.000
  0
VERTEX
  8
Unknown_Area_Type
  10
243880.832
  20
4617341.297
  0
SEQEND
  8
Unknown_Area_Type
  0
INSERT
  8
FeatureAttribs
  2
FEATURE
  41
1
  42
1
  43
1
  50
0
  10
242519.664
  20
4619007.499
 66
1
  0
ATTRIB
  8
FeatureAttribs
 70
0
  1
PNOA-H_AMS_1956-57_33k_ES_PAN_2
  2
NAME
  10
242519.664
  20
4619007.499
 40
34.41336
  0
SEQEND
  0
POLYLINE
  8
Unknown_Area_Type
  70
1
  66
1
  0
VERTEX
  8
Unknown_Area_Type
  10
243880.832
  20
4617341.297
  0
VERTEX
  8
Unknown_Area_Type
  10
243934.000
  20
4620518.000
  0
VERTEX
  8
Unknown_Area_Type
  10
243605.000
  20
4620670.500
  0
VERTEX
  8
Unknown_Area_Type
  10
241293.000
  20
4620610.500
  0
VERTEX
  8
Unknown_Area_Type
  10
241274.000
  20
4620610.000
  0
VERTEX
  8
Unknown_Area_Type
  10
241166.500
  20
4620607.000
  0
VERTEX
  8
Unknown_Area_Type
  10
241166.000
  20
4620601.000
  0
VERTEX
  8
Unknown_Area_Type
  10
241061.288
  20
4617442.512
  0
VERTEX
  8
Unknown_Area_Type
  10
241568.114
  20
4617424.116
  0
VERTEX
  8
Unknown_Area_Type
  10
243880.832
  20
4617341.297
  0
SEQEND
  8
Unknown_Area_Type
  0
INSERT
  8
FeatureAttribs
  2
FEATURE
  41
1
  42
1
  43
1
  50
0
  10
262722.191
  20
4618601.453
 66
1
  0
ATTRIB
  8
FeatureAttribs
 70
0
  1
PNOA-H_AMS_1956-57_33k_ES_PAN_2
  2
NAME
  10
262722.191
  20
4618601.453
 40
34.41336
  0
SEQEND
  0
POLYLINE
  8
Unknown_Area_Type
  70
1
  66
1
  0
VERTEX
  8
Unknown_Area_Type
  10
262997.947
  20
4620342.896
  0
VERTEX
  8
Unknown_Area_Type
  10
262997.947
  20
4616703.918
  0
VERTEX
  8
Unknown_Area_Type
  10
262384.122
  20
4616703.918
  0
VERTEX
  8
Unknown_Area_Type
  10
262383.530
  20
4616703.937
  0
VERTEX
  8
Unknown_Area_Type
  10
262460.219
  20
4619017.244
  0
VERTEX
  8
Unknown_Area_Type
  10
262509.360
  20
4620498.988
  0
VERTEX
  8
Unknown_Area_Type
  10
262997.947
  20
4620342.896
  0
SEQEND
  8
Unknown_Area_Type
  0
INSERT
  8
FeatureAttribs
  2
FEATURE
  41
1
  42
1
  43
1
  50
0
  10
261206.060
  20
4616730.123
 66
1
  0
ATTRIB
  8
FeatureAttribs
 70
0
  1
PNOA-H_AMS_1956-57_33k_ES_PAN_2
  2
NAME
  10
261206.060
  20
4616730.123
 40
34.41336
  0
SEQEND
  0
POLYLINE
  8
Unknown_Area_Type
  70
1
  66
1
  0
VERTEX
  8
Unknown_Area_Type
  10
260814.327
  20
4616756.327
  0
VERTEX
  8
Unknown_Area_Type
  10
262383.530
  20
4616703.937
  0
VERTEX
  8
Unknown_Area_Type
  10
262383.530
  20
4616703.918
  0
VERTEX
  8
Unknown_Area_Type
  10
260811.472
  20
4616703.918
  0
VERTEX
  8
Unknown_Area_Type
  10
260814.327
  20
4616756.327
  0
SEQEND
  8
Unknown_Area_Type
  0
INSERT
  8
FeatureAttribs
  2
FEATURE
  41
1
  42
1
  43
1
  50
0
  10
262383.678
  20
4616703.928
 66
1
  0
ATTRIB
  8
FeatureAttribs
 70
0
  1
PNOA-H_AMS_1956-57_33k_ES_PAN_2
  2
NAME
  10
262383.678
  20
4616703.928
 40
34.41336
  0
SEQEND
  0
POLYLINE
  8
Unknown_Area_Type
  70
1
  66
1
  0
VERTEX
  8
Unknown_Area_Type
  10
262383.530
  20
4616703.937
  0
VERTEX
  8
Unknown_Area_Type
  10
262384.122
  20
4616703.918
  0
VERTEX
  8
Unknown_Area_Type
  10
262383.530
  20
4616703.918
  0
VERTEX
  8
Unknown_Area_Type
  10
262383.530
  20
4616703.937
  0
SEQEND
  8
Unknown_Area_Type
  0
INSERT
  8
FeatureAttribs
  2
FEATURE
  41
1
  42
1
  43
1
  50
0
  10
261691.630
  20
4618573.814
 66
1
  0
ATTRIB
  8
FeatureAttribs
 70
0
  1
PNOA-H_AMS_1956-57_33k_ES_PAN_2
  2
NAME
  10
261691.630
  20
4618573.814
 40
34.41336
  0
SEQEND
  0
POLYLINE
  8
Unknown_Area_Type
  70
1
  66
1
  0
VERTEX
  8
Unknown_Area_Type
  10
262509.360
  20
4620498.988
  0
VERTEX
  8
Unknown_Area_Type
  10
262460.219
  20
4619017.244
  0
VERTEX
  8
Unknown_Area_Type
  10
262383.530
  20
4616703.937
  0
VERTEX
  8
Unknown_Area_Type
  10
260814.327
  20
4616756.327
  0
VERTEX
  8
Unknown_Area_Type
  10
261005.500
  20
4620265.000
  0
VERTEX
  8
Unknown_Area_Type
  10
262235.500
  20
4620585.500
  0
VERTEX
  8
Unknown_Area_Type
  10
262237.000
  20
4620586.000
  0
VERTEX
  8
Unknown_Area_Type
  10
262509.360
  20
4620498.988
  0
SEQEND
  8
Unknown_Area_Type
  0
INSERT
  8
FeatureAttribs
  2
FEATURE
  41
1
  42
1
  43
1
  50
0
  10
261691.630
  20
4618573.814
 66
1
  0
ATTRIB
  8
FeatureAttribs
 70
0
  1
PNOA-H_AMS_1956-57_33k_ES_PAN_2
  2
NAME
  10
261691.630
  20
4618573.814
 40
34.41336
  0
SEQEND
  0
POLYLINE
  8
Unknown_Area_Type
  70
1
  66
1
  0
VERTEX
  8
Unknown_Area_Type
  10
262509.360
  20
4620498.988
  0
VERTEX
  8
Unknown_Area_Type
  10
262237.000
  20
4620586.000
  0
VERTEX
  8
Unknown_Area_Type
  10
262235.500
  20
4620585.500
  0
VERTEX
  8
Unknown_Area_Type
  10
261005.500
  20
4620265.000
  0
VERTEX
  8
Unknown_Area_Type
  10
260814.327
  20
4616756.327
  0
VERTEX
  8
Unknown_Area_Type
  10
262383.530
  20
4616703.937
  0
VERTEX
  8
Unknown_Area_Type
  10
262460.219
  20
4619017.244
  0
VERTEX
  8
Unknown_Area_Type
  10
262509.360
  20
4620498.988
  0
SEQEND
  8
Unknown_Area_Type
  0
INSERT
  8
FeatureAttribs
  2
FEATURE
  41
1
  42
1
  43
1
  50
0
  10
259142.939
  20
4616776.185
 66
1
  0
ATTRIB
  8
FeatureAttribs
 70
0
  1
PNOA-H_AMS_1956-57_33k_ES_PAN_2
  2
NAME
  10
259142.939
  20
4616776.185
 40
34.41336
  0
SEQEND
  0
POLYLINE
  8
Unknown_Area_Type
  70
1
  66
1
  0
VERTEX
  8
Unknown_Area_Type
  10
260814.681
  20
4616756.316
  0
VERTEX
  8
Unknown_Area_Type
  10
260811.831
  20
4616703.918
  0
VERTEX
  8
Unknown_Area_Type
  10
258065.375
  20
4616703.918
  0
VERTEX
  8
Unknown_Area_Type
  10
258067.282
  20
4616848.452
  0
VERTEX
  8
Unknown_Area_Type
  10
258914.332
  20
4616819.762
  0
VERTEX
  8
Unknown_Area_Type
  10
260814.681
  20
4616756.316
  0
SEQEND
  8
Unknown_Area_Type
  0
INSERT
  8
FeatureAttribs
  2
FEATURE
  41
1
  42
1
  43
1
  50
0
  10
259503.114
  20
4618691.547
 66
1
  0
ATTRIB
  8
FeatureAttribs
 70
0
  1
PNOA-H_AMS_1956-57_33k_ES_PAN_2
  2
NAME
  10
259503.114
  20
4618691.547
 40
34.41336
  0
SEQEND
  0
POLYLINE
  8
Unknown_Area_Type
  70
1
  66
1
  0
VERTEX
  8
Unknown_Area_Type
  10
260814.681
  20
4616756.316
  0
VERTEX
  8
Unknown_Area_Type
  10
258914.332
  20
4616819.762
  0
VERTEX
  8
Unknown_Area_Type
  10
258067.282
  20
4616848.452
  0
VERTEX
  8
Unknown_Area_Type
  10
258114.000
  20
4620388.500
  0
VERTEX
  8
Unknown_Area_Type
  10
259578.500
  20
4620758.500
  0
VERTEX
  8
Unknown_Area_Type
  10
259584.000
  20
4620757.500
  0
VERTEX
  8
Unknown_Area_Type
  10
259728.000
  20
4620707.000
  0
VERTEX
  8
Unknown_Area_Type
  10
259730.000
  20
4620706.500
  0
VERTEX
  8
Unknown_Area_Type
  10
261005.500
  20
4620265.000
  0
VERTEX
  8
Unknown_Area_Type
  10
260814.681
  20
4616756.316
  0
SEQEND
  8
Unknown_Area_Type
  0
INSERT
  8
FeatureAttribs
  2
FEATURE
  41
1
  42
1
  43
1
  50
0
  10
259503.114
  20
4618691.547
 66
1
  0
ATTRIB
  8
FeatureAttribs
 70
0
  1
PNOA-H_AMS_1956-57_33k_ES_PAN_2
  2
NAME
  10
259503.114
  20
4618691.547
 40
34.41336
  0
SEQEND
  0
POLYLINE
  8
Unknown_Area_Type
  70
1
  66
1
  0
VERTEX
  8
Unknown_Area_Type
  10
260814.681
  20
4616756.316
  0
VERTEX
  8
Unknown_Area_Type
  10
261005.500
  20
4620265.000
  0
VERTEX
  8
Unknown_Area_Type
  10
259730.000
  20
4620706.500
  0
VERTEX
  8
Unknown_Area_Type
  10
259728.000
  20
4620707.000
  0
VERTEX
  8
Unknown_Area_Type
  10
259584.000
  20
4620757.500
  0
VERTEX
  8
Unknown_Area_Type
  10
259578.500
  20
4620758.500
  0
VERTEX
  8
Unknown_Area_Type
  10
258114.000
  20
4620388.500
  0
VERTEX
  8
Unknown_Area_Type
  10
258067.282
  20
4616848.452
  0
VERTEX
  8
Unknown_Area_Type
  10
258914.332
  20
4616819.762
  0
VERTEX
  8
Unknown_Area_Type
  10
260814.681
  20
4616756.316
  0
SEQEND
  8
Unknown_Area_Type
  0
INSERT
  8
FeatureAttribs
  2
FEATURE
  41
1
  42
1
  43
1
  50
0
  10
241701.866
  20
4632018.291
 66
1
  0
ATTRIB
  8
FeatureAttribs
 70
0
  1
PNOA-H_AMS_1956-57_33k_ES_PAN_2
  2
NAME
  10
241701.866
  20
4632018.291
 40
34.41336
  0
SEQEND
  0
POLYLINE
  8
Unknown_Area_Type
  70
1
  66
1
  0
VERTEX
  8
Unknown_Area_Type
  10
240426.000
  20
4634354.000
  0
VERTEX
  8
Unknown_Area_Type
  10
242847.000
  20
4634324.500
  0
VERTEX
  8
Unknown_Area_Type
  10
243135.000
  20
4634161.500
  0
VERTEX
  8
Unknown_Area_Type
  10
242970.000
  20
4629857.500
  0
VERTEX
  8
Unknown_Area_Type
  10
241347.500
  20
4629521.500
  0
VERTEX
  8
Unknown_Area_Type
  10
240306.500
  20
4629881.500
  0
VERTEX
  8
Unknown_Area_Type
  10
240426.000
  20
4634353.000
  0
VERTEX
  8
Unknown_Area_Type
  10
240426.000
  20
4634354.000
  0
SEQEND
  8
Unknown_Area_Type
  0
INSERT
  8
FeatureAttribs
  2
FEATURE
  41
1
  42
1
  43
1
  50
0
  10
241701.866
  20
4632018.291
 66
1
  0
ATTRIB
  8
FeatureAttribs
 70
0
  1
PNOA-H_AMS_1956-57_33k_ES_PAN_2
  2
NAME
  10
241701.866
  20
4632018.291
 40
34.41336
  0
SEQEND
  0
POLYLINE
  8
Unknown_Area_Type
  70
1
  66
1
  0
VERTEX
  8
Unknown_Area_Type
  10
240426.000
  20
4634354.000
  0
VERTEX
  8
Unknown_Area_Type
  10
240426.000
  20
4634353.000
  0
VERTEX
  8
Unknown_Area_Type
  10
240306.500
  20
4629881.500
  0
VERTEX
  8
Unknown_Area_Type
  10
241347.500
  20
4629521.500
  0
VERTEX
  8
Unknown_Area_Type
  10
242970.000
  20
4629857.500
  0
VERTEX
  8
Unknown_Area_Type
  10
243135.000
  20
4634161.500
  0
VERTEX
  8
Unknown_Area_Type
  10
242847.000
  20
4634324.500
  0
VERTEX
  8
Unknown_Area_Type
  10
240426.000
  20
4634354.000
  0
SEQEND
  8
Unknown_Area_Type
  0
INSERT
  8
FeatureAttribs
  2
FEATURE
  41
1
  42
1
  43
1
  50
0
  10
238997.823
  20
4632095.590
 66
1
  0
ATTRIB
  8
FeatureAttribs
 70
0
  1
PNOA-H_AMS_1956-57_33k_ES_PAN_2
  2
NAME
  10
238997.823
  20
4632095.590
 40
34.41336
  0
SEQEND
  0
POLYLINE
  8
Unknown_Area_Type
  70
1
  66
1
  0
VERTEX
  8
Unknown_Area_Type
  10
237851.500
  20
4634516.000
  0
VERTEX
  8
Unknown_Area_Type
  10
240363.000
  20
4634391.000
  0
VERTEX
  8
Unknown_Area_Type
  10
240365.500
  20
4634390.500
  0
VERTEX
  8
Unknown_Area_Type
  10
240426.000
  20
4634354.000
  0
VERTEX
  8
Unknown_Area_Type
  10
240306.500
  20
4629881.500
  0
VERTEX
  8
Unknown_Area_Type
  10
238658.000
  20
4629548.000
  0
VERTEX
  8
Unknown_Area_Type
  10
237600.500
  20
4629962.000
  0
VERTEX
  8
Unknown_Area_Type
  10
237687.500
  20
4634433.000
  0
VERTEX
  8
Unknown_Area_Type
  10
237850.500
  20
4634515.500
  0
VERTEX
  8
Unknown_Area_Type
  10
237851.500
  20
4634516.000
  0
SEQEND
  8
Unknown_Area_Type
  0
INSERT
  8
FeatureAttribs
  2
FEATURE
  41
1
  42
1
  43
1
  50
0
  10
238997.823
  20
4632095.590
 66
1
  0
ATTRIB
  8
FeatureAttribs
 70
0
  1
PNOA-H_AMS_1956-57_33k_ES_PAN_2
  2
NAME
  10
238997.823
  20
4632095.590
 40
34.41336
  0
SEQEND
  0
POLYLINE
  8
Unknown_Area_Type
  70
1
  66
1
  0
VERTEX
  8
Unknown_Area_Type
  10
237851.500
  20
4634516.000
  0
VERTEX
  8
Unknown_Area_Type
  10
237850.500
  20
4634515.500
  0
VERTEX
  8
Unknown_Area_Type
  10
237687.500
  20
4634433.000
  0
VERTEX
  8
Unknown_Area_Type
  10
237600.500
  20
4629962.000
  0
VERTEX
  8
Unknown_Area_Type
  10
238658.000
  20
4629548.000
  0
VERTEX
  8
Unknown_Area_Type
  10
240306.500
  20
4629881.500
  0
VERTEX
  8
Unknown_Area_Type
  10
240426.000
  20
4634354.000
  0
VERTEX
  8
Unknown_Area_Type
  10
240365.500
  20
4634390.500
  0
VERTEX
  8
Unknown_Area_Type
  10
240363.000
  20
4634391.000
  0
VERTEX
  8
Unknown_Area_Type
  10
237851.500
  20
4634516.000
  0
SEQEND
  8
Unknown_Area_Type
  0
INSERT
  8
FeatureAttribs
  2
FEATURE
  41
1
  42
1
  43
1
  50
0
  10
256734.355
  20
4616821.431
 66
1
  0
ATTRIB
  8
FeatureAttribs
 70
0
  1
PNOA-H_AMS_1956-57_33k_ES_PAN_2
  2
NAME
  10
256734.355
  20
4616821.431
 40
34.41336
  0
SEQEND
  0
POLYLINE
  8
Unknown_Area_Type
  70
1
  66
1
  0
VERTEX
  8
Unknown_Area_Type
  10
258065.375
  20
4616703.918
  0
VERTEX
  8
Unknown_Area_Type
  10
255407.260
  20
4616703.918
  0
VERTEX
  8
Unknown_Area_Type
  10
255396.311
  20
4616938.945
  0
VERTEX
  8
Unknown_Area_Type
  10
255445.119
  20
4616937.268
  0
VERTEX
  8
Unknown_Area_Type
  10
258067.282
  20
4616848.452
  0
VERTEX
  8
Unknown_Area_Type
  10
258065.375
  20
4616703.918
  0
SEQEND
  8
Unknown_Area_Type
  0
INSERT
  8
FeatureAttribs
  2
FEATURE
  41
1
  42
1
  43
1
  50
0
  10
256704.910
  20
4618789.967
 66
1
  0
ATTRIB
  8
FeatureAttribs
 70
0
  1
PNOA-H_AMS_1956-57_33k_ES_PAN_2
  2
NAME
  10
256704.910
  20
4618789.967
 40
34.41336
  0
SEQEND
  0
POLYLINE
  8
Unknown_Area_Type
  70
1
  66
1
  0
VERTEX
  8
Unknown_Area_Type
  10
258067.282
  20
4616848.452
  0
VERTEX
  8
Unknown_Area_Type
  10
255445.119
  20
4616937.268
  0
VERTEX
  8
Unknown_Area_Type
  10
255396.311
  20
4616938.945
  0
VERTEX
  8
Unknown_Area_Type
  10
255232.000
  20
4620466.000
  0
VERTEX
  8
Unknown_Area_Type
  10
255631.500
  20
4620557.000
  0
VERTEX
  8
Unknown_Area_Type
  10
255633.500
  20
4620557.500
  0
VERTEX
  8
Unknown_Area_Type
  10
256825.500
  20
4620828.000
  0
VERTEX
  8
Unknown_Area_Type
  10
256851.500
  20
4620833.000
  0
VERTEX
  8
Unknown_Area_Type
  10
258114.000
  20
4620388.500
  0
VERTEX
  8
Unknown_Area_Type
  10
258067.282
  20
4616848.452
  0
SEQEND
  8
Unknown_Area_Type
  0
INSERT
  8
FeatureAttribs
  2
FEATURE
  41
1
  42
1
  43
1
  50
0
  10
256704.910
  20
4618789.967
 66
1
  0
ATTRIB
  8
FeatureAttribs
 70
0
  1
PNOA-H_AMS_1956-57_33k_ES_PAN_2
  2
NAME
  10
256704.910
  20
4618789.967
 40
34.41336
  0
SEQEND
  0
POLYLINE
  8
Unknown_Area_Type
  70
1
  66
1
  0
VERTEX
  8
Unknown_Area_Type
  10
258067.282
  20
4616848.452
  0
VERTEX
  8
Unknown_Area_Type
  10
258114.000
  20
4620388.500
  0
VERTEX
  8
Unknown_Area_Type
  10
256851.500
  20
4620833.000
  0
VERTEX
  8
Unknown_Area_Type
  10
256825.500
  20
4620828.000
  0
VERTEX
  8
Unknown_Area_Type
  10
255633.500
  20
4620557.500
  0
VERTEX
  8
Unknown_Area_Type
  10
255631.500
  20
4620557.000
  0
VERTEX
  8
Unknown_Area_Type
  10
255232.000
  20
4620466.000
  0
VERTEX
  8
Unknown_Area_Type
  10
255396.311
  20
4616938.945
  0
VERTEX
  8
Unknown_Area_Type
  10
255445.119
  20
4616937.268
  0
VERTEX
  8
Unknown_Area_Type
  10
258067.282
  20
4616848.452
  0
SEQEND
  8
Unknown_Area_Type
  0
INSERT
  8
FeatureAttribs
  2
FEATURE
  41
1
  42
1
  43
1
  50
0
  10
247142.460
  20
4631864.897
 66
1
  0
ATTRIB
  8
FeatureAttribs
 70
0
  1
PNOA-H_AMS_1956-57_33k_ES_PAN_2
  2
NAME
  10
247142.460
  20
4631864.897
 40
34.41336
  0
SEQEND
  0
POLYLINE
  8
Unknown_Area_Type
  70
1
  66
1
  0
VERTEX
  8
Unknown_Area_Type
  10
247440.000
  20
4634175.500
  0
VERTEX
  8
Unknown_Area_Type
  10
247924.500
  20
4634219.500
  0
VERTEX
  8
Unknown_Area_Type
  10
248598.500
  20
4633896.000
  0
VERTEX
  8
Unknown_Area_Type
  10
248379.000
  20
4629750.000
  0
VERTEX
  8
Unknown_Area_Type
  10
246713.500
  20
4629428.500
  0
VERTEX
  8
Unknown_Area_Type
  10
246710.000
  20
4629428.500
  0
VERTEX
  8
Unknown_Area_Type
  10
246704.500
  20
4629430.500
  0
VERTEX
  8
Unknown_Area_Type
  10
245722.000
  20
4629813.000
  0
VERTEX
  8
Unknown_Area_Type
  10
245873.500
  20
4634032.000
  0
VERTEX
  8
Unknown_Area_Type
  10
247434.500
  20
4634175.000
  0
VERTEX
  8
Unknown_Area_Type
  10
247440.000
  20
4634175.500
  0
SEQEND
  8
Unknown_Area_Type
  0
INSERT
  8
FeatureAttribs
  2
FEATURE
  41
1
  42
1
  43
1
  50
0
  10
247142.460
  20
4631864.897
 66
1
  0
ATTRIB
  8
FeatureAttribs
 70
0
  1
PNOA-H_AMS_1956-57_33k_ES_PAN_2
  2
NAME
  10
247142.460
  20
4631864.897
 40
34.41336
  0
SEQEND
  0
POLYLINE
  8
Unknown_Area_Type
  70
1
  66
1
  0
VERTEX
  8
Unknown_Area_Type
  10
247440.000
  20
4634175.500
  0
VERTEX
  8
Unknown_Area_Type
  10
247434.500
  20
4634175.000
  0
VERTEX
  8
Unknown_Area_Type
  10
245873.500
  20
4634032.000
  0
VERTEX
  8
Unknown_Area_Type
  10
245722.000
  20
4629813.000
  0
VERTEX
  8
Unknown_Area_Type
  10
246704.500
  20
4629430.500
  0
VERTEX
  8
Unknown_Area_Type
  10
246710.000
  20
4629428.500
  0
VERTEX
  8
Unknown_Area_Type
  10
246713.500
  20
4629428.500
  0
VERTEX
  8
Unknown_Area_Type
  10
248379.000
  20
4629750.000
  0
VERTEX
  8
Unknown_Area_Type
  10
248598.500
  20
4633896.000
  0
VERTEX
  8
Unknown_Area_Type
  10
247924.500
  20
4634219.500
  0
VERTEX
  8
Unknown_Area_Type
  10
247440.000
  20
4634175.500
  0
SEQEND
  8
Unknown_Area_Type
  0
INSERT
  8
FeatureAttribs
  2
FEATURE
  41
1
  42
1
  43
1
  50
0
  10
249834.173
  20
4631745.399
 66
1
  0
ATTRIB
  8
FeatureAttribs
 70
0
  1
PNOA-H_AMS_1956-57_33k_ES_PAN_2
  2
NAME
  10
249834.173
  20
4631745.399
 40
34.41336
  0
SEQEND
  0
POLYLINE
  8
Unknown_Area_Type
  70
1
  66
1
  0
VERTEX
  8
Unknown_Area_Type
  10
249486.000
  20
4633997.500
  0
VERTEX
  8
Unknown_Area_Type
  10
250504.500
  20
4634114.000
  0
VERTEX
  8
Unknown_Area_Type
  10
251284.000
  20
4633758.000
  0
VERTEX
  8
Unknown_Area_Type
  10
251285.000
  20
4633756.000
  0
VERTEX
  8
Unknown_Area_Type
  10
251084.500
  20
4629687.000
  0
VERTEX
  8
Unknown_Area_Type
  10
249468.000
  20
4629312.500
  0
VERTEX
  8
Unknown_Area_Type
  10
249461.000
  20
4629314.500
  0
VERTEX
  8
Unknown_Area_Type
  10
248381.000
  20
4629749.000
  0
VERTEX
  8
Unknown_Area_Type
  10
248379.000
  20
4629750.000
  0
VERTEX
  8
Unknown_Area_Type
  10
248379.000
  20
4629754.500
  0
VERTEX
  8
Unknown_Area_Type
  10
248598.500
  20
4633895.500
  0
VERTEX
  8
Unknown_Area_Type
  10
249481.500
  20
4633997.000
  0
VERTEX
  8
Unknown_Area_Type
  10
249486.000
  20
4633997.500
  0
SEQEND
  8
Unknown_Area_Type
  0
INSERT
  8
FeatureAttribs
  2
FEATURE
  41
1
  42
1
  43
1
  50
0
  10
249834.173
  20
4631745.399
 66
1
  0
ATTRIB
  8
FeatureAttribs
 70
0
  1
PNOA-H_AMS_1956-57_33k_ES_PAN_2
  2
NAME
  10
249834.173
  20
4631745.399
 40
34.41336
  0
SEQEND
  0
POLYLINE
  8
Unknown_Area_Type
  70
1
  66
1
  0
VERTEX
  8
Unknown_Area_Type
  10
249486.000
  20
4633997.500
  0
VERTEX
  8
Unknown_Area_Type
  10
249481.500
  20
4633997.000
  0
VERTEX
  8
Unknown_Area_Type
  10
248598.500
  20
4633895.500
  0
VERTEX
  8
Unknown_Area_Type
  10
248379.000
  20
4629754.500
  0
VERTEX
  8
Unknown_Area_Type
  10
248379.000
  20
4629750.000
  0
VERTEX
  8
Unknown_Area_Type
  10
248381.000
  20
4629749.000
  0
VERTEX
  8
Unknown_Area_Type
  10
249461.000
  20
4629314.500
  0
VERTEX
  8
Unknown_Area_Type
  10
249468.000
  20
4629312.500
  0
VERTEX
  8
Unknown_Area_Type
  10
251084.500
  20
4629687.000
  0
VERTEX
  8
Unknown_Area_Type
  10
251285.000
  20
4633756.000
  0
VERTEX
  8
Unknown_Area_Type
  10
251284.000
  20
4633758.000
  0
VERTEX
  8
Unknown_Area_Type
  10
250504.500
  20
4634114.000
  0
VERTEX
  8
Unknown_Area_Type
  10
249486.000
  20
4633997.500
  0
SEQEND
  8
Unknown_Area_Type
  0
INSERT
  8
FeatureAttribs
  2
FEATURE
  41
1
  42
1
  43
1
  50
0
  10
248247.891
  20
4616971.380
 66
1
  0
ATTRIB
  8
FeatureAttribs
 70
0
  1
PNOA-H_AMS_1956-57_33k_ES_PAN_2
  2
NAME
  10
248247.891
  20
4616971.380
 40
34.41336
  0
SEQEND
  0
POLYLINE
  8
Unknown_Area_Type
  70
1
  66
1
  0
VERTEX
  8
Unknown_Area_Type
  10
249734.733
  20
4616703.918
  0
VERTEX
  8
Unknown_Area_Type
  10
246774.141
  20
4616703.918
  0
VERTEX
  8
Unknown_Area_Type
  10
246765.279
  20
4617238.842
  0
VERTEX
  8
Unknown_Area_Type
  10
248506.647
  20
4617177.327
  0
VERTEX
  8
Unknown_Area_Type
  10
249720.773
  20
4617135.026
  0
VERTEX
  8
Unknown_Area_Type
  10
249734.733
  20
4616703.918
  0
SEQEND
  8
Unknown_Area_Type
  0
INSERT
  8
FeatureAttribs
  2
FEATURE
  41
1
  42
1
  43
1
  50
0
  10
248218.970
  20
4618892.067
 66
1
  0
ATTRIB
  8
FeatureAttribs
 70
0
  1
PNOA-H_AMS_1956-57_33k_ES_PAN_2
  2
NAME
  10
248218.970
  20
4618892.067
 40
34.41336
  0
SEQEND
  0
POLYLINE
  8
Unknown_Area_Type
  70
1
  66
1
  0
VERTEX
  8
Unknown_Area_Type
  10
249720.773
  20
4617135.026
  0
VERTEX
  8
Unknown_Area_Type
  10
248506.647
  20
4617177.327
  0
VERTEX
  8
Unknown_Area_Type
  10
246765.279
  20
4617238.842
  0
VERTEX
  8
Unknown_Area_Type
  10
246711.500
  20
4620485.000
  0
VERTEX
  8
Unknown_Area_Type
  10
247435.000
  20
4620560.500
  0
VERTEX
  8
Unknown_Area_Type
  10
247439.500
  20
4620561.000
  0
VERTEX
  8
Unknown_Area_Type
  10
249033.000
  20
4620726.500
  0
VERTEX
  8
Unknown_Area_Type
  10
249612.000
  20
4620494.000
  0
VERTEX
  8
Unknown_Area_Type
  10
249720.773
  20
4617135.026
  0
SEQEND
  8
Unknown_Area_Type
  0
INSERT
  8
FeatureAttribs
  2
FEATURE
  41
1
  42
1
  43
1
  50
0
  10
248218.970
  20
4618892.067
 66
1
  0
ATTRIB
  8
FeatureAttribs
 70
0
  1
PNOA-H_AMS_1956-57_33k_ES_PAN_2
  2
NAME
  10
248218.970
  20
4618892.067
 40
34.41336
  0
SEQEND
  0
POLYLINE
  8
Unknown_Area_Type
  70
1
  66
1
  0
VERTEX
  8
Unknown_Area_Type
  10
249720.773
  20
4617135.026
  0
VERTEX
  8
Unknown_Area_Type
  10
249612.000
  20
4620494.000
  0
VERTEX
  8
Unknown_Area_Type
  10
249033.000
  20
4620726.500
  0
VERTEX
  8
Unknown_Area_Type
  10
247439.500
  20
4620561.000
  0
VERTEX
  8
Unknown_Area_Type
  10
247435.000
  20
4620560.500
  0
VERTEX
  8
Unknown_Area_Type
  10
246711.500
  20
4620485.000
  0
VERTEX
  8
Unknown_Area_Type
  10
246765.279
  20
4617238.842
  0
VERTEX
  8
Unknown_Area_Type
  10
248506.647
  20
4617177.327
  0
VERTEX
  8
Unknown_Area_Type
  10
249720.773
  20
4617135.026
  0
SEQEND
  8
Unknown_Area_Type
  0
INSERT
  8
FeatureAttribs
  2
FEATURE
  41
1
  42
1
  43
1
  50
0
  10
255309.632
  20
4631585.003
 66
1
  0
ATTRIB
  8
FeatureAttribs
 70
0
  1
PNOA-H_AMS_1956-57_33k_ES_PAN_2
  2
NAME
  10
255309.632
  20
4631585.003
 40
34.41336
  0
SEQEND
  0
POLYLINE
  8
Unknown_Area_Type
  70
1
  66
1
  0
VERTEX
  8
Unknown_Area_Type
  10
255631.500
  20
4633903.000
  0
VERTEX
  8
Unknown_Area_Type
  10
255838.500
  20
4633936.500
  0
VERTEX
  8
Unknown_Area_Type
  10
256817.500
  20
4633541.000
  0
VERTEX
  8
Unknown_Area_Type
  10
256551.000
  20
4629573.000
  0
VERTEX
  8
Unknown_Area_Type
  10
254858.500
  20
4629180.000
  0
VERTEX
  8
Unknown_Area_Type
  10
254856.000
  20
4629180.000
  0
VERTEX
  8
Unknown_Area_Type
  10
254846.500
  20
4629184.000
  0
VERTEX
  8
Unknown_Area_Type
  10
253828.500
  20
4629627.000
  0
VERTEX
  8
Unknown_Area_Type
  10
254052.500
  20
4633642.000
  0
VERTEX
  8
Unknown_Area_Type
  10
255628.500
  20
4633902.500
  0
VERTEX
  8
Unknown_Area_Type
  10
255631.500
  20
4633903.000
  0
SEQEND
  8
Unknown_Area_Type
  0
INSERT
  8
FeatureAttribs
  2
FEATURE
  41
1
  42
1
  43
1
  50
0
  10
255309.632
  20
4631585.003
 66
1
  0
ATTRIB
  8
FeatureAttribs
 70
0
  1
PNOA-H_AMS_1956-57_33k_ES_PAN_2
  2
NAME
  10
255309.632
  20
4631585.003
 40
34.41336
  0
SEQEND
  0
POLYLINE
  8
Unknown_Area_Type
  70
1
  66
1
  0
VERTEX
  8
Unknown_Area_Type
  10
255631.500
  20
4633903.000
  0
VERTEX
  8
Unknown_Area_Type
  10
255628.500
  20
4633902.500
  0
VERTEX
  8
Unknown_Area_Type
  10
254052.500
  20
4633642.000
  0
VERTEX
  8
Unknown_Area_Type
  10
253828.500
  20
4629627.000
  0
VERTEX
  8
Unknown_Area_Type
  10
254846.500
  20
4629184.000
  0
VERTEX
  8
Unknown_Area_Type
  10
254856.000
  20
4629180.000
  0
VERTEX
  8
Unknown_Area_Type
  10
254858.500
  20
4629180.000
  0
VERTEX
  8
Unknown_Area_Type
  10
256551.000
  20
4629573.000
  0
VERTEX
  8
Unknown_Area_Type
  10
256817.500
  20
4633541.000
  0
VERTEX
  8
Unknown_Area_Type
  10
255838.500
  20
4633936.500
  0
VERTEX
  8
Unknown_Area_Type
  10
255631.500
  20
4633903.000
  0
SEQEND
  8
Unknown_Area_Type
  0
INSERT
  8
FeatureAttribs
  2
FEATURE
  41
1
  42
1
  43
1
  50
0
  10
258067.052
  20
4631478.758
 66
1
  0
ATTRIB
  8
FeatureAttribs
 70
0
  1
PNOA-H_AMS_1956-57_33k_ES_PAN_2
  2
NAME
  10
258067.052
  20
4631478.758
 40
34.41336
  0
SEQEND
  0
POLYLINE
  8
Unknown_Area_Type
  70
1
  66
1
  0
VERTEX
  8
Unknown_Area_Type
  10
258456.500
  20
4633823.000
  0
VERTEX
  8
Unknown_Area_Type
  10
258464.500
  20
4633821.500
  0
VERTEX
  8
Unknown_Area_Type
  10
259599.500
  20
4633384.500
  0
VERTEX
  8
Unknown_Area_Type
  10
259329.500
  20
4629495.500
  0
VERTEX
  8
Unknown_Area_Type
  10
259329.000
  20
4629493.500
  0
VERTEX
  8
Unknown_Area_Type
  10
259324.000
  20
4629492.000
  0
VERTEX
  8
Unknown_Area_Type
  10
257624.500
  20
4629088.500
  0
VERTEX
  8
Unknown_Area_Type
  10
257621.000
  20
4629088.000
  0
VERTEX
  8
Unknown_Area_Type
  10
257616.500
  20
4629090.000
  0
VERTEX
  8
Unknown_Area_Type
  10
256551.000
  20
4629573.000
  0
VERTEX
  8
Unknown_Area_Type
  10
256817.000
  20
4633540.000
  0
VERTEX
  8
Unknown_Area_Type
  10
256818.000
  20
4633541.500
  0
VERTEX
  8
Unknown_Area_Type
  10
256829.500
  20
4633543.500
  0
VERTEX
  8
Unknown_Area_Type
  10
258454.000
  20
4633822.500
  0
VERTEX
  8
Unknown_Area_Type
  10
258456.500
  20
4633823.000
  0
SEQEND
  8
Unknown_Area_Type
  0
INSERT
  8
FeatureAttribs
  2
FEATURE
  41
1
  42
1
  43
1
  50
0
  10
258067.052
  20
4631478.758
 66
1
  0
ATTRIB
  8
FeatureAttribs
 70
0
  1
PNOA-H_AMS_1956-57_33k_ES_PAN_2
  2
NAME
  10
258067.052
  20
4631478.758
 40
34.41336
  0
SEQEND
  0
POLYLINE
  8
Unknown_Area_Type
  70
1
  66
1
  0
VERTEX
  8
Unknown_Area_Type
  10
258456.500
  20
4633823.000
  0
VERTEX
  8
Unknown_Area_Type
  10
258454.000
  20
4633822.500
  0
VERTEX
  8
Unknown_Area_Type
  10
256829.500
  20
4633543.500
  0
VERTEX
  8
Unknown_Area_Type
  10
256818.000
  20
4633541.500
  0
VERTEX
  8
Unknown_Area_Type
  10
256817.000
  20
4633540.000
  0
VERTEX
  8
Unknown_Area_Type
  10
256551.000
  20
4629573.000
  0
VERTEX
  8
Unknown_Area_Type
  10
257616.500
  20
4629090.000
  0
VERTEX
  8
Unknown_Area_Type
  10
257621.000
  20
4629088.000
  0
VERTEX
  8
Unknown_Area_Type
  10
257624.500
  20
4629088.500
  0
VERTEX
  8
Unknown_Area_Type
  10
259324.000
  20
4629492.000
  0
VERTEX
  8
Unknown_Area_Type
  10
259329.000
  20
4629493.500
  0
VERTEX
  8
Unknown_Area_Type
  10
259329.500
  20
4629495.500
  0
VERTEX
  8
Unknown_Area_Type
  10
259599.500
  20
4633384.500
  0
VERTEX
  8
Unknown_Area_Type
  10
258464.500
  20
4633821.500
  0
VERTEX
  8
Unknown_Area_Type
  10
258456.500
  20
4633823.000
  0
SEQEND
  8
Unknown_Area_Type
  0
INSERT
  8
FeatureAttribs
  2
FEATURE
  41
1
  42
1
  43
1
  50
0
  10
244422.432
  20
4631925.456
 66
1
  0
ATTRIB
  8
FeatureAttribs
 70
0
  1
PNOA-H_AMS_1956-57_33k_ES_PAN_2
  2
NAME
  10
244422.432
  20
4631925.456
 40
34.41336
  0
SEQEND
  0
POLYLINE
  8
Unknown_Area_Type
  70
1
  66
1
  0
VERTEX
  8
Unknown_Area_Type
  10
245394.000
  20
4634283.500
  0
VERTEX
  8
Unknown_Area_Type
  10
245873.500
  20
4634032.000
  0
VERTEX
  8
Unknown_Area_Type
  10
245722.000
  20
4629813.000
  0
VERTEX
  8
Unknown_Area_Type
  10
244023.000
  20
4629457.500
  0
VERTEX
  8
Unknown_Area_Type
  10
242970.000
  20
4629857.500
  0
VERTEX
  8
Unknown_Area_Type
  10
243135.000
  20
4634161.000
  0
VERTEX
  8
Unknown_Area_Type
  10
245381.000
  20
4634286.000
  0
VERTEX
  8
Unknown_Area_Type
  10
245389.500
  20
4634286.000
  0
VERTEX
  8
Unknown_Area_Type
  10
245392.500
  20
4634284.000
  0
VERTEX
  8
Unknown_Area_Type
  10
245394.000
  20
4634283.500
  0
SEQEND
  8
Unknown_Area_Type
  0
INSERT
  8
FeatureAttribs
  2
FEATURE
  41
1
  42
1
  43
1
  50
0
  10
244422.432
  20
4631925.456
 66
1
  0
ATTRIB
  8
FeatureAttribs
 70
0
  1
PNOA-H_AMS_1956-57_33k_ES_PAN_2
  2
NAME
  10
244422.432
  20
4631925.456
 40
34.41336
  0
SEQEND
  0
POLYLINE
  8
Unknown_Area_Type
  70
1
  66
1
  0
VERTEX
  8
Unknown_Area_Type
  10
245394.000
  20
4634283.500
  0
VERTEX
  8
Unknown_Area_Type
  10
245392.500
  20
4634284.000
  0
VERTEX
  8
Unknown_Area_Type
  10
245389.500
  20
4634286.000
  0
VERTEX
  8
Unknown_Area_Type
  10
245381.000
  20
4634286.000
  0
VERTEX
  8
Unknown_Area_Type
  10
243135.000
  20
4634161.000
  0
VERTEX
  8
Unknown_Area_Type
  10
242970.000
  20
4629857.500
  0
VERTEX
  8
Unknown_Area_Type
  10
244023.000
  20
4629457.500
  0
VERTEX
  8
Unknown_Area_Type
  10
245722.000
  20
4629813.000
  0
VERTEX
  8
Unknown_Area_Type
  10
245873.500
  20
4634032.000
  0
VERTEX
  8
Unknown_Area_Type
  10
245394.000
  20
4634283.500
  0
SEQEND
  8
Unknown_Area_Type
  0
INSERT
  8
FeatureAttribs
  2
FEATURE
  41
1
  42
1
  43
1
  50
0
  10
234987.892
  20
4632266.010
 66
1
  0
ATTRIB
  8
FeatureAttribs
 70
0
  1
PNOA-H_AMS_1956-57_33k_ES_PAN_2
  2
NAME
  10
234987.892
  20
4632266.010
 40
34.41336
  0
SEQEND
  0
POLYLINE
  8
Unknown_Area_Type
  70
1
  66
1
  0
VERTEX
  8
Unknown_Area_Type
  10
235258.702
  20
4634646.762
  0
VERTEX
  8
Unknown_Area_Type
  10
235229.911
  20
4633871.488
  0
VERTEX
  8
Unknown_Area_Type
  10
235144.035
  20
4631558.063
  0
VERTEX
  8
Unknown_Area_Type
  10
235081.955
  20
4629885.020
  0
VERTEX
  8
Unknown_Area_Type
  10
234738.000
  20
4630011.500
  0
VERTEX
  8
Unknown_Area_Type
  10
234871.500
  20
4634472.500
  0
VERTEX
  8
Unknown_Area_Type
  10
235151.500
  20
4634600.500
  0
VERTEX
  8
Unknown_Area_Type
  10
235153.000
  20
4634601.000
  0
VERTEX
  8
Unknown_Area_Type
  10
235250.000
  20
4634645.500
  0
VERTEX
  8
Unknown_Area_Type
  10
235256.000
  20
4634647.000
  0
VERTEX
  8
Unknown_Area_Type
  10
235258.702
  20
4634646.762
  0
SEQEND
  8
Unknown_Area_Type
  0
INSERT
  8
FeatureAttribs
  2
FEATURE
  41
1
  42
1
  43
1
  50
0
  10
236386.669
  20
4632143.047
 66
1
  0
ATTRIB
  8
FeatureAttribs
 70
0
  1
PNOA-H_AMS_1956-57_33k_ES_PAN_2
  2
NAME
  10
236386.669
  20
4632143.047
 40
34.41336
  0
SEQEND
  0
POLYLINE
  8
Unknown_Area_Type
  70
1
  66
1
  0
VERTEX
  8
Unknown_Area_Type
  10
235258.702
  20
4634646.762
  0
VERTEX
  8
Unknown_Area_Type
  10
237687.500
  20
4634433.000
  0
VERTEX
  8
Unknown_Area_Type
  10
237601.000
  20
4629982.000
  0
VERTEX
  8
Unknown_Area_Type
  10
237600.500
  20
4629962.000
  0
VERTEX
  8
Unknown_Area_Type
  10
237599.500
  20
4629961.500
  0
VERTEX
  8
Unknown_Area_Type
  10
235883.000
  20
4629620.500
  0
VERTEX
  8
Unknown_Area_Type
  10
235828.500
  20
4629610.500
  0
VERTEX
  8
Unknown_Area_Type
  10
235081.955
  20
4629885.020
  0
VERTEX
  8
Unknown_Area_Type
  10
235144.035
  20
4631558.063
  0
VERTEX
  8
Unknown_Area_Type
  10
235229.911
  20
4633871.488
  0
VERTEX
  8
Unknown_Area_Type
  10
235258.702
  20
4634646.762
  0
SEQEND
  8
Unknown_Area_Type
  0
INSERT
  8
FeatureAttribs
  2
FEATURE
  41
1
  42
1
  43
1
  50
0
  10
236386.669
  20
4632143.047
 66
1
  0
ATTRIB
  8
FeatureAttribs
 70
0
  1
PNOA-H_AMS_1956-57_33k_ES_PAN_2
  2
NAME
  10
236386.669
  20
4632143.047
 40
34.41336
  0
SEQEND
  0
POLYLINE
  8
Unknown_Area_Type
  70
1
  66
1
  0
VERTEX
  8
Unknown_Area_Type
  10
235258.702
  20
4634646.762
  0
VERTEX
  8
Unknown_Area_Type
  10
235229.911
  20
4633871.488
  0
VERTEX
  8
Unknown_Area_Type
  10
235144.035
  20
4631558.063
  0
VERTEX
  8
Unknown_Area_Type
  10
235081.955
  20
4629885.020
  0
VERTEX
  8
Unknown_Area_Type
  10
235828.500
  20
4629610.500
  0
VERTEX
  8
Unknown_Area_Type
  10
235883.000
  20
4629620.500
  0
VERTEX
  8
Unknown_Area_Type
  10
237599.500
  20
4629961.500
  0
VERTEX
  8
Unknown_Area_Type
  10
237600.500
  20
4629962.000
  0
VERTEX
  8
Unknown_Area_Type
  10
237601.000
  20
4629982.000
  0
VERTEX
  8
Unknown_Area_Type
  10
237687.500
  20
4634433.000
  0
VERTEX
  8
Unknown_Area_Type
  10
235258.702
  20
4634646.762
  0
SEQEND
  8
Unknown_Area_Type
  0
INSERT
  8
FeatureAttribs
  2
FEATURE
  41
1
  42
1
  43
1
  50
0
  10
260858.159
  20
4631342.445
 66
1
  0
ATTRIB
  8
FeatureAttribs
 70
0
  1
PNOA-H_AMS_1956-57_33k_ES_PAN_2
  2
NAME
  10
260858.159
  20
4631342.445
 40
34.41336
  0
SEQEND
  0
POLYLINE
  8
Unknown_Area_Type
  70
1
  66
1
  0
VERTEX
  8
Unknown_Area_Type
  10
259599.500
  20
4633384.500
  0
VERTEX
  8
Unknown_Area_Type
  10
259727.000
  20
4633410.500
  0
VERTEX
  8
Unknown_Area_Type
  10
259729.500
  20
4633411.000
  0
VERTEX
  8
Unknown_Area_Type
  10
261133.500
  20
4633694.500
  0
VERTEX
  8
Unknown_Area_Type
  10
262305.500
  20
4633302.500
  0
VERTEX
  8
Unknown_Area_Type
  10
262240.000
  20
4629427.500
  0
VERTEX
  8
Unknown_Area_Type
  10
260310.000
  20
4628995.000
  0
VERTEX
  8
Unknown_Area_Type
  10
260304.500
  20
4628994.500
  0
VERTEX
  8
Unknown_Area_Type
  10
260287.500
  20
4629003.000
  0
VERTEX
  8
Unknown_Area_Type
  10
259329.000
  20
4629493.500
  0
VERTEX
  8
Unknown_Area_Type
  10
259599.500
  20
4633384.500
  0
SEQEND
  8
Unknown_Area_Type
  0
INSERT
  8
FeatureAttribs
  2
FEATURE
  41
1
  42
1
  43
1
  50
0
  10
260858.159
  20
4631342.445
 66
1
  0
ATTRIB
  8
FeatureAttribs
 70
0
  1
PNOA-H_AMS_1956-57_33k_ES_PAN_2
  2
NAME
  10
260858.159
  20
4631342.445
 40
34.41336
  0
SEQEND
  0
POLYLINE
  8
Unknown_Area_Type
  70
1
  66
1
  0
VERTEX
  8
Unknown_Area_Type
  10
259599.500
  20
4633384.500
  0
VERTEX
  8
Unknown_Area_Type
  10
259329.000
  20
4629493.500
  0
VERTEX
  8
Unknown_Area_Type
  10
260287.500
  20
4629003.000
  0
VERTEX
  8
Unknown_Area_Type
  10
260304.500
  20
4628994.500
  0
VERTEX
  8
Unknown_Area_Type
  10
260310.000
  20
4628995.000
  0
VERTEX
  8
Unknown_Area_Type
  10
262240.000
  20
4629427.500
  0
VERTEX
  8
Unknown_Area_Type
  10
262305.500
  20
4633302.500
  0
VERTEX
  8
Unknown_Area_Type
  10
261133.500
  20
4633694.500
  0
VERTEX
  8
Unknown_Area_Type
  10
259729.500
  20
4633411.000
  0
VERTEX
  8
Unknown_Area_Type
  10
259727.000
  20
4633410.500
  0
VERTEX
  8
Unknown_Area_Type
  10
259599.500
  20
4633384.500
  0
SEQEND
  8
Unknown_Area_Type
  0
INSERT
  8
FeatureAttribs
  2
FEATURE
  41
1
  42
1
  43
1
  50
0
  10
252561.495
  20
4631669.409
 66
1
  0
ATTRIB
  8
FeatureAttribs
 70
0
  1
PNOA-H_AMS_1956-57_33k_ES_PAN_2
  2
NAME
  10
252561.495
  20
4631669.409
 40
34.41336
  0
SEQEND
  0
POLYLINE
  8
Unknown_Area_Type
  70
1
  66
1
  0
VERTEX
  8
Unknown_Area_Type
  10
253836.500
  20
4629768.000
  0
VERTEX
  8
Unknown_Area_Type
  10
253829.000
  20
4629630.000
  0
VERTEX
  8
Unknown_Area_Type
  10
253827.500
  20
4629626.500
  0
VERTEX
  8
Unknown_Area_Type
  10
252168.000
  20
4629254.000
  0
VERTEX
  8
Unknown_Area_Type
  10
252165.000
  20
4629254.000
  0
VERTEX
  8
Unknown_Area_Type
  10
251084.500
  20
4629687.000
  0
VERTEX
  8
Unknown_Area_Type
  10
251285.000
  20
4633757.500
  0
VERTEX
  8
Unknown_Area_Type
  10
253139.500
  20
4634040.000
  0
VERTEX
  8
Unknown_Area_Type
  10
253146.000
  20
4634038.500
  0
VERTEX
  8
Unknown_Area_Type
  10
254053.000
  20
4633642.500
  0
VERTEX
  8
Unknown_Area_Type
  10
253836.500
  20
4629773.000
  0
VERTEX
  8
Unknown_Area_Type
  10
253836.500
  20
4629768.000
  0
SEQEND
  8
Unknown_Area_Type
  0
INSERT
  8
FeatureAttribs
  2
FEATURE
  41
1
  42
1
  43
1
  50
0
  10
252561.495
  20
4631669.409
 66
1
  0
ATTRIB
  8
FeatureAttribs
 70
0
  1
PNOA-H_AMS_1956-57_33k_ES_PAN_2
  2
NAME
  10
252561.495
  20
4631669.409
 40
34.41336
  0
SEQEND
  0
POLYLINE
  8
Unknown_Area_Type
  70
1
  66
1
  0
VERTEX
  8
Unknown_Area_Type
  10
253836.500
  20
4629768.000
  0
VERTEX
  8
Unknown_Area_Type
  10
253836.500
  20
4629773.000
  0
VERTEX
  8
Unknown_Area_Type
  10
254053.000
  20
4633642.500
  0
VERTEX
  8
Unknown_Area_Type
  10
253146.000
  20
4634038.500
  0
VERTEX
  8
Unknown_Area_Type
  10
253139.500
  20
4634040.000
  0
VERTEX
  8
Unknown_Area_Type
  10
251285.000
  20
4633757.500
  0
VERTEX
  8
Unknown_Area_Type
  10
251084.500
  20
4629687.000
  0
VERTEX
  8
Unknown_Area_Type
  10
252165.000
  20
4629254.000
  0
VERTEX
  8
Unknown_Area_Type
  10
252168.000
  20
4629254.000
  0
VERTEX
  8
Unknown_Area_Type
  10
253827.500
  20
4629626.500
  0
VERTEX
  8
Unknown_Area_Type
  10
253829.000
  20
4629630.000
  0
VERTEX
  8
Unknown_Area_Type
  10
253836.500
  20
4629768.000
  0
SEQEND
  8
Unknown_Area_Type
  0
INSERT
  8
FeatureAttribs
  2
FEATURE
  41
1
  42
1
  43
1
  50
0
  10
262931.953
  20
4631240.674
 66
1
  0
ATTRIB
  8
FeatureAttribs
 70
0
  1
PNOA-H_AMS_1956-57_33k_ES_PAN_2
  2
NAME
  10
262931.953
  20
4631240.674
 40
34.41336
  0
SEQEND
  0
POLYLINE
  8
Unknown_Area_Type
  70
1
  66
1
  0
VERTEX
  8
Unknown_Area_Type
  10
262997.947
  20
4633466.161
  0
VERTEX
  8
Unknown_Area_Type
  10
262997.947
  20
4629015.188
  0
VERTEX
  8
Unknown_Area_Type
  10
262795.678
  20
4629125.219
  0
VERTEX
  8
Unknown_Area_Type
  10
262844.132
  20
4630583.875
  0
VERTEX
  8
Unknown_Area_Type
  10
262921.010
  20
4632897.220
  0
VERTEX
  8
Unknown_Area_Type
  10
262939.465
  20
4633452.339
  0
VERTEX
  8
Unknown_Area_Type
  10
262997.947
  20
4633466.161
  0
SEQEND
  8
Unknown_Area_Type
  0
INSERT
  8
FeatureAttribs
  2
FEATURE
  41
1
  42
1
  43
1
  50
0
  10
262576.699
  20
4631364.404
 66
1
  0
ATTRIB
  8
FeatureAttribs
 70
0
  1
PNOA-H_AMS_1956-57_33k_ES_PAN_2
  2
NAME
  10
262576.699
  20
4631364.404
 40
34.41336
  0
SEQEND
  0
POLYLINE
  8
Unknown_Area_Type
  70
1
  66
1
  0
VERTEX
  8
Unknown_Area_Type
  10
262939.465
  20
4633452.339
  0
VERTEX
  8
Unknown_Area_Type
  10
262921.010
  20
4632897.220
  0
VERTEX
  8
Unknown_Area_Type
  10
262844.132
  20
4630583.875
  0
VERTEX
  8
Unknown_Area_Type
  10
262795.678
  20
4629125.219
  0
VERTEX
  8
Unknown_Area_Type
  10
262240.000
  20
4629427.500
  0
VERTEX
  8
Unknown_Area_Type
  10
262305.500
  20
4633302.500
  0
VERTEX
  8
Unknown_Area_Type
  10
262939.465
  20
4633452.339
  0
SEQEND
  8
Unknown_Area_Type
  0
INSERT
  8
FeatureAttribs
  2
FEATURE
  41
1
  42
1
  43
1
  50
0
  10
262576.699
  20
4631364.404
 66
1
  0
ATTRIB
  8
FeatureAttribs
 70
0
  1
PNOA-H_AMS_1956-57_33k_ES_PAN_2
  2
NAME
  10
262576.699
  20
4631364.404
 40
34.41336
  0
SEQEND
  0
POLYLINE
  8
Unknown_Area_Type
  70
1
  66
1
  0
VERTEX
  8
Unknown_Area_Type
  10
262939.465
  20
4633452.339
  0
VERTEX
  8
Unknown_Area_Type
  10
262305.500
  20
4633302.500
  0
VERTEX
  8
Unknown_Area_Type
  10
262240.000
  20
4629427.500
  0
VERTEX
  8
Unknown_Area_Type
  10
262795.678
  20
4629125.219
  0
VERTEX
  8
Unknown_Area_Type
  10
262844.132
  20
4630583.875
  0
VERTEX
  8
Unknown_Area_Type
  10
262921.010
  20
4632897.220
  0
VERTEX
  8
Unknown_Area_Type
  10
262939.465
  20
4633452.339
  0
SEQEND
  8
Unknown_Area_Type
  0
ENDSEC
  0
EOF
