  0
SECTION
  2
HEADER
  9
$ACADVER
  1
AC1009
  9
$LUNITS
  70
2
  9
$LIMMIN
  10
206874.424
  20
4617677.617
  9
$LIMMAX
  10
235315.851
  20
4637267.073
  9
$EXTMIN
  10
206874.424
  20
4617677.617
  9
$EXTMAX
  10
235315.851
  20
4637267.073
  999
Created by Global Mapper
  999
Projection: UTM
  999
Datum: ETRS89
  999
Ground Units: meters
  999
ZONE: 30
  0
ENDSEC
  0
SECTION
  2
TABLES
  0
ENDSEC
  0
SECTION
  2
BLOCKS
  0
BLOCK
  8
FeatureAttribs
  70
0
  2
FEATURE
  3
FEATURE
  10
0.00000000
  20
0.00000000
  0
ATTDEF
  8
FeatureAttribs
  70
0
  1
 
  2
NAME
  3
NAME
  10
0.00000000
  20
0.00000000
  40
1.00000000
  0
ENDBLK
  0
ENDSEC
  0
SECTION
  2
ENTITIES
  0
INSERT
  8
FeatureAttribs
  2
FEATURE
  41
1
  42
1
  43
1
  50
0
  10
226318.761
  20
4636870.832
 66
1
  0
ATTRIB
  8
FeatureAttribs
 70
0
  1
PNOA-H_AMS_1956-57_33k_ES_PAN_2
  2
NAME
  10
226318.761
  20
4636870.832
 40
34.53493
  0
SEQEND
  0
POLYLINE
  8
Unknown_Area_Type
  70
1
  66
1
  0
VERTEX
  8
Unknown_Area_Type
  10
227668.849
  20
4637267.073
  0
VERTEX
  8
Unknown_Area_Type
  10
227632.677
  20
4636474.592
  0
VERTEX
  8
Unknown_Area_Type
  10
224971.352
  20
4636576.680
  0
VERTEX
  8
Unknown_Area_Type
  10
225007.513
  20
4637267.073
  0
VERTEX
  8
Unknown_Area_Type
  10
227668.849
  20
4637267.073
  0
SEQEND
  8
Unknown_Area_Type
  0
INSERT
  8
FeatureAttribs
  2
FEATURE
  41
1
  42
1
  43
1
  50
0
  10
226281.079
  20
4635704.287
 66
1
  0
ATTRIB
  8
FeatureAttribs
 70
0
  1
PNOA-H_AMS_1956-57_33k_ES_PAN_2
  2
NAME
  10
226281.079
  20
4635704.287
 40
34.53493
  0
SEQEND
  0
POLYLINE
  8
Unknown_Area_Type
  70
1
  66
1
  0
VERTEX
  8
Unknown_Area_Type
  10
227632.677
  20
4636474.592
  0
VERTEX
  8
Unknown_Area_Type
  10
227607.500
  20
4635923.000
  0
VERTEX
  8
Unknown_Area_Type
  10
227607.000
  20
4635912.000
  0
VERTEX
  8
Unknown_Area_Type
  10
227565.000
  20
4634990.500
  0
VERTEX
  8
Unknown_Area_Type
  10
226664.000
  20
4634704.000
  0
VERTEX
  8
Unknown_Area_Type
  10
224898.500
  20
4635122.000
  0
VERTEX
  8
Unknown_Area_Type
  10
224895.500
  20
4635123.000
  0
VERTEX
  8
Unknown_Area_Type
  10
224895.500
  20
4635128.500
  0
VERTEX
  8
Unknown_Area_Type
  10
224971.352
  20
4636576.680
  0
VERTEX
  8
Unknown_Area_Type
  10
227632.677
  20
4636474.592
  0
SEQEND
  8
Unknown_Area_Type
  0
INSERT
  8
FeatureAttribs
  2
FEATURE
  41
1
  42
1
  43
1
  50
0
  10
226281.079
  20
4635704.287
 66
1
  0
ATTRIB
  8
FeatureAttribs
 70
0
  1
PNOA-H_AMS_1956-57_33k_ES_PAN_2
  2
NAME
  10
226281.079
  20
4635704.287
 40
34.53493
  0
SEQEND
  0
POLYLINE
  8
Unknown_Area_Type
  70
1
  66
1
  0
VERTEX
  8
Unknown_Area_Type
  10
227632.677
  20
4636474.592
  0
VERTEX
  8
Unknown_Area_Type
  10
224971.352
  20
4636576.680
  0
VERTEX
  8
Unknown_Area_Type
  10
224895.500
  20
4635128.500
  0
VERTEX
  8
Unknown_Area_Type
  10
224895.500
  20
4635123.000
  0
VERTEX
  8
Unknown_Area_Type
  10
224898.500
  20
4635122.000
  0
VERTEX
  8
Unknown_Area_Type
  10
226664.000
  20
4634704.000
  0
VERTEX
  8
Unknown_Area_Type
  10
227565.000
  20
4634990.500
  0
VERTEX
  8
Unknown_Area_Type
  10
227607.000
  20
4635912.000
  0
VERTEX
  8
Unknown_Area_Type
  10
227607.500
  20
4635923.000
  0
VERTEX
  8
Unknown_Area_Type
  10
227632.677
  20
4636474.592
  0
SEQEND
  8
Unknown_Area_Type
  0
INSERT
  8
FeatureAttribs
  2
FEATURE
  41
1
  42
1
  43
1
  50
0
  10
231469.941
  20
4636774.517
 66
1
  0
ATTRIB
  8
FeatureAttribs
 70
0
  1
PNOA-H_AMS_1956-57_33k_ES_PAN_2
  2
NAME
  10
231469.941
  20
4636774.517
 40
34.53493
  0
SEQEND
  0
POLYLINE
  8
Unknown_Area_Type
  70
1
  66
1
  0
VERTEX
  8
Unknown_Area_Type
  10
232761.370
  20
4637267.073
  0
VERTEX
  8
Unknown_Area_Type
  10
232720.145
  20
4636281.962
  0
VERTEX
  8
Unknown_Area_Type
  10
231855.493
  20
4636314.289
  0
VERTEX
  8
Unknown_Area_Type
  10
230183.656
  20
4636377.607
  0
VERTEX
  8
Unknown_Area_Type
  10
230218.320
  20
4637267.073
  0
VERTEX
  8
Unknown_Area_Type
  10
232761.370
  20
4637267.073
  0
SEQEND
  8
Unknown_Area_Type
  0
INSERT
  8
FeatureAttribs
  2
FEATURE
  41
1
  42
1
  43
1
  50
0
  10
231435.850
  20
4635517.374
 66
1
  0
ATTRIB
  8
FeatureAttribs
 70
0
  1
PNOA-H_AMS_1956-57_33k_ES_PAN_2
  2
NAME
  10
231435.850
  20
4635517.374
 40
34.53493
  0
SEQEND
  0
POLYLINE
  8
Unknown_Area_Type
  70
1
  66
1
  0
VERTEX
  8
Unknown_Area_Type
  10
232720.145
  20
4636281.962
  0
VERTEX
  8
Unknown_Area_Type
  10
232657.500
  20
4634785.000
  0
VERTEX
  8
Unknown_Area_Type
  10
232639.500
  20
4634777.000
  0
VERTEX
  8
Unknown_Area_Type
  10
232101.500
  20
4634564.000
  0
VERTEX
  8
Unknown_Area_Type
  10
230125.000
  20
4634872.500
  0
VERTEX
  8
Unknown_Area_Type
  10
230183.656
  20
4636377.607
  0
VERTEX
  8
Unknown_Area_Type
  10
231855.493
  20
4636314.289
  0
VERTEX
  8
Unknown_Area_Type
  10
232720.145
  20
4636281.962
  0
SEQEND
  8
Unknown_Area_Type
  0
INSERT
  8
FeatureAttribs
  2
FEATURE
  41
1
  42
1
  43
1
  50
0
  10
231435.850
  20
4635517.374
 66
1
  0
ATTRIB
  8
FeatureAttribs
 70
0
  1
PNOA-H_AMS_1956-57_33k_ES_PAN_2
  2
NAME
  10
231435.850
  20
4635517.374
 40
34.53493
  0
SEQEND
  0
POLYLINE
  8
Unknown_Area_Type
  70
1
  66
1
  0
VERTEX
  8
Unknown_Area_Type
  10
232720.145
  20
4636281.962
  0
VERTEX
  8
Unknown_Area_Type
  10
231855.493
  20
4636314.289
  0
VERTEX
  8
Unknown_Area_Type
  10
230183.656
  20
4636377.607
  0
VERTEX
  8
Unknown_Area_Type
  10
230125.000
  20
4634872.500
  0
VERTEX
  8
Unknown_Area_Type
  10
232101.500
  20
4634564.000
  0
VERTEX
  8
Unknown_Area_Type
  10
232639.500
  20
4634777.000
  0
VERTEX
  8
Unknown_Area_Type
  10
232657.500
  20
4634785.000
  0
VERTEX
  8
Unknown_Area_Type
  10
232720.145
  20
4636281.962
  0
SEQEND
  8
Unknown_Area_Type
  0
INSERT
  8
FeatureAttribs
  2
FEATURE
  41
1
  42
1
  43
1
  50
0
  10
220997.164
  20
4636974.288
 66
1
  0
ATTRIB
  8
FeatureAttribs
 70
0
  1
PNOA-H_AMS_1956-57_33k_ES_PAN_2
  2
NAME
  10
220997.164
  20
4636974.288
 40
34.53493
  0
SEQEND
  0
POLYLINE
  8
Unknown_Area_Type
  70
1
  66
1
  0
VERTEX
  8
Unknown_Area_Type
  10
222309.588
  20
4637267.073
  0
VERTEX
  8
Unknown_Area_Type
  10
222272.495
  20
4636681.504
  0
VERTEX
  8
Unknown_Area_Type
  10
221474.408
  20
4636712.507
  0
VERTEX
  8
Unknown_Area_Type
  10
219693.939
  20
4636782.539
  0
VERTEX
  8
Unknown_Area_Type
  10
219717.561
  20
4637267.073
  0
VERTEX
  8
Unknown_Area_Type
  10
222309.588
  20
4637267.073
  0
SEQEND
  8
Unknown_Area_Type
  0
INSERT
  8
FeatureAttribs
  2
FEATURE
  41
1
  42
1
  43
1
  50
0
  10
220953.517
  20
4635933.715
 66
1
  0
ATTRIB
  8
FeatureAttribs
 70
0
  1
PNOA-H_AMS_1956-57_33k_ES_PAN_2
  2
NAME
  10
220953.517
  20
4635933.715
 40
34.53493
  0
SEQEND
  0
POLYLINE
  8
Unknown_Area_Type
  70
1
  66
1
  0
VERTEX
  8
Unknown_Area_Type
  10
222272.495
  20
4636681.504
  0
VERTEX
  8
Unknown_Area_Type
  10
222181.500
  20
4635245.000
  0
VERTEX
  8
Unknown_Area_Type
  10
221228.000
  20
4634957.500
  0
VERTEX
  8
Unknown_Area_Type
  10
219625.000
  20
4635368.500
  0
VERTEX
  8
Unknown_Area_Type
  10
219693.939
  20
4636782.539
  0
VERTEX
  8
Unknown_Area_Type
  10
221474.408
  20
4636712.507
  0
VERTEX
  8
Unknown_Area_Type
  10
222272.495
  20
4636681.504
  0
SEQEND
  8
Unknown_Area_Type
  0
INSERT
  8
FeatureAttribs
  2
FEATURE
  41
1
  42
1
  43
1
  50
0
  10
220953.517
  20
4635933.715
 66
1
  0
ATTRIB
  8
FeatureAttribs
 70
0
  1
PNOA-H_AMS_1956-57_33k_ES_PAN_2
  2
NAME
  10
220953.517
  20
4635933.715
 40
34.53493
  0
SEQEND
  0
POLYLINE
  8
Unknown_Area_Type
  70
1
  66
1
  0
VERTEX
  8
Unknown_Area_Type
  10
222272.495
  20
4636681.504
  0
VERTEX
  8
Unknown_Area_Type
  10
221474.408
  20
4636712.507
  0
VERTEX
  8
Unknown_Area_Type
  10
219693.939
  20
4636782.539
  0
VERTEX
  8
Unknown_Area_Type
  10
219625.000
  20
4635368.500
  0
VERTEX
  8
Unknown_Area_Type
  10
221228.000
  20
4634957.500
  0
VERTEX
  8
Unknown_Area_Type
  10
222181.500
  20
4635245.000
  0
VERTEX
  8
Unknown_Area_Type
  10
222272.495
  20
4636681.504
  0
SEQEND
  8
Unknown_Area_Type
  0
INSERT
  8
FeatureAttribs
  2
FEATURE
  41
1
  42
1
  43
1
  50
0
  10
218424.361
  20
4637024.802
 66
1
  0
ATTRIB
  8
FeatureAttribs
 70
0
  1
PNOA-H_AMS_1956-57_33k_ES_PAN_2
  2
NAME
  10
218424.361
  20
4637024.802
 40
34.53493
  0
SEQEND
  0
POLYLINE
  8
Unknown_Area_Type
  70
1
  66
1
  0
VERTEX
  8
Unknown_Area_Type
  10
219717.708
  20
4637267.073
  0
VERTEX
  8
Unknown_Area_Type
  10
219694.113
  20
4636782.532
  0
VERTEX
  8
Unknown_Area_Type
  10
218014.014
  20
4636848.616
  0
VERTEX
  8
Unknown_Area_Type
  10
217132.310
  20
4636883.725
  0
VERTEX
  8
Unknown_Area_Type
  10
217160.845
  20
4637267.073
  0
VERTEX
  8
Unknown_Area_Type
  10
219717.708
  20
4637267.073
  0
SEQEND
  8
Unknown_Area_Type
  0
INSERT
  8
FeatureAttribs
  2
FEATURE
  41
1
  42
1
  43
1
  50
0
  10
218375.554
  20
4636040.317
 66
1
  0
ATTRIB
  8
FeatureAttribs
 70
0
  1
PNOA-H_AMS_1956-57_33k_ES_PAN_2
  2
NAME
  10
218375.554
  20
4636040.317
 40
34.53493
  0
SEQEND
  0
POLYLINE
  8
Unknown_Area_Type
  70
1
  66
1
  0
VERTEX
  8
Unknown_Area_Type
  10
219694.113
  20
4636782.532
  0
VERTEX
  8
Unknown_Area_Type
  10
219625.500
  20
4635373.500
  0
VERTEX
  8
Unknown_Area_Type
  10
219625.000
  20
4635368.500
  0
VERTEX
  8
Unknown_Area_Type
  10
219608.000
  20
4635364.000
  0
VERTEX
  8
Unknown_Area_Type
  10
218447.000
  20
4635071.500
  0
VERTEX
  8
Unknown_Area_Type
  10
217035.500
  20
4635510.000
  0
VERTEX
  8
Unknown_Area_Type
  10
217030.500
  20
4635512.000
  0
VERTEX
  8
Unknown_Area_Type
  10
217030.500
  20
4635516.000
  0
VERTEX
  8
Unknown_Area_Type
  10
217132.310
  20
4636883.725
  0
VERTEX
  8
Unknown_Area_Type
  10
218014.014
  20
4636848.616
  0
VERTEX
  8
Unknown_Area_Type
  10
219694.113
  20
4636782.532
  0
SEQEND
  8
Unknown_Area_Type
  0
INSERT
  8
FeatureAttribs
  2
FEATURE
  41
1
  42
1
  43
1
  50
0
  10
218375.554
  20
4636040.317
 66
1
  0
ATTRIB
  8
FeatureAttribs
 70
0
  1
PNOA-H_AMS_1956-57_33k_ES_PAN_2
  2
NAME
  10
218375.554
  20
4636040.317
 40
34.53493
  0
SEQEND
  0
POLYLINE
  8
Unknown_Area_Type
  70
1
  66
1
  0
VERTEX
  8
Unknown_Area_Type
  10
219694.113
  20
4636782.532
  0
VERTEX
  8
Unknown_Area_Type
  10
218014.014
  20
4636848.616
  0
VERTEX
  8
Unknown_Area_Type
  10
217132.310
  20
4636883.725
  0
VERTEX
  8
Unknown_Area_Type
  10
217030.500
  20
4635516.000
  0
VERTEX
  8
Unknown_Area_Type
  10
217030.500
  20
4635512.000
  0
VERTEX
  8
Unknown_Area_Type
  10
217035.500
  20
4635510.000
  0
VERTEX
  8
Unknown_Area_Type
  10
218447.000
  20
4635071.500
  0
VERTEX
  8
Unknown_Area_Type
  10
219608.000
  20
4635364.000
  0
VERTEX
  8
Unknown_Area_Type
  10
219625.000
  20
4635368.500
  0
VERTEX
  8
Unknown_Area_Type
  10
219625.500
  20
4635373.500
  0
VERTEX
  8
Unknown_Area_Type
  10
219694.113
  20
4636782.532
  0
SEQEND
  8
Unknown_Area_Type
  0
INSERT
  8
FeatureAttribs
  2
FEATURE
  41
1
  42
1
  43
1
  50
0
  10
228924.780
  20
4636822.340
 66
1
  0
ATTRIB
  8
FeatureAttribs
 70
0
  1
PNOA-H_AMS_1956-57_33k_ES_PAN_2
  2
NAME
  10
228924.780
  20
4636822.340
 40
34.53493
  0
SEQEND
  0
POLYLINE
  8
Unknown_Area_Type
  70
1
  66
1
  0
VERTEX
  8
Unknown_Area_Type
  10
230218.320
  20
4637267.073
  0
VERTEX
  8
Unknown_Area_Type
  10
230183.656
  20
4636377.607
  0
VERTEX
  8
Unknown_Area_Type
  10
228395.147
  20
4636445.344
  0
VERTEX
  8
Unknown_Area_Type
  10
227632.703
  20
4636474.591
  0
VERTEX
  8
Unknown_Area_Type
  10
227668.868
  20
4637267.073
  0
VERTEX
  8
Unknown_Area_Type
  10
230218.320
  20
4637267.073
  0
SEQEND
  8
Unknown_Area_Type
  0
INSERT
  8
FeatureAttribs
  2
FEATURE
  41
1
  42
1
  43
1
  50
0
  10
228892.846
  20
4635598.780
 66
1
  0
ATTRIB
  8
FeatureAttribs
 70
0
  1
PNOA-H_AMS_1956-57_33k_ES_PAN_2
  2
NAME
  10
228892.846
  20
4635598.780
 40
34.53493
  0
SEQEND
  0
POLYLINE
  8
Unknown_Area_Type
  70
1
  66
1
  0
VERTEX
  8
Unknown_Area_Type
  10
230183.656
  20
4636377.607
  0
VERTEX
  8
Unknown_Area_Type
  10
230125.000
  20
4634872.500
  0
VERTEX
  8
Unknown_Area_Type
  10
229377.500
  20
4634601.500
  0
VERTEX
  8
Unknown_Area_Type
  10
227565.000
  20
4634991.000
  0
VERTEX
  8
Unknown_Area_Type
  10
227632.703
  20
4636474.591
  0
VERTEX
  8
Unknown_Area_Type
  10
228395.147
  20
4636445.344
  0
VERTEX
  8
Unknown_Area_Type
  10
230183.656
  20
4636377.607
  0
SEQEND
  8
Unknown_Area_Type
  0
INSERT
  8
FeatureAttribs
  2
FEATURE
  41
1
  42
1
  43
1
  50
0
  10
228892.846
  20
4635598.780
 66
1
  0
ATTRIB
  8
FeatureAttribs
 70
0
  1
PNOA-H_AMS_1956-57_33k_ES_PAN_2
  2
NAME
  10
228892.846
  20
4635598.780
 40
34.53493
  0
SEQEND
  0
POLYLINE
  8
Unknown_Area_Type
  70
1
  66
1
  0
VERTEX
  8
Unknown_Area_Type
  10
230183.656
  20
4636377.607
  0
VERTEX
  8
Unknown_Area_Type
  10
228395.147
  20
4636445.344
  0
VERTEX
  8
Unknown_Area_Type
  10
227632.703
  20
4636474.591
  0
VERTEX
  8
Unknown_Area_Type
  10
227565.000
  20
4634991.000
  0
VERTEX
  8
Unknown_Area_Type
  10
229377.500
  20
4634601.500
  0
VERTEX
  8
Unknown_Area_Type
  10
230125.000
  20
4634872.500
  0
VERTEX
  8
Unknown_Area_Type
  10
230183.656
  20
4636377.607
  0
SEQEND
  8
Unknown_Area_Type
  0
INSERT
  8
FeatureAttribs
  2
FEATURE
  41
1
  42
1
  43
1
  50
0
  10
234027.069
  20
4636726.036
 66
1
  0
ATTRIB
  8
FeatureAttribs
 70
0
  1
PNOA-H_AMS_1956-57_33k_ES_PAN_2
  2
NAME
  10
234027.069
  20
4636726.036
 40
34.53493
  0
SEQEND
  0
POLYLINE
  8
Unknown_Area_Type
  70
1
  66
1
  0
VERTEX
  8
Unknown_Area_Type
  10
235315.851
  20
4636241.737
  0
VERTEX
  8
Unknown_Area_Type
  10
235313.633
  20
4636185.000
  0
VERTEX
  8
Unknown_Area_Type
  10
232719.696
  20
4636281.979
  0
VERTEX
  8
Unknown_Area_Type
  10
232760.939
  20
4637267.073
  0
VERTEX
  8
Unknown_Area_Type
  10
235315.851
  20
4637267.073
  0
VERTEX
  8
Unknown_Area_Type
  10
235315.851
  20
4636241.737
  0
SEQEND
  8
Unknown_Area_Type
  0
INSERT
  8
FeatureAttribs
  2
FEATURE
  41
1
  42
1
  43
1
  50
0
  10
234007.963
  20
4635423.471
 66
1
  0
ATTRIB
  8
FeatureAttribs
 70
0
  1
PNOA-H_AMS_1956-57_33k_ES_PAN_2
  2
NAME
  10
234007.963
  20
4635423.471
 40
34.53493
  0
SEQEND
  0
POLYLINE
  8
Unknown_Area_Type
  70
1
  66
1
  0
VERTEX
  8
Unknown_Area_Type
  10
235313.633
  20
4636185.000
  0
VERTEX
  8
Unknown_Area_Type
  10
235253.500
  20
4634646.500
  0
VERTEX
  8
Unknown_Area_Type
  10
234874.000
  20
4634473.000
  0
VERTEX
  8
Unknown_Area_Type
  10
234868.500
  20
4634472.500
  0
VERTEX
  8
Unknown_Area_Type
  10
232657.000
  20
4634784.500
  0
VERTEX
  8
Unknown_Area_Type
  10
232719.696
  20
4636281.979
  0
VERTEX
  8
Unknown_Area_Type
  10
235313.633
  20
4636185.000
  0
SEQEND
  8
Unknown_Area_Type
  0
INSERT
  8
FeatureAttribs
  2
FEATURE
  41
1
  42
1
  43
1
  50
0
  10
234007.963
  20
4635423.471
 66
1
  0
ATTRIB
  8
FeatureAttribs
 70
0
  1
PNOA-H_AMS_1956-57_33k_ES_PAN_2
  2
NAME
  10
234007.963
  20
4635423.471
 40
34.53493
  0
SEQEND
  0
POLYLINE
  8
Unknown_Area_Type
  70
1
  66
1
  0
VERTEX
  8
Unknown_Area_Type
  10
235313.633
  20
4636185.000
  0
VERTEX
  8
Unknown_Area_Type
  10
232719.696
  20
4636281.979
  0
VERTEX
  8
Unknown_Area_Type
  10
232657.000
  20
4634784.500
  0
VERTEX
  8
Unknown_Area_Type
  10
234868.500
  20
4634472.500
  0
VERTEX
  8
Unknown_Area_Type
  10
234874.000
  20
4634473.000
  0
VERTEX
  8
Unknown_Area_Type
  10
235253.500
  20
4634646.500
  0
VERTEX
  8
Unknown_Area_Type
  10
235313.633
  20
4636185.000
  0
SEQEND
  8
Unknown_Area_Type
  0
INSERT
  8
FeatureAttribs
  2
FEATURE
  41
1
  42
1
  43
1
  50
0
  10
223638.703
  20
4636921.870
 66
1
  0
ATTRIB
  8
FeatureAttribs
 70
0
  1
PNOA-H_AMS_1956-57_33k_ES_PAN_2
  2
NAME
  10
223638.703
  20
4636921.870
 40
34.53493
  0
SEQEND
  0
POLYLINE
  8
Unknown_Area_Type
  70
1
  66
1
  0
VERTEX
  8
Unknown_Area_Type
  10
225007.867
  20
4637267.073
  0
VERTEX
  8
Unknown_Area_Type
  10
224971.684
  20
4636576.668
  0
VERTEX
  8
Unknown_Area_Type
  10
224934.786
  20
4636578.083
  0
VERTEX
  8
Unknown_Area_Type
  10
222272.414
  20
4636681.507
  0
VERTEX
  8
Unknown_Area_Type
  10
222309.486
  20
4637267.073
  0
VERTEX
  8
Unknown_Area_Type
  10
225007.867
  20
4637267.073
  0
SEQEND
  8
Unknown_Area_Type
  0
INSERT
  8
FeatureAttribs
  2
FEATURE
  41
1
  42
1
  43
1
  50
0
  10
223593.002
  20
4635817.479
 66
1
  0
ATTRIB
  8
FeatureAttribs
 70
0
  1
PNOA-H_AMS_1956-57_33k_ES_PAN_2
  2
NAME
  10
223593.002
  20
4635817.479
 40
34.53493
  0
SEQEND
  0
POLYLINE
  8
Unknown_Area_Type
  70
1
  66
1
  0
VERTEX
  8
Unknown_Area_Type
  10
224971.684
  20
4636576.668
  0
VERTEX
  8
Unknown_Area_Type
  10
224895.500
  20
4635123.000
  0
VERTEX
  8
Unknown_Area_Type
  10
223960.500
  20
4634826.000
  0
VERTEX
  8
Unknown_Area_Type
  10
222181.500
  20
4635245.500
  0
VERTEX
  8
Unknown_Area_Type
  10
222272.414
  20
4636681.507
  0
VERTEX
  8
Unknown_Area_Type
  10
224934.786
  20
4636578.083
  0
VERTEX
  8
Unknown_Area_Type
  10
224971.684
  20
4636576.668
  0
SEQEND
  8
Unknown_Area_Type
  0
INSERT
  8
FeatureAttribs
  2
FEATURE
  41
1
  42
1
  43
1
  50
0
  10
223593.002
  20
4635817.479
 66
1
  0
ATTRIB
  8
FeatureAttribs
 70
0
  1
PNOA-H_AMS_1956-57_33k_ES_PAN_2
  2
NAME
  10
223593.002
  20
4635817.479
 40
34.53493
  0
SEQEND
  0
POLYLINE
  8
Unknown_Area_Type
  70
1
  66
1
  0
VERTEX
  8
Unknown_Area_Type
  10
224971.684
  20
4636576.668
  0
VERTEX
  8
Unknown_Area_Type
  10
224934.786
  20
4636578.083
  0
VERTEX
  8
Unknown_Area_Type
  10
222272.414
  20
4636681.507
  0
VERTEX
  8
Unknown_Area_Type
  10
222181.500
  20
4635245.500
  0
VERTEX
  8
Unknown_Area_Type
  10
223960.500
  20
4634826.000
  0
VERTEX
  8
Unknown_Area_Type
  10
224895.500
  20
4635123.000
  0
VERTEX
  8
Unknown_Area_Type
  10
224971.684
  20
4636576.668
  0
SEQEND
  8
Unknown_Area_Type
  0
INSERT
  8
FeatureAttribs
  2
FEATURE
  41
1
  42
1
  43
1
  50
0
  10
215891.876
  20
4637075.395
 66
1
  0
ATTRIB
  8
FeatureAttribs
 70
0
  1
PNOA-H_AMS_1956-57_33k_ES_PAN_2
  2
NAME
  10
215891.876
  20
4637075.395
 40
34.53493
  0
SEQEND
  0
POLYLINE
  8
Unknown_Area_Type
  70
1
  66
1
  0
VERTEX
  8
Unknown_Area_Type
  10
217161.007
  20
4637267.073
  0
VERTEX
  8
Unknown_Area_Type
  10
217132.501
  20
4636883.718
  0
VERTEX
  8
Unknown_Area_Type
  10
214628.241
  20
4636983.438
  0
VERTEX
  8
Unknown_Area_Type
  10
214655.251
  20
4637267.073
  0
VERTEX
  8
Unknown_Area_Type
  10
217161.007
  20
4637267.073
  0
SEQEND
  8
Unknown_Area_Type
  0
INSERT
  8
FeatureAttribs
  2
FEATURE
  41
1
  42
1
  43
1
  50
0
  10
215811.305
  20
4636159.264
 66
1
  0
ATTRIB
  8
FeatureAttribs
 70
0
  1
PNOA-H_AMS_1956-57_33k_ES_PAN_2
  2
NAME
  10
215811.305
  20
4636159.264
 40
34.53493
  0
SEQEND
  0
POLYLINE
  8
Unknown_Area_Type
  70
1
  66
1
  0
VERTEX
  8
Unknown_Area_Type
  10
217132.501
  20
4636883.718
  0
VERTEX
  8
Unknown_Area_Type
  10
217030.500
  20
4635512.000
  0
VERTEX
  8
Unknown_Area_Type
  10
215616.000
  20
4635227.500
  0
VERTEX
  8
Unknown_Area_Type
  10
215599.500
  20
4635232.500
  0
VERTEX
  8
Unknown_Area_Type
  10
214498.500
  20
4635621.000
  0
VERTEX
  8
Unknown_Area_Type
  10
214628.241
  20
4636983.438
  0
VERTEX
  8
Unknown_Area_Type
  10
217132.501
  20
4636883.718
  0
SEQEND
  8
Unknown_Area_Type
  0
INSERT
  8
FeatureAttribs
  2
FEATURE
  41
1
  42
1
  43
1
  50
0
  10
215811.305
  20
4636159.264
 66
1
  0
ATTRIB
  8
FeatureAttribs
 70
0
  1
PNOA-H_AMS_1956-57_33k_ES_PAN_2
  2
NAME
  10
215811.305
  20
4636159.264
 40
34.53493
  0
SEQEND
  0
POLYLINE
  8
Unknown_Area_Type
  70
1
  66
1
  0
VERTEX
  8
Unknown_Area_Type
  10
217132.501
  20
4636883.718
  0
VERTEX
  8
Unknown_Area_Type
  10
214628.241
  20
4636983.438
  0
VERTEX
  8
Unknown_Area_Type
  10
214498.500
  20
4635621.000
  0
VERTEX
  8
Unknown_Area_Type
  10
215599.500
  20
4635232.500
  0
VERTEX
  8
Unknown_Area_Type
  10
215616.000
  20
4635227.500
  0
VERTEX
  8
Unknown_Area_Type
  10
217030.500
  20
4635512.000
  0
VERTEX
  8
Unknown_Area_Type
  10
217132.501
  20
4636883.718
  0
SEQEND
  8
Unknown_Area_Type
  0
INSERT
  8
FeatureAttribs
  2
FEATURE
  41
1
  42
1
  43
1
  50
0
  10
210915.110
  20
4637178.018
 66
1
  0
ATTRIB
  8
FeatureAttribs
 70
0
  1
PNOA-H_AMS_1956-57_33k_ES_PAN_2
  2
NAME
  10
210915.110
  20
4637178.018
 40
34.53493
  0
SEQEND
  0
POLYLINE
  8
Unknown_Area_Type
  70
1
  66
1
  0
VERTEX
  8
Unknown_Area_Type
  10
212020.533
  20
4637267.073
  0
VERTEX
  8
Unknown_Area_Type
  10
212009.293
  20
4637088.963
  0
VERTEX
  8
Unknown_Area_Type
  10
211093.177
  20
4637125.889
  0
VERTEX
  8
Unknown_Area_Type
  10
209259.638
  20
4637200.685
  0
VERTEX
  8
Unknown_Area_Type
  10
209263.082
  20
4637267.073
  0
VERTEX
  8
Unknown_Area_Type
  10
212020.533
  20
4637267.073
  0
SEQEND
  8
Unknown_Area_Type
  0
INSERT
  8
FeatureAttribs
  2
FEATURE
  41
1
  42
1
  43
1
  50
0
  10
210567.722
  20
4636420.379
 66
1
  0
ATTRIB
  8
FeatureAttribs
 70
0
  1
PNOA-H_AMS_1956-57_33k_ES_PAN_2
  2
NAME
  10
210567.722
  20
4636420.379
 40
34.53493
  0
SEQEND
  0
POLYLINE
  8
Unknown_Area_Type
  70
1
  66
1
  0
VERTEX
  8
Unknown_Area_Type
  10
212009.293
  20
4637088.963
  0
VERTEX
  8
Unknown_Area_Type
  10
211929.500
  20
4635824.500
  0
VERTEX
  8
Unknown_Area_Type
  10
211929.000
  20
4635818.000
  0
VERTEX
  8
Unknown_Area_Type
  10
211927.500
  20
4635817.500
  0
VERTEX
  8
Unknown_Area_Type
  10
209992.500
  20
4635556.500
  0
VERTEX
  8
Unknown_Area_Type
  10
209192.000
  20
4635897.000
  0
VERTEX
  8
Unknown_Area_Type
  10
209259.638
  20
4637200.685
  0
VERTEX
  8
Unknown_Area_Type
  10
211093.177
  20
4637125.889
  0
VERTEX
  8
Unknown_Area_Type
  10
212009.293
  20
4637088.963
  0
SEQEND
  8
Unknown_Area_Type
  0
INSERT
  8
FeatureAttribs
  2
FEATURE
  41
1
  42
1
  43
1
  50
0
  10
210567.722
  20
4636420.379
 66
1
  0
ATTRIB
  8
FeatureAttribs
 70
0
  1
PNOA-H_AMS_1956-57_33k_ES_PAN_2
  2
NAME
  10
210567.722
  20
4636420.379
 40
34.53493
  0
SEQEND
  0
POLYLINE
  8
Unknown_Area_Type
  70
1
  66
1
  0
VERTEX
  8
Unknown_Area_Type
  10
212009.293
  20
4637088.963
  0
VERTEX
  8
Unknown_Area_Type
  10
211093.177
  20
4637125.889
  0
VERTEX
  8
Unknown_Area_Type
  10
209259.638
  20
4637200.685
  0
VERTEX
  8
Unknown_Area_Type
  10
209192.000
  20
4635897.000
  0
VERTEX
  8
Unknown_Area_Type
  10
209992.500
  20
4635556.500
  0
VERTEX
  8
Unknown_Area_Type
  10
211927.500
  20
4635817.500
  0
VERTEX
  8
Unknown_Area_Type
  10
211929.000
  20
4635818.000
  0
VERTEX
  8
Unknown_Area_Type
  10
211929.500
  20
4635824.500
  0
VERTEX
  8
Unknown_Area_Type
  10
212009.293
  20
4637088.963
  0
SEQEND
  8
Unknown_Area_Type
  0
INSERT
  8
FeatureAttribs
  2
FEATURE
  41
1
  42
1
  43
1
  50
0
  10
213326.641
  20
4637125.255
 66
1
  0
ATTRIB
  8
FeatureAttribs
 70
0
  1
PNOA-H_AMS_1956-57_33k_ES_PAN_2
  2
NAME
  10
213326.641
  20
4637125.255
 40
34.53493
  0
SEQEND
  0
POLYLINE
  8
Unknown_Area_Type
  70
1
  66
1
  0
VERTEX
  8
Unknown_Area_Type
  10
214655.233
  20
4637267.073
  0
VERTEX
  8
Unknown_Area_Type
  10
214628.226
  20
4636983.438
  0
VERTEX
  8
Unknown_Area_Type
  10
214553.604
  20
4636986.410
  0
VERTEX
  8
Unknown_Area_Type
  10
212009.262
  20
4637088.964
  0
VERTEX
  8
Unknown_Area_Type
  10
212020.505
  20
4637267.073
  0
VERTEX
  8
Unknown_Area_Type
  10
214655.233
  20
4637267.073
  0
SEQEND
  8
Unknown_Area_Type
  0
INSERT
  8
FeatureAttribs
  2
FEATURE
  41
1
  42
1
  43
1
  50
0
  10
213261.628
  20
4636296.947
 66
1
  0
ATTRIB
  8
FeatureAttribs
 70
0
  1
PNOA-H_AMS_1956-57_33k_ES_PAN_2
  2
NAME
  10
213261.628
  20
4636296.947
 40
34.53493
  0
SEQEND
  0
POLYLINE
  8
Unknown_Area_Type
  70
1
  66
1
  0
VERTEX
  8
Unknown_Area_Type
  10
214628.226
  20
4636983.438
  0
VERTEX
  8
Unknown_Area_Type
  10
214498.500
  20
4635621.000
  0
VERTEX
  8
Unknown_Area_Type
  10
212864.000
  20
4635424.500
  0
VERTEX
  8
Unknown_Area_Type
  10
212858.000
  20
4635424.000
  0
VERTEX
  8
Unknown_Area_Type
  10
212855.500
  20
4635425.000
  0
VERTEX
  8
Unknown_Area_Type
  10
211929.000
  20
4635817.500
  0
VERTEX
  8
Unknown_Area_Type
  10
212009.262
  20
4637088.964
  0
VERTEX
  8
Unknown_Area_Type
  10
214553.604
  20
4636986.410
  0
VERTEX
  8
Unknown_Area_Type
  10
214628.226
  20
4636983.438
  0
SEQEND
  8
Unknown_Area_Type
  0
INSERT
  8
FeatureAttribs
  2
FEATURE
  41
1
  42
1
  43
1
  50
0
  10
213261.628
  20
4636296.947
 66
1
  0
ATTRIB
  8
FeatureAttribs
 70
0
  1
PNOA-H_AMS_1956-57_33k_ES_PAN_2
  2
NAME
  10
213261.628
  20
4636296.947
 40
34.53493
  0
SEQEND
  0
POLYLINE
  8
Unknown_Area_Type
  70
1
  66
1
  0
VERTEX
  8
Unknown_Area_Type
  10
214628.226
  20
4636983.438
  0
VERTEX
  8
Unknown_Area_Type
  10
214553.604
  20
4636986.410
  0
VERTEX
  8
Unknown_Area_Type
  10
212009.262
  20
4637088.964
  0
VERTEX
  8
Unknown_Area_Type
  10
211929.000
  20
4635817.500
  0
VERTEX
  8
Unknown_Area_Type
  10
212855.500
  20
4635425.000
  0
VERTEX
  8
Unknown_Area_Type
  10
212858.000
  20
4635424.000
  0
VERTEX
  8
Unknown_Area_Type
  10
212864.000
  20
4635424.500
  0
VERTEX
  8
Unknown_Area_Type
  10
214498.500
  20
4635621.000
  0
VERTEX
  8
Unknown_Area_Type
  10
214628.226
  20
4636983.438
  0
SEQEND
  8
Unknown_Area_Type
  0
INSERT
  8
FeatureAttribs
  2
FEATURE
  41
1
  42
1
  43
1
  50
0
  10
207632.614
  20
4637267.063
 66
1
  0
ATTRIB
  8
FeatureAttribs
 70
0
  1
PNOA-H_AMS_1956-57_33k_ES_PAN_2
  2
NAME
  10
207632.614
  20
4637267.063
 40
34.53493
  0
SEQEND
  0
POLYLINE
  8
Unknown_Area_Type
  70
1
  66
1
  0
VERTEX
  8
Unknown_Area_Type
  10
207632.733
  20
4637267.073
  0
VERTEX
  8
Unknown_Area_Type
  10
207632.733
  20
4637267.053
  0
VERTEX
  8
Unknown_Area_Type
  10
207632.258
  20
4637267.073
  0
VERTEX
  8
Unknown_Area_Type
  10
207632.733
  20
4637267.073
  0
SEQEND
  8
Unknown_Area_Type
  0
INSERT
  8
FeatureAttribs
  2
FEATURE
  41
1
  42
1
  43
1
  50
0
  10
208853.849
  20
4637233.874
 66
1
  0
ATTRIB
  8
FeatureAttribs
 70
0
  1
PNOA-H_AMS_1956-57_33k_ES_PAN_2
  2
NAME
  10
208853.849
  20
4637233.874
 40
34.53493
  0
SEQEND
  0
POLYLINE
  8
Unknown_Area_Type
  70
1
  66
1
  0
VERTEX
  8
Unknown_Area_Type
  10
209263.340
  20
4637267.073
  0
VERTEX
  8
Unknown_Area_Type
  10
209259.901
  20
4637200.675
  0
VERTEX
  8
Unknown_Area_Type
  10
207632.733
  20
4637267.053
  0
VERTEX
  8
Unknown_Area_Type
  10
207632.733
  20
4637267.073
  0
VERTEX
  8
Unknown_Area_Type
  10
209263.340
  20
4637267.073
  0
SEQEND
  8
Unknown_Area_Type
  0
INSERT
  8
FeatureAttribs
  2
FEATURE
  41
1
  42
1
  43
1
  50
0
  10
207237.849
  20
4636500.286
 66
1
  0
ATTRIB
  8
FeatureAttribs
 70
0
  1
PNOA-H_AMS_1956-57_33k_ES_PAN_2
  2
NAME
  10
207237.849
  20
4636500.286
 40
34.53493
  0
SEQEND
  0
POLYLINE
  8
Unknown_Area_Type
  70
1
  66
1
  0
VERTEX
  8
Unknown_Area_Type
  10
207571.296
  20
4635769.663
  0
VERTEX
  8
Unknown_Area_Type
  10
207109.500
  20
4635733.500
  0
VERTEX
  8
Unknown_Area_Type
  10
206874.424
  20
4635842.663
  0
VERTEX
  8
Unknown_Area_Type
  10
206874.424
  20
4637267.073
  0
VERTEX
  8
Unknown_Area_Type
  10
207632.258
  20
4637267.073
  0
VERTEX
  8
Unknown_Area_Type
  10
207632.733
  20
4637267.053
  0
VERTEX
  8
Unknown_Area_Type
  10
207571.296
  20
4635769.663
  0
SEQEND
  8
Unknown_Area_Type
  0
INSERT
  8
FeatureAttribs
  2
FEATURE
  41
1
  42
1
  43
1
  50
0
  10
208395.415
  20
4636534.231
 66
1
  0
ATTRIB
  8
FeatureAttribs
 70
0
  1
PNOA-H_AMS_1956-57_33k_ES_PAN_2
  2
NAME
  10
208395.415
  20
4636534.231
 40
34.53493
  0
SEQEND
  0
POLYLINE
  8
Unknown_Area_Type
  70
1
  66
1
  0
VERTEX
  8
Unknown_Area_Type
  10
209259.901
  20
4637200.675
  0
VERTEX
  8
Unknown_Area_Type
  10
209193.000
  20
4635909.000
  0
VERTEX
  8
Unknown_Area_Type
  10
209192.500
  20
4635899.500
  0
VERTEX
  8
Unknown_Area_Type
  10
209191.000
  20
4635896.500
  0
VERTEX
  8
Unknown_Area_Type
  10
207571.296
  20
4635769.663
  0
VERTEX
  8
Unknown_Area_Type
  10
207632.733
  20
4637267.053
  0
VERTEX
  8
Unknown_Area_Type
  10
209259.901
  20
4637200.675
  0
SEQEND
  8
Unknown_Area_Type
  0
INSERT
  8
FeatureAttribs
  2
FEATURE
  41
1
  42
1
  43
1
  50
0
  10
208395.415
  20
4636534.231
 66
1
  0
ATTRIB
  8
FeatureAttribs
 70
0
  1
PNOA-H_AMS_1956-57_33k_ES_PAN_2
  2
NAME
  10
208395.415
  20
4636534.231
 40
34.53493
  0
SEQEND
  0
POLYLINE
  8
Unknown_Area_Type
  70
1
  66
1
  0
VERTEX
  8
Unknown_Area_Type
  10
209259.901
  20
4637200.675
  0
VERTEX
  8
Unknown_Area_Type
  10
207632.733
  20
4637267.053
  0
VERTEX
  8
Unknown_Area_Type
  10
207571.296
  20
4635769.663
  0
VERTEX
  8
Unknown_Area_Type
  10
209191.000
  20
4635896.500
  0
VERTEX
  8
Unknown_Area_Type
  10
209192.500
  20
4635899.500
  0
VERTEX
  8
Unknown_Area_Type
  10
209193.000
  20
4635909.000
  0
VERTEX
  8
Unknown_Area_Type
  10
209259.901
  20
4637200.675
  0
SEQEND
  8
Unknown_Area_Type
  0
INSERT
  8
FeatureAttribs
  2
FEATURE
  41
1
  42
1
  43
1
  50
0
  10
235284.911
  20
4635397.387
 66
1
  0
ATTRIB
  8
FeatureAttribs
 70
0
  1
PNOA-H_AMS_1956-57_33k_ES_PAN_2
  2
NAME
  10
235284.911
  20
4635397.387
 40
34.53493
  0
SEQEND
  0
POLYLINE
  8
Unknown_Area_Type
  70
1
  66
1
  0
VERTEX
  8
Unknown_Area_Type
  10
235258.695
  20
4634646.587
  0
VERTEX
  8
Unknown_Area_Type
  10
235254.000
  20
4634647.000
  0
VERTEX
  8
Unknown_Area_Type
  10
235313.783
  20
4636184.995
  0
VERTEX
  8
Unknown_Area_Type
  10
235315.823
  20
4636184.918
  0
VERTEX
  8
Unknown_Area_Type
  10
235258.695
  20
4634646.587
  0
SEQEND
  8
Unknown_Area_Type
  0
INSERT
  8
FeatureAttribs
  2
FEATURE
  41
1
  42
1
  43
1
  50
0
  10
235314.817
  20
4636198.279
 66
1
  0
ATTRIB
  8
FeatureAttribs
 70
0
  1
PNOA-H_AMS_1956-57_33k_ES_PAN_2
  2
NAME
  10
235314.817
  20
4636198.279
 40
34.53493
  0
SEQEND
  0
POLYLINE
  8
Unknown_Area_Type
  70
1
  66
1
  0
VERTEX
  8
Unknown_Area_Type
  10
235315.851
  20
4636238.208
  0
VERTEX
  8
Unknown_Area_Type
  10
235315.851
  20
4636185.684
  0
VERTEX
  8
Unknown_Area_Type
  10
235315.823
  20
4636184.918
  0
VERTEX
  8
Unknown_Area_Type
  10
235313.783
  20
4636184.995
  0
VERTEX
  8
Unknown_Area_Type
  10
235315.851
  20
4636238.208
  0
SEQEND
  8
Unknown_Area_Type
  0
INSERT
  8
FeatureAttribs
  2
FEATURE
  41
1
  42
1
  43
1
  50
0
  10
235315.837
  20
4636185.109
 66
1
  0
ATTRIB
  8
FeatureAttribs
 70
0
  1
PNOA-H_AMS_1956-57_33k_ES_PAN_2
  2
NAME
  10
235315.837
  20
4636185.109
 40
34.53493
  0
SEQEND
  0
POLYLINE
  8
Unknown_Area_Type
  70
1
  66
1
  0
VERTEX
  8
Unknown_Area_Type
  10
235315.851
  20
4636185.684
  0
VERTEX
  8
Unknown_Area_Type
  10
235315.851
  20
4636184.917
  0
VERTEX
  8
Unknown_Area_Type
  10
235315.823
  20
4636184.918
  0
VERTEX
  8
Unknown_Area_Type
  10
235315.851
  20
4636185.684
  0
SEQEND
  8
Unknown_Area_Type
  0
INSERT
  8
FeatureAttribs
  2
FEATURE
  41
1
  42
1
  43
1
  50
0
  10
235284.911
  20
4635397.387
 66
1
  0
ATTRIB
  8
FeatureAttribs
 70
0
  1
PNOA-H_AMS_1956-57_33k_ES_PAN_2
  2
NAME
  10
235284.911
  20
4635397.387
 40
34.53493
  0
SEQEND
  0
POLYLINE
  8
Unknown_Area_Type
  70
1
  66
1
  0
VERTEX
  8
Unknown_Area_Type
  10
235258.695
  20
4634646.587
  0
VERTEX
  8
Unknown_Area_Type
  10
235254.000
  20
4634647.000
  0
VERTEX
  8
Unknown_Area_Type
  10
235313.783
  20
4636184.995
  0
VERTEX
  8
Unknown_Area_Type
  10
235315.823
  20
4636184.918
  0
VERTEX
  8
Unknown_Area_Type
  10
235258.695
  20
4634646.587
  0
SEQEND
  8
Unknown_Area_Type
  0
INSERT
  8
FeatureAttribs
  2
FEATURE
  41
1
  42
1
  43
1
  50
0
  10
235301.508
  20
4635413.241
 66
1
  0
ATTRIB
  8
FeatureAttribs
 70
0
  1
PNOA-H_AMS_1956-57_33k_ES_PAN_2
  2
NAME
  10
235301.508
  20
4635413.241
 40
34.53493
  0
SEQEND
  0
POLYLINE
  8
Unknown_Area_Type
  70
1
  66
1
  0
VERTEX
  8
Unknown_Area_Type
  10
235315.851
  20
4634641.563
  0
VERTEX
  8
Unknown_Area_Type
  10
235258.695
  20
4634646.587
  0
VERTEX
  8
Unknown_Area_Type
  10
235315.823
  20
4636184.918
  0
VERTEX
  8
Unknown_Area_Type
  10
235315.851
  20
4636184.917
  0
VERTEX
  8
Unknown_Area_Type
  10
235315.851
  20
4634641.563
  0
SEQEND
  8
Unknown_Area_Type
  0
INSERT
  8
FeatureAttribs
  2
FEATURE
  41
1
  42
1
  43
1
  50
0
  10
231786.784
  20
4623295.500
 66
1
  0
ATTRIB
  8
FeatureAttribs
 70
0
  1
PNOA-H_AMS_1956-57_33k_ES_PAN_2
  2
NAME
  10
231786.784
  20
4623295.500
 40
34.53493
  0
SEQEND
  0
POLYLINE
  8
Unknown_Area_Type
  70
1
  66
1
  0
VERTEX
  8
Unknown_Area_Type
  10
233009.500
  20
4625578.500
  0
VERTEX
  8
Unknown_Area_Type
  10
233025.000
  20
4625578.000
  0
VERTEX
  8
Unknown_Area_Type
  10
233088.500
  20
4625532.500
  0
VERTEX
  8
Unknown_Area_Type
  10
233089.500
  20
4625531.500
  0
VERTEX
  8
Unknown_Area_Type
  10
233089.500
  20
4625504.000
  0
VERTEX
  8
Unknown_Area_Type
  10
233011.500
  20
4621009.500
  0
VERTEX
  8
Unknown_Area_Type
  10
233011.000
  20
4620993.500
  0
VERTEX
  8
Unknown_Area_Type
  10
232977.000
  20
4620978.000
  0
VERTEX
  8
Unknown_Area_Type
  10
230421.000
  20
4621162.000
  0
VERTEX
  8
Unknown_Area_Type
  10
230421.000
  20
4621166.500
  0
VERTEX
  8
Unknown_Area_Type
  10
230579.500
  20
4625516.000
  0
VERTEX
  8
Unknown_Area_Type
  10
232989.500
  20
4625578.000
  0
VERTEX
  8
Unknown_Area_Type
  10
233009.500
  20
4625578.500
  0
SEQEND
  8
Unknown_Area_Type
  0
INSERT
  8
FeatureAttribs
  2
FEATURE
  41
1
  42
1
  43
1
  50
0
  10
231786.784
  20
4623295.500
 66
1
  0
ATTRIB
  8
FeatureAttribs
 70
0
  1
PNOA-H_AMS_1956-57_33k_ES_PAN_2
  2
NAME
  10
231786.784
  20
4623295.500
 40
34.53493
  0
SEQEND
  0
POLYLINE
  8
Unknown_Area_Type
  70
1
  66
1
  0
VERTEX
  8
Unknown_Area_Type
  10
233009.500
  20
4625578.500
  0
VERTEX
  8
Unknown_Area_Type
  10
232989.500
  20
4625578.000
  0
VERTEX
  8
Unknown_Area_Type
  10
230579.500
  20
4625516.000
  0
VERTEX
  8
Unknown_Area_Type
  10
230421.000
  20
4621166.500
  0
VERTEX
  8
Unknown_Area_Type
  10
230421.000
  20
4621162.000
  0
VERTEX
  8
Unknown_Area_Type
  10
232977.000
  20
4620978.000
  0
VERTEX
  8
Unknown_Area_Type
  10
233011.000
  20
4620993.500
  0
VERTEX
  8
Unknown_Area_Type
  10
233011.500
  20
4621009.500
  0
VERTEX
  8
Unknown_Area_Type
  10
233089.500
  20
4625504.000
  0
VERTEX
  8
Unknown_Area_Type
  10
233089.500
  20
4625531.500
  0
VERTEX
  8
Unknown_Area_Type
  10
233088.500
  20
4625532.500
  0
VERTEX
  8
Unknown_Area_Type
  10
233025.000
  20
4625578.000
  0
VERTEX
  8
Unknown_Area_Type
  10
233009.500
  20
4625578.500
  0
SEQEND
  8
Unknown_Area_Type
  0
INSERT
  8
FeatureAttribs
  2
FEATURE
  41
1
  42
1
  43
1
  50
0
  10
226625.512
  20
4623585.790
 66
1
  0
ATTRIB
  8
FeatureAttribs
 70
0
  1
PNOA-H_AMS_1956-57_33k_ES_PAN_2
  2
NAME
  10
226625.512
  20
4623585.790
 40
34.53493
  0
SEQEND
  0
POLYLINE
  8
Unknown_Area_Type
  70
1
  66
1
  0
VERTEX
  8
Unknown_Area_Type
  10
226961.500
  20
4625810.500
  0
VERTEX
  8
Unknown_Area_Type
  10
227487.500
  20
4625871.500
  0
VERTEX
  8
Unknown_Area_Type
  10
228044.000
  20
4625526.500
  0
VERTEX
  8
Unknown_Area_Type
  10
227774.000
  20
4621433.000
  0
VERTEX
  8
Unknown_Area_Type
  10
227337.000
  20
4621268.000
  0
VERTEX
  8
Unknown_Area_Type
  10
227320.000
  20
4621270.000
  0
VERTEX
  8
Unknown_Area_Type
  10
225171.000
  20
4621622.000
  0
VERTEX
  8
Unknown_Area_Type
  10
225424.000
  20
4625630.000
  0
VERTEX
  8
Unknown_Area_Type
  10
225424.500
  20
4625631.000
  0
VERTEX
  8
Unknown_Area_Type
  10
225440.500
  20
4625633.000
  0
VERTEX
  8
Unknown_Area_Type
  10
226957.000
  20
4625810.000
  0
VERTEX
  8
Unknown_Area_Type
  10
226961.500
  20
4625810.500
  0
SEQEND
  8
Unknown_Area_Type
  0
INSERT
  8
FeatureAttribs
  2
FEATURE
  41
1
  42
1
  43
1
  50
0
  10
226625.512
  20
4623585.790
 66
1
  0
ATTRIB
  8
FeatureAttribs
 70
0
  1
PNOA-H_AMS_1956-57_33k_ES_PAN_2
  2
NAME
  10
226625.512
  20
4623585.790
 40
34.53493
  0
SEQEND
  0
POLYLINE
  8
Unknown_Area_Type
  70
1
  66
1
  0
VERTEX
  8
Unknown_Area_Type
  10
226961.500
  20
4625810.500
  0
VERTEX
  8
Unknown_Area_Type
  10
226957.000
  20
4625810.000
  0
VERTEX
  8
Unknown_Area_Type
  10
225440.500
  20
4625633.000
  0
VERTEX
  8
Unknown_Area_Type
  10
225424.500
  20
4625631.000
  0
VERTEX
  8
Unknown_Area_Type
  10
225424.000
  20
4625630.000
  0
VERTEX
  8
Unknown_Area_Type
  10
225171.000
  20
4621622.000
  0
VERTEX
  8
Unknown_Area_Type
  10
227320.000
  20
4621270.000
  0
VERTEX
  8
Unknown_Area_Type
  10
227337.000
  20
4621268.000
  0
VERTEX
  8
Unknown_Area_Type
  10
227774.000
  20
4621433.000
  0
VERTEX
  8
Unknown_Area_Type
  10
228044.000
  20
4625526.500
  0
VERTEX
  8
Unknown_Area_Type
  10
227487.500
  20
4625871.500
  0
VERTEX
  8
Unknown_Area_Type
  10
226961.500
  20
4625810.500
  0
SEQEND
  8
Unknown_Area_Type
  0
INSERT
  8
FeatureAttribs
  2
FEATURE
  41
1
  42
1
  43
1
  50
0
  10
207083.727
  20
4628983.000
 66
1
  0
ATTRIB
  8
FeatureAttribs
 70
0
  1
PNOA-H_AMS_1956-57_33k_ES_PAN_2
  2
NAME
  10
207083.727
  20
4628983.000
 40
34.53493
  0
SEQEND
  0
POLYLINE
  8
Unknown_Area_Type
  70
1
  66
1
  0
VERTEX
  8
Unknown_Area_Type
  10
207382.967
  20
4631177.368
  0
VERTEX
  8
Unknown_Area_Type
  10
207348.086
  20
4630326.514
  0
VERTEX
  8
Unknown_Area_Type
  10
207253.282
  20
4628013.012
  0
VERTEX
  8
Unknown_Area_Type
  10
207199.955
  20
4626711.164
  0
VERTEX
  8
Unknown_Area_Type
  10
206969.500
  20
4626658.000
  0
VERTEX
  8
Unknown_Area_Type
  10
206874.424
  20
4626695.337
  0
VERTEX
  8
Unknown_Area_Type
  10
206874.424
  20
4631286.634
  0
VERTEX
  8
Unknown_Area_Type
  10
206911.500
  20
4631300.500
  0
VERTEX
  8
Unknown_Area_Type
  10
206934.000
  20
4631308.000
  0
VERTEX
  8
Unknown_Area_Type
  10
207382.967
  20
4631177.368
  0
SEQEND
  8
Unknown_Area_Type
  0
INSERT
  8
FeatureAttribs
  2
FEATURE
  41
1
  42
1
  43
1
  50
0
  10
207955.961
  20
4628966.593
 66
1
  0
ATTRIB
  8
FeatureAttribs
 70
0
  1
PNOA-H_AMS_1956-57_33k_ES_PAN_2
  2
NAME
  10
207955.961
  20
4628966.593
 40
34.53493
  0
SEQEND
  0
POLYLINE
  8
Unknown_Area_Type
  70
1
  66
1
  0
VERTEX
  8
Unknown_Area_Type
  10
207382.967
  20
4631177.368
  0
VERTEX
  8
Unknown_Area_Type
  10
208826.000
  20
4630757.500
  0
VERTEX
  8
Unknown_Area_Type
  10
208480.500
  20
4627019.500
  0
VERTEX
  8
Unknown_Area_Type
  10
208479.500
  20
4627009.000
  0
VERTEX
  8
Unknown_Area_Type
  10
208478.000
  20
4627006.000
  0
VERTEX
  8
Unknown_Area_Type
  10
207199.955
  20
4626711.164
  0
VERTEX
  8
Unknown_Area_Type
  10
207253.282
  20
4628013.012
  0
VERTEX
  8
Unknown_Area_Type
  10
207348.086
  20
4630326.514
  0
VERTEX
  8
Unknown_Area_Type
  10
207382.967
  20
4631177.368
  0
SEQEND
  8
Unknown_Area_Type
  0
INSERT
  8
FeatureAttribs
  2
FEATURE
  41
1
  42
1
  43
1
  50
0
  10
207955.961
  20
4628966.593
 66
1
  0
ATTRIB
  8
FeatureAttribs
 70
0
  1
PNOA-H_AMS_1956-57_33k_ES_PAN_2
  2
NAME
  10
207955.961
  20
4628966.593
 40
34.53493
  0
SEQEND
  0
POLYLINE
  8
Unknown_Area_Type
  70
1
  66
1
  0
VERTEX
  8
Unknown_Area_Type
  10
207382.967
  20
4631177.368
  0
VERTEX
  8
Unknown_Area_Type
  10
207348.086
  20
4630326.514
  0
VERTEX
  8
Unknown_Area_Type
  10
207253.282
  20
4628013.012
  0
VERTEX
  8
Unknown_Area_Type
  10
207199.955
  20
4626711.164
  0
VERTEX
  8
Unknown_Area_Type
  10
208478.000
  20
4627006.000
  0
VERTEX
  8
Unknown_Area_Type
  10
208479.500
  20
4627009.000
  0
VERTEX
  8
Unknown_Area_Type
  10
208480.500
  20
4627019.500
  0
VERTEX
  8
Unknown_Area_Type
  10
208826.000
  20
4630757.500
  0
VERTEX
  8
Unknown_Area_Type
  10
207382.967
  20
4631177.368
  0
SEQEND
  8
Unknown_Area_Type
  0
INSERT
  8
FeatureAttribs
  2
FEATURE
  41
1
  42
1
  43
1
  50
0
  10
206898.613
  20
4625620.908
 66
1
  0
ATTRIB
  8
FeatureAttribs
 70
0
  1
PNOA-H_AMS_1956-57_33k_ES_PAN_2
  2
NAME
  10
206898.613
  20
4625620.908
 40
34.53493
  0
SEQEND
  0
POLYLINE
  8
Unknown_Area_Type
  70
1
  66
1
  0
VERTEX
  8
Unknown_Area_Type
  10
206874.424
  20
4626695.829
  0
VERTEX
  8
Unknown_Area_Type
  10
206969.500
  20
4626658.500
  0
VERTEX
  8
Unknown_Area_Type
  10
206874.424
  20
4624545.987
  0
VERTEX
  8
Unknown_Area_Type
  10
206874.424
  20
4626695.829
  0
SEQEND
  8
Unknown_Area_Type
  0
INSERT
  8
FeatureAttribs
  2
FEATURE
  41
1
  42
1
  43
1
  50
0
  10
229229.885
  20
4623421.126
 66
1
  0
ATTRIB
  8
FeatureAttribs
 70
0
  1
PNOA-H_AMS_1956-57_33k_ES_PAN_2
  2
NAME
  10
229229.885
  20
4623421.126
 40
34.53493
  0
SEQEND
  0
POLYLINE
  8
Unknown_Area_Type
  70
1
  66
1
  0
VERTEX
  8
Unknown_Area_Type
  10
230231.500
  20
4625743.000
  0
VERTEX
  8
Unknown_Area_Type
  10
230233.500
  20
4625743.000
  0
VERTEX
  8
Unknown_Area_Type
  10
230567.000
  20
4625524.500
  0
VERTEX
  8
Unknown_Area_Type
  10
230579.000
  20
4625516.500
  0
VERTEX
  8
Unknown_Area_Type
  10
230579.500
  20
4625513.500
  0
VERTEX
  8
Unknown_Area_Type
  10
230421.500
  20
4621166.500
  0
VERTEX
  8
Unknown_Area_Type
  10
230421.000
  20
4621162.000
  0
VERTEX
  8
Unknown_Area_Type
  10
230420.000
  20
4621161.500
  0
VERTEX
  8
Unknown_Area_Type
  10
230224.500
  20
4621080.000
  0
VERTEX
  8
Unknown_Area_Type
  10
227774.500
  20
4621432.500
  0
VERTEX
  8
Unknown_Area_Type
  10
227774.000
  20
4621439.500
  0
VERTEX
  8
Unknown_Area_Type
  10
228044.000
  20
4625526.000
  0
VERTEX
  8
Unknown_Area_Type
  10
230226.500
  20
4625742.500
  0
VERTEX
  8
Unknown_Area_Type
  10
230231.500
  20
4625743.000
  0
SEQEND
  8
Unknown_Area_Type
  0
INSERT
  8
FeatureAttribs
  2
FEATURE
  41
1
  42
1
  43
1
  50
0
  10
229229.885
  20
4623421.126
 66
1
  0
ATTRIB
  8
FeatureAttribs
 70
0
  1
PNOA-H_AMS_1956-57_33k_ES_PAN_2
  2
NAME
  10
229229.885
  20
4623421.126
 40
34.53493
  0
SEQEND
  0
POLYLINE
  8
Unknown_Area_Type
  70
1
  66
1
  0
VERTEX
  8
Unknown_Area_Type
  10
230231.500
  20
4625743.000
  0
VERTEX
  8
Unknown_Area_Type
  10
230226.500
  20
4625742.500
  0
VERTEX
  8
Unknown_Area_Type
  10
228044.000
  20
4625526.000
  0
VERTEX
  8
Unknown_Area_Type
  10
227774.000
  20
4621439.500
  0
VERTEX
  8
Unknown_Area_Type
  10
227774.500
  20
4621432.500
  0
VERTEX
  8
Unknown_Area_Type
  10
230224.500
  20
4621080.000
  0
VERTEX
  8
Unknown_Area_Type
  10
230420.000
  20
4621161.500
  0
VERTEX
  8
Unknown_Area_Type
  10
230421.000
  20
4621162.000
  0
VERTEX
  8
Unknown_Area_Type
  10
230421.500
  20
4621166.500
  0
VERTEX
  8
Unknown_Area_Type
  10
230579.500
  20
4625513.500
  0
VERTEX
  8
Unknown_Area_Type
  10
230579.000
  20
4625516.500
  0
VERTEX
  8
Unknown_Area_Type
  10
230567.000
  20
4625524.500
  0
VERTEX
  8
Unknown_Area_Type
  10
230233.500
  20
4625743.000
  0
VERTEX
  8
Unknown_Area_Type
  10
230231.500
  20
4625743.000
  0
SEQEND
  8
Unknown_Area_Type
  0
INSERT
  8
FeatureAttribs
  2
FEATURE
  41
1
  42
1
  43
1
  50
0
  10
221371.740
  20
4623824.465
 66
1
  0
ATTRIB
  8
FeatureAttribs
 70
0
  1
PNOA-H_AMS_1956-57_33k_ES_PAN_2
  2
NAME
  10
221371.740
  20
4623824.465
 40
34.53493
  0
SEQEND
  0
POLYLINE
  8
Unknown_Area_Type
  70
1
  66
1
  0
VERTEX
  8
Unknown_Area_Type
  10
221928.000
  20
4621576.000
  0
VERTEX
  8
Unknown_Area_Type
  10
221766.500
  20
4621520.500
  0
VERTEX
  8
Unknown_Area_Type
  10
219937.000
  20
4621962.500
  0
VERTEX
  8
Unknown_Area_Type
  10
219933.000
  20
4621963.500
  0
VERTEX
  8
Unknown_Area_Type
  10
219933.000
  20
4621969.000
  0
VERTEX
  8
Unknown_Area_Type
  10
220132.500
  20
4625790.500
  0
VERTEX
  8
Unknown_Area_Type
  10
222099.500
  20
4626110.500
  0
VERTEX
  8
Unknown_Area_Type
  10
222111.500
  20
4626104.000
  0
VERTEX
  8
Unknown_Area_Type
  10
222758.500
  20
4625697.500
  0
VERTEX
  8
Unknown_Area_Type
  10
222760.500
  20
4625696.000
  0
VERTEX
  8
Unknown_Area_Type
  10
222760.500
  20
4625688.000
  0
VERTEX
  8
Unknown_Area_Type
  10
222577.500
  20
4621799.500
  0
VERTEX
  8
Unknown_Area_Type
  10
221929.500
  20
4621576.000
  0
VERTEX
  8
Unknown_Area_Type
  10
221928.000
  20
4621576.000
  0
SEQEND
  8
Unknown_Area_Type
  0
INSERT
  8
FeatureAttribs
  2
FEATURE
  41
1
  42
1
  43
1
  50
0
  10
221371.740
  20
4623824.465
 66
1
  0
ATTRIB
  8
FeatureAttribs
 70
0
  1
PNOA-H_AMS_1956-57_33k_ES_PAN_2
  2
NAME
  10
221371.740
  20
4623824.465
 40
34.53493
  0
SEQEND
  0
POLYLINE
  8
Unknown_Area_Type
  70
1
  66
1
  0
VERTEX
  8
Unknown_Area_Type
  10
221928.000
  20
4621576.000
  0
VERTEX
  8
Unknown_Area_Type
  10
221929.500
  20
4621576.000
  0
VERTEX
  8
Unknown_Area_Type
  10
222577.500
  20
4621799.500
  0
VERTEX
  8
Unknown_Area_Type
  10
222760.500
  20
4625688.000
  0
VERTEX
  8
Unknown_Area_Type
  10
222760.500
  20
4625696.000
  0
VERTEX
  8
Unknown_Area_Type
  10
222758.500
  20
4625697.500
  0
VERTEX
  8
Unknown_Area_Type
  10
222111.500
  20
4626104.000
  0
VERTEX
  8
Unknown_Area_Type
  10
222099.500
  20
4626110.500
  0
VERTEX
  8
Unknown_Area_Type
  10
220132.500
  20
4625790.500
  0
VERTEX
  8
Unknown_Area_Type
  10
219933.000
  20
4621969.000
  0
VERTEX
  8
Unknown_Area_Type
  10
219933.000
  20
4621963.500
  0
VERTEX
  8
Unknown_Area_Type
  10
219937.000
  20
4621962.500
  0
VERTEX
  8
Unknown_Area_Type
  10
221766.500
  20
4621520.500
  0
VERTEX
  8
Unknown_Area_Type
  10
221928.000
  20
4621576.000
  0
SEQEND
  8
Unknown_Area_Type
  0
INSERT
  8
FeatureAttribs
  2
FEATURE
  41
1
  42
1
  43
1
  50
0
  10
235074.908
  20
4623197.101
 66
1
  0
ATTRIB
  8
FeatureAttribs
 70
0
  1
PNOA-H_AMS_1956-57_33k_ES_PAN_2
  2
NAME
  10
235074.908
  20
4623197.101
 40
34.53493
  0
SEQEND
  0
POLYLINE
  8
Unknown_Area_Type
  70
1
  66
1
  0
VERTEX
  8
Unknown_Area_Type
  10
235315.851
  20
4625453.442
  0
VERTEX
  8
Unknown_Area_Type
  10
235315.851
  20
4620926.816
  0
VERTEX
  8
Unknown_Area_Type
  10
234750.454
  20
4620943.174
  0
VERTEX
  8
Unknown_Area_Type
  10
234800.881
  20
4622304.422
  0
VERTEX
  8
Unknown_Area_Type
  10
234886.617
  20
4624617.824
  0
VERTEX
  8
Unknown_Area_Type
  10
234918.115
  20
4625467.387
  0
VERTEX
  8
Unknown_Area_Type
  10
235315.851
  20
4625453.442
  0
SEQEND
  8
Unknown_Area_Type
  0
INSERT
  8
FeatureAttribs
  2
FEATURE
  41
1
  42
1
  43
1
  50
0
  10
233942.534
  20
4623252.735
 66
1
  0
ATTRIB
  8
FeatureAttribs
 70
0
  1
PNOA-H_AMS_1956-57_33k_ES_PAN_2
  2
NAME
  10
233942.534
  20
4623252.735
 40
34.53493
  0
SEQEND
  0
POLYLINE
  8
Unknown_Area_Type
  70
1
  66
1
  0
VERTEX
  8
Unknown_Area_Type
  10
234918.115
  20
4625467.387
  0
VERTEX
  8
Unknown_Area_Type
  10
234886.617
  20
4624617.824
  0
VERTEX
  8
Unknown_Area_Type
  10
234800.881
  20
4622304.422
  0
VERTEX
  8
Unknown_Area_Type
  10
234750.454
  20
4620943.174
  0
VERTEX
  8
Unknown_Area_Type
  10
233011.000
  20
4620993.500
  0
VERTEX
  8
Unknown_Area_Type
  10
233089.500
  20
4625504.000
  0
VERTEX
  8
Unknown_Area_Type
  10
233089.500
  20
4625531.500
  0
VERTEX
  8
Unknown_Area_Type
  10
234918.115
  20
4625467.387
  0
SEQEND
  8
Unknown_Area_Type
  0
INSERT
  8
FeatureAttribs
  2
FEATURE
  41
1
  42
1
  43
1
  50
0
  10
233942.534
  20
4623252.735
 66
1
  0
ATTRIB
  8
FeatureAttribs
 70
0
  1
PNOA-H_AMS_1956-57_33k_ES_PAN_2
  2
NAME
  10
233942.534
  20
4623252.735
 40
34.53493
  0
SEQEND
  0
POLYLINE
  8
Unknown_Area_Type
  70
1
  66
1
  0
VERTEX
  8
Unknown_Area_Type
  10
234918.115
  20
4625467.387
  0
VERTEX
  8
Unknown_Area_Type
  10
233089.500
  20
4625531.500
  0
VERTEX
  8
Unknown_Area_Type
  10
233089.500
  20
4625504.000
  0
VERTEX
  8
Unknown_Area_Type
  10
233011.000
  20
4620993.500
  0
VERTEX
  8
Unknown_Area_Type
  10
234750.454
  20
4620943.174
  0
VERTEX
  8
Unknown_Area_Type
  10
234800.881
  20
4622304.422
  0
VERTEX
  8
Unknown_Area_Type
  10
234886.617
  20
4624617.824
  0
VERTEX
  8
Unknown_Area_Type
  10
234918.115
  20
4625467.387
  0
SEQEND
  8
Unknown_Area_Type
  0
INSERT
  8
FeatureAttribs
  2
FEATURE
  41
1
  42
1
  43
1
  50
0
  10
218753.440
  20
4624003.653
 66
1
  0
ATTRIB
  8
FeatureAttribs
 70
0
  1
PNOA-H_AMS_1956-57_33k_ES_PAN_2
  2
NAME
  10
218753.440
  20
4624003.653
 40
34.53493
  0
SEQEND
  0
POLYLINE
  8
Unknown_Area_Type
  70
1
  66
1
  0
VERTEX
  8
Unknown_Area_Type
  10
219309.000
  20
4626285.500
  0
VERTEX
  8
Unknown_Area_Type
  10
219312.000
  20
4626285.500
  0
VERTEX
  8
Unknown_Area_Type
  10
219324.000
  20
4626278.500
  0
VERTEX
  8
Unknown_Area_Type
  10
220132.500
  20
4625790.500
  0
VERTEX
  8
Unknown_Area_Type
  10
219933.500
  20
4621969.000
  0
VERTEX
  8
Unknown_Area_Type
  10
219933.000
  20
4621963.500
  0
VERTEX
  8
Unknown_Area_Type
  10
219044.500
  20
4621709.500
  0
VERTEX
  8
Unknown_Area_Type
  10
219021.000
  20
4621714.500
  0
VERTEX
  8
Unknown_Area_Type
  10
217400.500
  20
4622121.000
  0
VERTEX
  8
Unknown_Area_Type
  10
217478.500
  20
4625923.500
  0
VERTEX
  8
Unknown_Area_Type
  10
219306.500
  20
4626285.000
  0
VERTEX
  8
Unknown_Area_Type
  10
219309.000
  20
4626285.500
  0
SEQEND
  8
Unknown_Area_Type
  0
INSERT
  8
FeatureAttribs
  2
FEATURE
  41
1
  42
1
  43
1
  50
0
  10
218753.440
  20
4624003.653
 66
1
  0
ATTRIB
  8
FeatureAttribs
 70
0
  1
PNOA-H_AMS_1956-57_33k_ES_PAN_2
  2
NAME
  10
218753.440
  20
4624003.653
 40
34.53493
  0
SEQEND
  0
POLYLINE
  8
Unknown_Area_Type
  70
1
  66
1
  0
VERTEX
  8
Unknown_Area_Type
  10
219309.000
  20
4626285.500
  0
VERTEX
  8
Unknown_Area_Type
  10
219306.500
  20
4626285.000
  0
VERTEX
  8
Unknown_Area_Type
  10
217478.500
  20
4625923.500
  0
VERTEX
  8
Unknown_Area_Type
  10
217400.500
  20
4622121.000
  0
VERTEX
  8
Unknown_Area_Type
  10
219021.000
  20
4621714.500
  0
VERTEX
  8
Unknown_Area_Type
  10
219044.500
  20
4621709.500
  0
VERTEX
  8
Unknown_Area_Type
  10
219933.000
  20
4621963.500
  0
VERTEX
  8
Unknown_Area_Type
  10
219933.500
  20
4621969.000
  0
VERTEX
  8
Unknown_Area_Type
  10
220132.500
  20
4625790.500
  0
VERTEX
  8
Unknown_Area_Type
  10
219324.000
  20
4626278.500
  0
VERTEX
  8
Unknown_Area_Type
  10
219312.000
  20
4626285.500
  0
VERTEX
  8
Unknown_Area_Type
  10
219309.000
  20
4626285.500
  0
SEQEND
  8
Unknown_Area_Type
  0
INSERT
  8
FeatureAttribs
  2
FEATURE
  41
1
  42
1
  43
1
  50
0
  10
216129.063
  20
4624105.561
 66
1
  0
ATTRIB
  8
FeatureAttribs
 70
0
  1
PNOA-H_AMS_1956-57_33k_ES_PAN_2
  2
NAME
  10
216129.063
  20
4624105.561
 40
34.53493
  0
SEQEND
  0
POLYLINE
  8
Unknown_Area_Type
  70
1
  66
1
  0
VERTEX
  8
Unknown_Area_Type
  10
216722.000
  20
4626335.000
  0
VERTEX
  8
Unknown_Area_Type
  10
217478.500
  20
4625923.500
  0
VERTEX
  8
Unknown_Area_Type
  10
217400.500
  20
4622120.500
  0
VERTEX
  8
Unknown_Area_Type
  10
216315.500
  20
4621804.000
  0
VERTEX
  8
Unknown_Area_Type
  10
216305.000
  20
4621802.000
  0
VERTEX
  8
Unknown_Area_Type
  10
214738.000
  20
4622269.500
  0
VERTEX
  8
Unknown_Area_Type
  10
214857.000
  20
4626075.000
  0
VERTEX
  8
Unknown_Area_Type
  10
216577.000
  20
4626414.000
  0
VERTEX
  8
Unknown_Area_Type
  10
216721.500
  20
4626336.000
  0
VERTEX
  8
Unknown_Area_Type
  10
216722.000
  20
4626335.000
  0
SEQEND
  8
Unknown_Area_Type
  0
INSERT
  8
FeatureAttribs
  2
FEATURE
  41
1
  42
1
  43
1
  50
0
  10
216129.063
  20
4624105.561
 66
1
  0
ATTRIB
  8
FeatureAttribs
 70
0
  1
PNOA-H_AMS_1956-57_33k_ES_PAN_2
  2
NAME
  10
216129.063
  20
4624105.561
 40
34.53493
  0
SEQEND
  0
POLYLINE
  8
Unknown_Area_Type
  70
1
  66
1
  0
VERTEX
  8
Unknown_Area_Type
  10
216722.000
  20
4626335.000
  0
VERTEX
  8
Unknown_Area_Type
  10
216721.500
  20
4626336.000
  0
VERTEX
  8
Unknown_Area_Type
  10
216577.000
  20
4626414.000
  0
VERTEX
  8
Unknown_Area_Type
  10
214857.000
  20
4626075.000
  0
VERTEX
  8
Unknown_Area_Type
  10
214738.000
  20
4622269.500
  0
VERTEX
  8
Unknown_Area_Type
  10
216305.000
  20
4621802.000
  0
VERTEX
  8
Unknown_Area_Type
  10
216315.500
  20
4621804.000
  0
VERTEX
  8
Unknown_Area_Type
  10
217400.500
  20
4622120.500
  0
VERTEX
  8
Unknown_Area_Type
  10
217478.500
  20
4625923.500
  0
VERTEX
  8
Unknown_Area_Type
  10
216722.000
  20
4626335.000
  0
SEQEND
  8
Unknown_Area_Type
  0
INSERT
  8
FeatureAttribs
  2
FEATURE
  41
1
  42
1
  43
1
  50
0
  10
210889.622
  20
4624413.300
 66
1
  0
ATTRIB
  8
FeatureAttribs
 70
0
  1
PNOA-H_AMS_1956-57_33k_ES_PAN_2
  2
NAME
  10
210889.622
  20
4624413.300
 40
34.53493
  0
SEQEND
  0
POLYLINE
  8
Unknown_Area_Type
  70
1
  66
1
  0
VERTEX
  8
Unknown_Area_Type
  10
211194.500
  20
4626771.000
  0
VERTEX
  8
Unknown_Area_Type
  10
212295.500
  20
4626275.500
  0
VERTEX
  8
Unknown_Area_Type
  10
212121.000
  20
4622372.500
  0
VERTEX
  8
Unknown_Area_Type
  10
210689.000
  20
4622065.500
  0
VERTEX
  8
Unknown_Area_Type
  10
209477.500
  20
4622533.500
  0
VERTEX
  8
Unknown_Area_Type
  10
209657.000
  20
4626442.500
  0
VERTEX
  8
Unknown_Area_Type
  10
211192.500
  20
4626770.500
  0
VERTEX
  8
Unknown_Area_Type
  10
211194.500
  20
4626771.000
  0
SEQEND
  8
Unknown_Area_Type
  0
INSERT
  8
FeatureAttribs
  2
FEATURE
  41
1
  42
1
  43
1
  50
0
  10
210889.622
  20
4624413.300
 66
1
  0
ATTRIB
  8
FeatureAttribs
 70
0
  1
PNOA-H_AMS_1956-57_33k_ES_PAN_2
  2
NAME
  10
210889.622
  20
4624413.300
 40
34.53493
  0
SEQEND
  0
POLYLINE
  8
Unknown_Area_Type
  70
1
  66
1
  0
VERTEX
  8
Unknown_Area_Type
  10
211194.500
  20
4626771.000
  0
VERTEX
  8
Unknown_Area_Type
  10
211192.500
  20
4626770.500
  0
VERTEX
  8
Unknown_Area_Type
  10
209657.000
  20
4626442.500
  0
VERTEX
  8
Unknown_Area_Type
  10
209477.500
  20
4622533.500
  0
VERTEX
  8
Unknown_Area_Type
  10
210689.000
  20
4622065.500
  0
VERTEX
  8
Unknown_Area_Type
  10
212121.000
  20
4622372.500
  0
VERTEX
  8
Unknown_Area_Type
  10
212295.500
  20
4626275.500
  0
VERTEX
  8
Unknown_Area_Type
  10
211194.500
  20
4626771.000
  0
SEQEND
  8
Unknown_Area_Type
  0
INSERT
  8
FeatureAttribs
  2
FEATURE
  41
1
  42
1
  43
1
  50
0
  10
206995.272
  20
4624602.706
 66
1
  0
ATTRIB
  8
FeatureAttribs
 70
0
  1
PNOA-H_AMS_1956-57_33k_ES_PAN_2
  2
NAME
  10
206995.272
  20
4624602.706
 40
34.53493
  0
SEQEND
  0
POLYLINE
  8
Unknown_Area_Type
  70
1
  66
1
  0
VERTEX
  8
Unknown_Area_Type
  10
207199.959
  20
4626711.254
  0
VERTEX
  8
Unknown_Area_Type
  10
207158.516
  20
4625699.515
  0
VERTEX
  8
Unknown_Area_Type
  10
207063.789
  20
4623386.023
  0
VERTEX
  8
Unknown_Area_Type
  10
207027.287
  20
4622494.159
  0
VERTEX
  8
Unknown_Area_Type
  10
206874.424
  20
4622550.759
  0
VERTEX
  8
Unknown_Area_Type
  10
206874.424
  20
4624546.896
  0
VERTEX
  8
Unknown_Area_Type
  10
206969.500
  20
4626658.000
  0
VERTEX
  8
Unknown_Area_Type
  10
207199.959
  20
4626711.254
  0
SEQEND
  8
Unknown_Area_Type
  0
INSERT
  8
FeatureAttribs
  2
FEATURE
  41
1
  42
1
  43
1
  50
0
  10
208323.658
  20
4624576.905
 66
1
  0
ATTRIB
  8
FeatureAttribs
 70
0
  1
PNOA-H_AMS_1956-57_33k_ES_PAN_2
  2
NAME
  10
208323.658
  20
4624576.905
 40
34.53493
  0
SEQEND
  0
POLYLINE
  8
Unknown_Area_Type
  70
1
  66
1
  0
VERTEX
  8
Unknown_Area_Type
  10
207199.959
  20
4626711.254
  0
VERTEX
  8
Unknown_Area_Type
  10
208475.500
  20
4627006.000
  0
VERTEX
  8
Unknown_Area_Type
  10
208479.500
  20
4627006.500
  0
VERTEX
  8
Unknown_Area_Type
  10
208528.500
  20
4626982.500
  0
VERTEX
  8
Unknown_Area_Type
  10
208530.000
  20
4626982.000
  0
VERTEX
  8
Unknown_Area_Type
  10
209657.000
  20
4626442.500
  0
VERTEX
  8
Unknown_Area_Type
  10
209477.500
  20
4622533.500
  0
VERTEX
  8
Unknown_Area_Type
  10
207869.000
  20
4622182.500
  0
VERTEX
  8
Unknown_Area_Type
  10
207027.287
  20
4622494.159
  0
VERTEX
  8
Unknown_Area_Type
  10
207063.789
  20
4623386.023
  0
VERTEX
  8
Unknown_Area_Type
  10
207158.516
  20
4625699.515
  0
VERTEX
  8
Unknown_Area_Type
  10
207199.959
  20
4626711.254
  0
SEQEND
  8
Unknown_Area_Type
  0
INSERT
  8
FeatureAttribs
  2
FEATURE
  41
1
  42
1
  43
1
  50
0
  10
208323.658
  20
4624576.905
 66
1
  0
ATTRIB
  8
FeatureAttribs
 70
0
  1
PNOA-H_AMS_1956-57_33k_ES_PAN_2
  2
NAME
  10
208323.658
  20
4624576.905
 40
34.53493
  0
SEQEND
  0
POLYLINE
  8
Unknown_Area_Type
  70
1
  66
1
  0
VERTEX
  8
Unknown_Area_Type
  10
207199.959
  20
4626711.254
  0
VERTEX
  8
Unknown_Area_Type
  10
207158.516
  20
4625699.515
  0
VERTEX
  8
Unknown_Area_Type
  10
207063.789
  20
4623386.023
  0
VERTEX
  8
Unknown_Area_Type
  10
207027.287
  20
4622494.159
  0
VERTEX
  8
Unknown_Area_Type
  10
207869.000
  20
4622182.500
  0
VERTEX
  8
Unknown_Area_Type
  10
209477.500
  20
4622533.500
  0
VERTEX
  8
Unknown_Area_Type
  10
209657.000
  20
4626442.500
  0
VERTEX
  8
Unknown_Area_Type
  10
208530.000
  20
4626982.000
  0
VERTEX
  8
Unknown_Area_Type
  10
208528.500
  20
4626982.500
  0
VERTEX
  8
Unknown_Area_Type
  10
208479.500
  20
4627006.500
  0
VERTEX
  8
Unknown_Area_Type
  10
208475.500
  20
4627006.000
  0
VERTEX
  8
Unknown_Area_Type
  10
207199.959
  20
4626711.254
  0
SEQEND
  8
Unknown_Area_Type
  0
INSERT
  8
FeatureAttribs
  2
FEATURE
  41
1
  42
1
  43
1
  50
0
  10
213503.826
  20
4624252.001
 66
1
  0
ATTRIB
  8
FeatureAttribs
 70
0
  1
PNOA-H_AMS_1956-57_33k_ES_PAN_2
  2
NAME
  10
213503.826
  20
4624252.001
 40
34.53493
  0
SEQEND
  0
POLYLINE
  8
Unknown_Area_Type
  70
1
  66
1
  0
VERTEX
  8
Unknown_Area_Type
  10
212623.500
  20
4626340.500
  0
VERTEX
  8
Unknown_Area_Type
  10
213880.000
  20
4626590.000
  0
VERTEX
  8
Unknown_Area_Type
  10
214857.000
  20
4626075.000
  0
VERTEX
  8
Unknown_Area_Type
  10
214738.000
  20
4622269.500
  0
VERTEX
  8
Unknown_Area_Type
  10
213480.000
  20
4621927.000
  0
VERTEX
  8
Unknown_Area_Type
  10
212121.000
  20
4622372.500
  0
VERTEX
  8
Unknown_Area_Type
  10
212295.500
  20
4626275.000
  0
VERTEX
  8
Unknown_Area_Type
  10
212621.000
  20
4626340.000
  0
VERTEX
  8
Unknown_Area_Type
  10
212623.500
  20
4626340.500
  0
SEQEND
  8
Unknown_Area_Type
  0
INSERT
  8
FeatureAttribs
  2
FEATURE
  41
1
  42
1
  43
1
  50
0
  10
213503.826
  20
4624252.001
 66
1
  0
ATTRIB
  8
FeatureAttribs
 70
0
  1
PNOA-H_AMS_1956-57_33k_ES_PAN_2
  2
NAME
  10
213503.826
  20
4624252.001
 40
34.53493
  0
SEQEND
  0
POLYLINE
  8
Unknown_Area_Type
  70
1
  66
1
  0
VERTEX
  8
Unknown_Area_Type
  10
212623.500
  20
4626340.500
  0
VERTEX
  8
Unknown_Area_Type
  10
212621.000
  20
4626340.000
  0
VERTEX
  8
Unknown_Area_Type
  10
212295.500
  20
4626275.000
  0
VERTEX
  8
Unknown_Area_Type
  10
212121.000
  20
4622372.500
  0
VERTEX
  8
Unknown_Area_Type
  10
213480.000
  20
4621927.000
  0
VERTEX
  8
Unknown_Area_Type
  10
214738.000
  20
4622269.500
  0
VERTEX
  8
Unknown_Area_Type
  10
214857.000
  20
4626075.000
  0
VERTEX
  8
Unknown_Area_Type
  10
213880.000
  20
4626590.000
  0
VERTEX
  8
Unknown_Area_Type
  10
212623.500
  20
4626340.500
  0
SEQEND
  8
Unknown_Area_Type
  0
INSERT
  8
FeatureAttribs
  2
FEATURE
  41
1
  42
1
  43
1
  50
0
  10
224008.308
  20
4623722.226
 66
1
  0
ATTRIB
  8
FeatureAttribs
 70
0
  1
PNOA-H_AMS_1956-57_33k_ES_PAN_2
  2
NAME
  10
224008.308
  20
4623722.226
 40
34.53493
  0
SEQEND
  0
POLYLINE
  8
Unknown_Area_Type
  70
1
  66
1
  0
VERTEX
  8
Unknown_Area_Type
  10
225040.500
  20
4621576.000
  0
VERTEX
  8
Unknown_Area_Type
  10
224591.000
  20
4621416.000
  0
VERTEX
  8
Unknown_Area_Type
  10
224588.000
  20
4621416.000
  0
VERTEX
  8
Unknown_Area_Type
  10
222577.500
  20
4621799.500
  0
VERTEX
  8
Unknown_Area_Type
  10
222760.500
  20
4625696.000
  0
VERTEX
  8
Unknown_Area_Type
  10
224829.500
  20
4625996.000
  0
VERTEX
  8
Unknown_Area_Type
  10
224831.500
  20
4625996.000
  0
VERTEX
  8
Unknown_Area_Type
  10
225424.500
  20
4625631.000
  0
VERTEX
  8
Unknown_Area_Type
  10
225171.500
  20
4621625.000
  0
VERTEX
  8
Unknown_Area_Type
  10
225170.000
  20
4621621.500
  0
VERTEX
  8
Unknown_Area_Type
  10
225042.000
  20
4621576.000
  0
VERTEX
  8
Unknown_Area_Type
  10
225040.500
  20
4621576.000
  0
SEQEND
  8
Unknown_Area_Type
  0
INSERT
  8
FeatureAttribs
  2
FEATURE
  41
1
  42
1
  43
1
  50
0
  10
224008.308
  20
4623722.226
 66
1
  0
ATTRIB
  8
FeatureAttribs
 70
0
  1
PNOA-H_AMS_1956-57_33k_ES_PAN_2
  2
NAME
  10
224008.308
  20
4623722.226
 40
34.53493
  0
SEQEND
  0
POLYLINE
  8
Unknown_Area_Type
  70
1
  66
1
  0
VERTEX
  8
Unknown_Area_Type
  10
225040.500
  20
4621576.000
  0
VERTEX
  8
Unknown_Area_Type
  10
225042.000
  20
4621576.000
  0
VERTEX
  8
Unknown_Area_Type
  10
225170.000
  20
4621621.500
  0
VERTEX
  8
Unknown_Area_Type
  10
225171.500
  20
4621625.000
  0
VERTEX
  8
Unknown_Area_Type
  10
225424.500
  20
4625631.000
  0
VERTEX
  8
Unknown_Area_Type
  10
224831.500
  20
4625996.000
  0
VERTEX
  8
Unknown_Area_Type
  10
224829.500
  20
4625996.000
  0
VERTEX
  8
Unknown_Area_Type
  10
222760.500
  20
4625696.000
  0
VERTEX
  8
Unknown_Area_Type
  10
222577.500
  20
4621799.500
  0
VERTEX
  8
Unknown_Area_Type
  10
224588.000
  20
4621416.000
  0
VERTEX
  8
Unknown_Area_Type
  10
224591.000
  20
4621416.000
  0
VERTEX
  8
Unknown_Area_Type
  10
225040.500
  20
4621576.000
  0
SEQEND
  8
Unknown_Area_Type
  0
INSERT
  8
FeatureAttribs
  2
FEATURE
  41
1
  42
1
  43
1
  50
0
  10
228905.766
  20
4627801.928
 66
1
  0
ATTRIB
  8
FeatureAttribs
 70
0
  1
PNOA-H_AMS_1956-57_33k_ES_PAN_2
  2
NAME
  10
228905.766
  20
4627801.928
 40
34.53493
  0
SEQEND
  0
POLYLINE
  8
Unknown_Area_Type
  70
1
  66
1
  0
VERTEX
  8
Unknown_Area_Type
  10
229008.500
  20
4630081.000
  0
VERTEX
  8
Unknown_Area_Type
  10
229279.000
  20
4630132.500
  0
VERTEX
  8
Unknown_Area_Type
  10
230330.500
  20
4629727.500
  0
VERTEX
  8
Unknown_Area_Type
  10
230233.500
  20
4625750.500
  0
VERTEX
  8
Unknown_Area_Type
  10
230233.000
  20
4625743.000
  0
VERTEX
  8
Unknown_Area_Type
  10
230231.500
  20
4625742.500
  0
VERTEX
  8
Unknown_Area_Type
  10
228044.000
  20
4625526.000
  0
VERTEX
  8
Unknown_Area_Type
  10
227487.000
  20
4625871.500
  0
VERTEX
  8
Unknown_Area_Type
  10
227582.500
  20
4629808.500
  0
VERTEX
  8
Unknown_Area_Type
  10
229006.000
  20
4630080.500
  0
VERTEX
  8
Unknown_Area_Type
  10
229008.500
  20
4630081.000
  0
SEQEND
  8
Unknown_Area_Type
  0
INSERT
  8
FeatureAttribs
  2
FEATURE
  41
1
  42
1
  43
1
  50
0
  10
228905.766
  20
4627801.928
 66
1
  0
ATTRIB
  8
FeatureAttribs
 70
0
  1
PNOA-H_AMS_1956-57_33k_ES_PAN_2
  2
NAME
  10
228905.766
  20
4627801.928
 40
34.53493
  0
SEQEND
  0
POLYLINE
  8
Unknown_Area_Type
  70
1
  66
1
  0
VERTEX
  8
Unknown_Area_Type
  10
229008.500
  20
4630081.000
  0
VERTEX
  8
Unknown_Area_Type
  10
229006.000
  20
4630080.500
  0
VERTEX
  8
Unknown_Area_Type
  10
227582.500
  20
4629808.500
  0
VERTEX
  8
Unknown_Area_Type
  10
227487.000
  20
4625871.500
  0
VERTEX
  8
Unknown_Area_Type
  10
228044.000
  20
4625526.000
  0
VERTEX
  8
Unknown_Area_Type
  10
230231.500
  20
4625742.500
  0
VERTEX
  8
Unknown_Area_Type
  10
230233.000
  20
4625743.000
  0
VERTEX
  8
Unknown_Area_Type
  10
230233.500
  20
4625750.500
  0
VERTEX
  8
Unknown_Area_Type
  10
230330.500
  20
4629727.500
  0
VERTEX
  8
Unknown_Area_Type
  10
229279.000
  20
4630132.500
  0
VERTEX
  8
Unknown_Area_Type
  10
229008.500
  20
4630081.000
  0
SEQEND
  8
Unknown_Area_Type
  0
INSERT
  8
FeatureAttribs
  2
FEATURE
  41
1
  42
1
  43
1
  50
0
  10
231681.906
  20
4627720.056
 66
1
  0
ATTRIB
  8
FeatureAttribs
 70
0
  1
PNOA-H_AMS_1956-57_33k_ES_PAN_2
  2
NAME
  10
231681.906
  20
4627720.056
 40
34.53493
  0
SEQEND
  0
POLYLINE
  8
Unknown_Area_Type
  70
1
  66
1
  0
VERTEX
  8
Unknown_Area_Type
  10
230330.500
  20
4629727.500
  0
VERTEX
  8
Unknown_Area_Type
  10
231054.500
  20
4629870.500
  0
VERTEX
  8
Unknown_Area_Type
  10
231057.000
  20
4629871.000
  0
VERTEX
  8
Unknown_Area_Type
  10
231996.000
  20
4630056.000
  0
VERTEX
  8
Unknown_Area_Type
  10
233134.500
  20
4629656.500
  0
VERTEX
  8
Unknown_Area_Type
  10
233023.500
  20
4625578.500
  0
VERTEX
  8
Unknown_Area_Type
  10
230579.000
  20
4625516.000
  0
VERTEX
  8
Unknown_Area_Type
  10
230233.000
  20
4625743.000
  0
VERTEX
  8
Unknown_Area_Type
  10
230330.500
  20
4629727.500
  0
SEQEND
  8
Unknown_Area_Type
  0
INSERT
  8
FeatureAttribs
  2
FEATURE
  41
1
  42
1
  43
1
  50
0
  10
231681.906
  20
4627720.056
 66
1
  0
ATTRIB
  8
FeatureAttribs
 70
0
  1
PNOA-H_AMS_1956-57_33k_ES_PAN_2
  2
NAME
  10
231681.906
  20
4627720.056
 40
34.53493
  0
SEQEND
  0
POLYLINE
  8
Unknown_Area_Type
  70
1
  66
1
  0
VERTEX
  8
Unknown_Area_Type
  10
230330.500
  20
4629727.500
  0
VERTEX
  8
Unknown_Area_Type
  10
230233.000
  20
4625743.000
  0
VERTEX
  8
Unknown_Area_Type
  10
230579.000
  20
4625516.000
  0
VERTEX
  8
Unknown_Area_Type
  10
233023.500
  20
4625578.500
  0
VERTEX
  8
Unknown_Area_Type
  10
233134.500
  20
4629656.500
  0
VERTEX
  8
Unknown_Area_Type
  10
231996.000
  20
4630056.000
  0
VERTEX
  8
Unknown_Area_Type
  10
231057.000
  20
4629871.000
  0
VERTEX
  8
Unknown_Area_Type
  10
231054.500
  20
4629870.500
  0
VERTEX
  8
Unknown_Area_Type
  10
230330.500
  20
4629727.500
  0
SEQEND
  8
Unknown_Area_Type
  0
INSERT
  8
FeatureAttribs
  2
FEATURE
  41
1
  42
1
  43
1
  50
0
  10
223497.433
  20
4627967.558
 66
1
  0
ATTRIB
  8
FeatureAttribs
 70
0
  1
PNOA-H_AMS_1956-57_33k_ES_PAN_2
  2
NAME
  10
223497.433
  20
4627967.558
 40
34.53493
  0
SEQEND
  0
POLYLINE
  8
Unknown_Area_Type
  70
1
  66
1
  0
VERTEX
  8
Unknown_Area_Type
  10
223781.500
  20
4630266.500
  0
VERTEX
  8
Unknown_Area_Type
  10
224871.000
  20
4629881.500
  0
VERTEX
  8
Unknown_Area_Type
  10
224831.500
  20
4626026.000
  0
VERTEX
  8
Unknown_Area_Type
  10
224831.000
  20
4625996.000
  0
VERTEX
  8
Unknown_Area_Type
  10
224829.500
  20
4625995.500
  0
VERTEX
  8
Unknown_Area_Type
  10
222760.000
  20
4625696.000
  0
VERTEX
  8
Unknown_Area_Type
  10
222100.500
  20
4626110.500
  0
VERTEX
  8
Unknown_Area_Type
  10
222210.000
  20
4629953.500
  0
VERTEX
  8
Unknown_Area_Type
  10
223779.000
  20
4630266.000
  0
VERTEX
  8
Unknown_Area_Type
  10
223781.500
  20
4630266.500
  0
SEQEND
  8
Unknown_Area_Type
  0
INSERT
  8
FeatureAttribs
  2
FEATURE
  41
1
  42
1
  43
1
  50
0
  10
223497.433
  20
4627967.558
 66
1
  0
ATTRIB
  8
FeatureAttribs
 70
0
  1
PNOA-H_AMS_1956-57_33k_ES_PAN_2
  2
NAME
  10
223497.433
  20
4627967.558
 40
34.53493
  0
SEQEND
  0
POLYLINE
  8
Unknown_Area_Type
  70
1
  66
1
  0
VERTEX
  8
Unknown_Area_Type
  10
223781.500
  20
4630266.500
  0
VERTEX
  8
Unknown_Area_Type
  10
223779.000
  20
4630266.000
  0
VERTEX
  8
Unknown_Area_Type
  10
222210.000
  20
4629953.500
  0
VERTEX
  8
Unknown_Area_Type
  10
222100.500
  20
4626110.500
  0
VERTEX
  8
Unknown_Area_Type
  10
222760.000
  20
4625696.000
  0
VERTEX
  8
Unknown_Area_Type
  10
224829.500
  20
4625995.500
  0
VERTEX
  8
Unknown_Area_Type
  10
224831.000
  20
4625996.000
  0
VERTEX
  8
Unknown_Area_Type
  10
224831.500
  20
4626026.000
  0
VERTEX
  8
Unknown_Area_Type
  10
224871.000
  20
4629881.500
  0
VERTEX
  8
Unknown_Area_Type
  10
223781.500
  20
4630266.500
  0
SEQEND
  8
Unknown_Area_Type
  0
INSERT
  8
FeatureAttribs
  2
FEATURE
  41
1
  42
1
  43
1
  50
0
  10
210022.241
  20
4628782.137
 66
1
  0
ATTRIB
  8
FeatureAttribs
 70
0
  1
PNOA-H_AMS_1956-57_33k_ES_PAN_2
  2
NAME
  10
210022.241
  20
4628782.137
 40
34.53493
  0
SEQEND
  0
POLYLINE
  8
Unknown_Area_Type
  70
1
  66
1
  0
VERTEX
  8
Unknown_Area_Type
  10
211298.500
  20
4627720.000
  0
VERTEX
  8
Unknown_Area_Type
  10
211196.000
  20
4626774.500
  0
VERTEX
  8
Unknown_Area_Type
  10
211195.500
  20
4626771.000
  0
VERTEX
  8
Unknown_Area_Type
  10
211194.500
  20
4626770.500
  0
VERTEX
  8
Unknown_Area_Type
  10
209656.500
  20
4626442.500
  0
VERTEX
  8
Unknown_Area_Type
  10
208479.000
  20
4627006.500
  0
VERTEX
  8
Unknown_Area_Type
  10
208826.000
  20
4630757.500
  0
VERTEX
  8
Unknown_Area_Type
  10
209810.000
  20
4631122.500
  0
VERTEX
  8
Unknown_Area_Type
  10
211611.500
  20
4630598.500
  0
VERTEX
  8
Unknown_Area_Type
  10
211298.500
  20
4627722.500
  0
VERTEX
  8
Unknown_Area_Type
  10
211298.500
  20
4627720.000
  0
SEQEND
  8
Unknown_Area_Type
  0
INSERT
  8
FeatureAttribs
  2
FEATURE
  41
1
  42
1
  43
1
  50
0
  10
210022.241
  20
4628782.137
 66
1
  0
ATTRIB
  8
FeatureAttribs
 70
0
  1
PNOA-H_AMS_1956-57_33k_ES_PAN_2
  2
NAME
  10
210022.241
  20
4628782.137
 40
34.53493
  0
SEQEND
  0
POLYLINE
  8
Unknown_Area_Type
  70
1
  66
1
  0
VERTEX
  8
Unknown_Area_Type
  10
211298.500
  20
4627720.000
  0
VERTEX
  8
Unknown_Area_Type
  10
211298.500
  20
4627722.500
  0
VERTEX
  8
Unknown_Area_Type
  10
211611.500
  20
4630598.500
  0
VERTEX
  8
Unknown_Area_Type
  10
209810.000
  20
4631122.500
  0
VERTEX
  8
Unknown_Area_Type
  10
208826.000
  20
4630757.500
  0
VERTEX
  8
Unknown_Area_Type
  10
208479.000
  20
4627006.500
  0
VERTEX
  8
Unknown_Area_Type
  10
209656.500
  20
4626442.500
  0
VERTEX
  8
Unknown_Area_Type
  10
211194.500
  20
4626770.500
  0
VERTEX
  8
Unknown_Area_Type
  10
211195.500
  20
4626771.000
  0
VERTEX
  8
Unknown_Area_Type
  10
211196.000
  20
4626774.500
  0
VERTEX
  8
Unknown_Area_Type
  10
211298.500
  20
4627720.000
  0
SEQEND
  8
Unknown_Area_Type
  0
INSERT
  8
FeatureAttribs
  2
FEATURE
  41
1
  42
1
  43
1
  50
0
  10
220791.690
  20
4628062.586
 66
1
  0
ATTRIB
  8
FeatureAttribs
 70
0
  1
PNOA-H_AMS_1956-57_33k_ES_PAN_2
  2
NAME
  10
220791.690
  20
4628062.586
 40
34.53493
  0
SEQEND
  0
POLYLINE
  8
Unknown_Area_Type
  70
1
  66
1
  0
VERTEX
  8
Unknown_Area_Type
  10
221025.000
  20
4630369.500
  0
VERTEX
  8
Unknown_Area_Type
  10
221028.500
  20
4630369.500
  0
VERTEX
  8
Unknown_Area_Type
  10
221041.500
  20
4630365.000
  0
VERTEX
  8
Unknown_Area_Type
  10
222210.000
  20
4629953.500
  0
VERTEX
  8
Unknown_Area_Type
  10
222101.000
  20
4626115.500
  0
VERTEX
  8
Unknown_Area_Type
  10
222100.500
  20
4626110.500
  0
VERTEX
  8
Unknown_Area_Type
  10
222099.500
  20
4626110.000
  0
VERTEX
  8
Unknown_Area_Type
  10
220132.000
  20
4625790.500
  0
VERTEX
  8
Unknown_Area_Type
  10
219311.500
  20
4626285.500
  0
VERTEX
  8
Unknown_Area_Type
  10
219575.000
  20
4630069.500
  0
VERTEX
  8
Unknown_Area_Type
  10
221023.000
  20
4630369.000
  0
VERTEX
  8
Unknown_Area_Type
  10
221025.000
  20
4630369.500
  0
SEQEND
  8
Unknown_Area_Type
  0
INSERT
  8
FeatureAttribs
  2
FEATURE
  41
1
  42
1
  43
1
  50
0
  10
220791.690
  20
4628062.586
 66
1
  0
ATTRIB
  8
FeatureAttribs
 70
0
  1
PNOA-H_AMS_1956-57_33k_ES_PAN_2
  2
NAME
  10
220791.690
  20
4628062.586
 40
34.53493
  0
SEQEND
  0
POLYLINE
  8
Unknown_Area_Type
  70
1
  66
1
  0
VERTEX
  8
Unknown_Area_Type
  10
221025.000
  20
4630369.500
  0
VERTEX
  8
Unknown_Area_Type
  10
221023.000
  20
4630369.000
  0
VERTEX
  8
Unknown_Area_Type
  10
219575.000
  20
4630069.500
  0
VERTEX
  8
Unknown_Area_Type
  10
219311.500
  20
4626285.500
  0
VERTEX
  8
Unknown_Area_Type
  10
220132.000
  20
4625790.500
  0
VERTEX
  8
Unknown_Area_Type
  10
222099.500
  20
4626110.000
  0
VERTEX
  8
Unknown_Area_Type
  10
222100.500
  20
4626110.500
  0
VERTEX
  8
Unknown_Area_Type
  10
222101.000
  20
4626115.500
  0
VERTEX
  8
Unknown_Area_Type
  10
222210.000
  20
4629953.500
  0
VERTEX
  8
Unknown_Area_Type
  10
221041.500
  20
4630365.000
  0
VERTEX
  8
Unknown_Area_Type
  10
221028.500
  20
4630369.500
  0
VERTEX
  8
Unknown_Area_Type
  10
221025.000
  20
4630369.500
  0
SEQEND
  8
Unknown_Area_Type
  0
INSERT
  8
FeatureAttribs
  2
FEATURE
  41
1
  42
1
  43
1
  50
0
  10
212723.880
  20
4628573.647
 66
1
  0
ATTRIB
  8
FeatureAttribs
 70
0
  1
PNOA-H_AMS_1956-57_33k_ES_PAN_2
  2
NAME
  10
212723.880
  20
4628573.647
 40
34.53493
  0
SEQEND
  0
POLYLINE
  8
Unknown_Area_Type
  70
1
  66
1
  0
VERTEX
  8
Unknown_Area_Type
  10
212671.000
  20
4630903.000
  0
VERTEX
  8
Unknown_Area_Type
  10
212686.000
  20
4630899.000
  0
VERTEX
  8
Unknown_Area_Type
  10
214254.000
  20
4630387.500
  0
VERTEX
  8
Unknown_Area_Type
  10
213879.000
  20
4626590.000
  0
VERTEX
  8
Unknown_Area_Type
  10
212295.500
  20
4626275.000
  0
VERTEX
  8
Unknown_Area_Type
  10
211195.500
  20
4626770.500
  0
VERTEX
  8
Unknown_Area_Type
  10
211611.000
  20
4630598.000
  0
VERTEX
  8
Unknown_Area_Type
  10
212669.000
  20
4630902.500
  0
VERTEX
  8
Unknown_Area_Type
  10
212671.000
  20
4630903.000
  0
SEQEND
  8
Unknown_Area_Type
  0
INSERT
  8
FeatureAttribs
  2
FEATURE
  41
1
  42
1
  43
1
  50
0
  10
212723.880
  20
4628573.647
 66
1
  0
ATTRIB
  8
FeatureAttribs
 70
0
  1
PNOA-H_AMS_1956-57_33k_ES_PAN_2
  2
NAME
  10
212723.880
  20
4628573.647
 40
34.53493
  0
SEQEND
  0
POLYLINE
  8
Unknown_Area_Type
  70
1
  66
1
  0
VERTEX
  8
Unknown_Area_Type
  10
212671.000
  20
4630903.000
  0
VERTEX
  8
Unknown_Area_Type
  10
212669.000
  20
4630902.500
  0
VERTEX
  8
Unknown_Area_Type
  10
211611.000
  20
4630598.000
  0
VERTEX
  8
Unknown_Area_Type
  10
211195.500
  20
4626770.500
  0
VERTEX
  8
Unknown_Area_Type
  10
212295.500
  20
4626275.000
  0
VERTEX
  8
Unknown_Area_Type
  10
213879.000
  20
4626590.000
  0
VERTEX
  8
Unknown_Area_Type
  10
214254.000
  20
4630387.500
  0
VERTEX
  8
Unknown_Area_Type
  10
212686.000
  20
4630899.000
  0
VERTEX
  8
Unknown_Area_Type
  10
212671.000
  20
4630903.000
  0
SEQEND
  8
Unknown_Area_Type
  0
INSERT
  8
FeatureAttribs
  2
FEATURE
  41
1
  42
1
  43
1
  50
0
  10
215402.709
  20
4628390.133
 66
1
  0
ATTRIB
  8
FeatureAttribs
 70
0
  1
PNOA-H_AMS_1956-57_33k_ES_PAN_2
  2
NAME
  10
215402.709
  20
4628390.133
 40
34.53493
  0
SEQEND
  0
POLYLINE
  8
Unknown_Area_Type
  70
1
  66
1
  0
VERTEX
  8
Unknown_Area_Type
  10
214673.000
  20
4630496.500
  0
VERTEX
  8
Unknown_Area_Type
  10
215503.000
  20
4630711.500
  0
VERTEX
  8
Unknown_Area_Type
  10
216932.000
  20
4630241.500
  0
VERTEX
  8
Unknown_Area_Type
  10
216584.000
  20
4626479.000
  0
VERTEX
  8
Unknown_Area_Type
  10
216578.000
  20
4626414.500
  0
VERTEX
  8
Unknown_Area_Type
  10
216577.000
  20
4626413.500
  0
VERTEX
  8
Unknown_Area_Type
  10
214856.500
  20
4626075.000
  0
VERTEX
  8
Unknown_Area_Type
  10
213879.000
  20
4626590.000
  0
VERTEX
  8
Unknown_Area_Type
  10
214254.000
  20
4630387.500
  0
VERTEX
  8
Unknown_Area_Type
  10
214671.000
  20
4630496.000
  0
VERTEX
  8
Unknown_Area_Type
  10
214673.000
  20
4630496.500
  0
SEQEND
  8
Unknown_Area_Type
  0
INSERT
  8
FeatureAttribs
  2
FEATURE
  41
1
  42
1
  43
1
  50
0
  10
215402.709
  20
4628390.133
 66
1
  0
ATTRIB
  8
FeatureAttribs
 70
0
  1
PNOA-H_AMS_1956-57_33k_ES_PAN_2
  2
NAME
  10
215402.709
  20
4628390.133
 40
34.53493
  0
SEQEND
  0
POLYLINE
  8
Unknown_Area_Type
  70
1
  66
1
  0
VERTEX
  8
Unknown_Area_Type
  10
214673.000
  20
4630496.500
  0
VERTEX
  8
Unknown_Area_Type
  10
214671.000
  20
4630496.000
  0
VERTEX
  8
Unknown_Area_Type
  10
214254.000
  20
4630387.500
  0
VERTEX
  8
Unknown_Area_Type
  10
213879.000
  20
4626590.000
  0
VERTEX
  8
Unknown_Area_Type
  10
214856.500
  20
4626075.000
  0
VERTEX
  8
Unknown_Area_Type
  10
216577.000
  20
4626413.500
  0
VERTEX
  8
Unknown_Area_Type
  10
216578.000
  20
4626414.500
  0
VERTEX
  8
Unknown_Area_Type
  10
216584.000
  20
4626479.000
  0
VERTEX
  8
Unknown_Area_Type
  10
216932.000
  20
4630241.500
  0
VERTEX
  8
Unknown_Area_Type
  10
215503.000
  20
4630711.500
  0
VERTEX
  8
Unknown_Area_Type
  10
214673.000
  20
4630496.500
  0
SEQEND
  8
Unknown_Area_Type
  0
INSERT
  8
FeatureAttribs
  2
FEATURE
  41
1
  42
1
  43
1
  50
0
  10
218085.804
  20
4628222.246
 66
1
  0
ATTRIB
  8
FeatureAttribs
 70
0
  1
PNOA-H_AMS_1956-57_33k_ES_PAN_2
  2
NAME
  10
218085.804
  20
4628222.246
 40
34.53493
  0
SEQEND
  0
POLYLINE
  8
Unknown_Area_Type
  70
1
  66
1
  0
VERTEX
  8
Unknown_Area_Type
  10
216721.500
  20
4627969.000
  0
VERTEX
  8
Unknown_Area_Type
  10
216932.000
  20
4630241.500
  0
VERTEX
  8
Unknown_Area_Type
  10
218251.000
  20
4630532.500
  0
VERTEX
  8
Unknown_Area_Type
  10
219575.000
  20
4630069.500
  0
VERTEX
  8
Unknown_Area_Type
  10
219311.500
  20
4626285.500
  0
VERTEX
  8
Unknown_Area_Type
  10
217478.000
  20
4625923.500
  0
VERTEX
  8
Unknown_Area_Type
  10
216578.000
  20
4626413.500
  0
VERTEX
  8
Unknown_Area_Type
  10
216721.500
  20
4627964.000
  0
VERTEX
  8
Unknown_Area_Type
  10
216721.500
  20
4627969.000
  0
SEQEND
  8
Unknown_Area_Type
  0
INSERT
  8
FeatureAttribs
  2
FEATURE
  41
1
  42
1
  43
1
  50
0
  10
218085.804
  20
4628222.246
 66
1
  0
ATTRIB
  8
FeatureAttribs
 70
0
  1
PNOA-H_AMS_1956-57_33k_ES_PAN_2
  2
NAME
  10
218085.804
  20
4628222.246
 40
34.53493
  0
SEQEND
  0
POLYLINE
  8
Unknown_Area_Type
  70
1
  66
1
  0
VERTEX
  8
Unknown_Area_Type
  10
216721.500
  20
4627969.000
  0
VERTEX
  8
Unknown_Area_Type
  10
216721.500
  20
4627964.000
  0
VERTEX
  8
Unknown_Area_Type
  10
216578.000
  20
4626413.500
  0
VERTEX
  8
Unknown_Area_Type
  10
217478.000
  20
4625923.500
  0
VERTEX
  8
Unknown_Area_Type
  10
219311.500
  20
4626285.500
  0
VERTEX
  8
Unknown_Area_Type
  10
219575.000
  20
4630069.500
  0
VERTEX
  8
Unknown_Area_Type
  10
218251.000
  20
4630532.500
  0
VERTEX
  8
Unknown_Area_Type
  10
216932.000
  20
4630241.500
  0
VERTEX
  8
Unknown_Area_Type
  10
216721.500
  20
4627969.000
  0
SEQEND
  8
Unknown_Area_Type
  0
INSERT
  8
FeatureAttribs
  2
FEATURE
  41
1
  42
1
  43
1
  50
0
  10
226190.188
  20
4627903.874
 66
1
  0
ATTRIB
  8
FeatureAttribs
 70
0
  1
PNOA-H_AMS_1956-57_33k_ES_PAN_2
  2
NAME
  10
226190.188
  20
4627903.874
 40
34.53493
  0
SEQEND
  0
POLYLINE
  8
Unknown_Area_Type
  70
1
  66
1
  0
VERTEX
  8
Unknown_Area_Type
  10
224913.500
  20
4629890.000
  0
VERTEX
  8
Unknown_Area_Type
  10
226503.500
  20
4630199.500
  0
VERTEX
  8
Unknown_Area_Type
  10
227582.500
  20
4629808.500
  0
VERTEX
  8
Unknown_Area_Type
  10
227487.000
  20
4625871.500
  0
VERTEX
  8
Unknown_Area_Type
  10
225423.500
  20
4625631.000
  0
VERTEX
  8
Unknown_Area_Type
  10
224831.000
  20
4625996.000
  0
VERTEX
  8
Unknown_Area_Type
  10
224870.500
  20
4629866.000
  0
VERTEX
  8
Unknown_Area_Type
  10
224871.000
  20
4629881.500
  0
VERTEX
  8
Unknown_Area_Type
  10
224911.000
  20
4629889.500
  0
VERTEX
  8
Unknown_Area_Type
  10
224913.500
  20
4629890.000
  0
SEQEND
  8
Unknown_Area_Type
  0
INSERT
  8
FeatureAttribs
  2
FEATURE
  41
1
  42
1
  43
1
  50
0
  10
226190.188
  20
4627903.874
 66
1
  0
ATTRIB
  8
FeatureAttribs
 70
0
  1
PNOA-H_AMS_1956-57_33k_ES_PAN_2
  2
NAME
  10
226190.188
  20
4627903.874
 40
34.53493
  0
SEQEND
  0
POLYLINE
  8
Unknown_Area_Type
  70
1
  66
1
  0
VERTEX
  8
Unknown_Area_Type
  10
224913.500
  20
4629890.000
  0
VERTEX
  8
Unknown_Area_Type
  10
224911.000
  20
4629889.500
  0
VERTEX
  8
Unknown_Area_Type
  10
224871.000
  20
4629881.500
  0
VERTEX
  8
Unknown_Area_Type
  10
224870.500
  20
4629866.000
  0
VERTEX
  8
Unknown_Area_Type
  10
224831.000
  20
4625996.000
  0
VERTEX
  8
Unknown_Area_Type
  10
225423.500
  20
4625631.000
  0
VERTEX
  8
Unknown_Area_Type
  10
227487.000
  20
4625871.500
  0
VERTEX
  8
Unknown_Area_Type
  10
227582.500
  20
4629808.500
  0
VERTEX
  8
Unknown_Area_Type
  10
226503.500
  20
4630199.500
  0
VERTEX
  8
Unknown_Area_Type
  10
224913.500
  20
4629890.000
  0
SEQEND
  8
Unknown_Area_Type
  0
INSERT
  8
FeatureAttribs
  2
FEATURE
  41
1
  42
1
  43
1
  50
0
  10
235157.807
  20
4627669.272
 66
1
  0
ATTRIB
  8
FeatureAttribs
 70
0
  1
PNOA-H_AMS_1956-57_33k_ES_PAN_2
  2
NAME
  10
235157.807
  20
4627669.272
 40
34.53493
  0
SEQEND
  0
POLYLINE
  8
Unknown_Area_Type
  70
1
  66
1
  0
VERTEX
  8
Unknown_Area_Type
  10
235315.851
  20
4629799.123
  0
VERTEX
  8
Unknown_Area_Type
  10
235315.851
  20
4625453.335
  0
VERTEX
  8
Unknown_Area_Type
  10
234918.112
  20
4625467.296
  0
VERTEX
  8
Unknown_Area_Type
  10
234972.388
  20
4626931.231
  0
VERTEX
  8
Unknown_Area_Type
  10
235058.194
  20
4629244.644
  0
VERTEX
  8
Unknown_Area_Type
  10
235081.962
  20
4629885.208
  0
VERTEX
  8
Unknown_Area_Type
  10
235153.000
  20
4629859.000
  0
VERTEX
  8
Unknown_Area_Type
  10
235154.000
  20
4629858.500
  0
VERTEX
  8
Unknown_Area_Type
  10
235315.851
  20
4629799.123
  0
SEQEND
  8
Unknown_Area_Type
  0
INSERT
  8
FeatureAttribs
  2
FEATURE
  41
1
  42
1
  43
1
  50
0
  10
234055.832
  20
4627687.326
 66
1
  0
ATTRIB
  8
FeatureAttribs
 70
0
  1
PNOA-H_AMS_1956-57_33k_ES_PAN_2
  2
NAME
  10
234055.832
  20
4627687.326
 40
34.53493
  0
SEQEND
  0
POLYLINE
  8
Unknown_Area_Type
  70
1
  66
1
  0
VERTEX
  8
Unknown_Area_Type
  10
234918.112
  20
4625467.296
  0
VERTEX
  8
Unknown_Area_Type
  10
233089.000
  20
4625531.500
  0
VERTEX
  8
Unknown_Area_Type
  10
233024.000
  20
4625578.000
  0
VERTEX
  8
Unknown_Area_Type
  10
233023.500
  20
4625583.000
  0
VERTEX
  8
Unknown_Area_Type
  10
233134.500
  20
4629656.500
  0
VERTEX
  8
Unknown_Area_Type
  10
234736.000
  20
4630011.500
  0
VERTEX
  8
Unknown_Area_Type
  10
234741.000
  20
4630011.000
  0
VERTEX
  8
Unknown_Area_Type
  10
235081.962
  20
4629885.208
  0
VERTEX
  8
Unknown_Area_Type
  10
235058.194
  20
4629244.644
  0
VERTEX
  8
Unknown_Area_Type
  10
234972.388
  20
4626931.231
  0
VERTEX
  8
Unknown_Area_Type
  10
234918.112
  20
4625467.296
  0
SEQEND
  8
Unknown_Area_Type
  0
INSERT
  8
FeatureAttribs
  2
FEATURE
  41
1
  42
1
  43
1
  50
0
  10
234055.832
  20
4627687.326
 66
1
  0
ATTRIB
  8
FeatureAttribs
 70
0
  1
PNOA-H_AMS_1956-57_33k_ES_PAN_2
  2
NAME
  10
234055.832
  20
4627687.326
 40
34.53493
  0
SEQEND
  0
POLYLINE
  8
Unknown_Area_Type
  70
1
  66
1
  0
VERTEX
  8
Unknown_Area_Type
  10
234918.112
  20
4625467.296
  0
VERTEX
  8
Unknown_Area_Type
  10
234972.388
  20
4626931.231
  0
VERTEX
  8
Unknown_Area_Type
  10
235058.194
  20
4629244.644
  0
VERTEX
  8
Unknown_Area_Type
  10
235081.962
  20
4629885.208
  0
VERTEX
  8
Unknown_Area_Type
  10
234741.000
  20
4630011.000
  0
VERTEX
  8
Unknown_Area_Type
  10
234736.000
  20
4630011.500
  0
VERTEX
  8
Unknown_Area_Type
  10
233134.500
  20
4629656.500
  0
VERTEX
  8
Unknown_Area_Type
  10
233023.500
  20
4625583.000
  0
VERTEX
  8
Unknown_Area_Type
  10
233024.000
  20
4625578.000
  0
VERTEX
  8
Unknown_Area_Type
  10
233089.000
  20
4625531.500
  0
VERTEX
  8
Unknown_Area_Type
  10
234918.112
  20
4625467.296
  0
SEQEND
  8
Unknown_Area_Type
  0
INSERT
  8
FeatureAttribs
  2
FEATURE
  41
1
  42
1
  43
1
  50
0
  10
207266.054
  20
4617991.324
 66
1
  0
ATTRIB
  8
FeatureAttribs
 70
0
  1
PNOA-H_AMS_1956-57_33k_ES_PAN_2
  2
NAME
  10
207266.054
  20
4617991.324
 40
34.53493
  0
SEQEND
  0
POLYLINE
  8
Unknown_Area_Type
  70
1
  66
1
  0
VERTEX
  8
Unknown_Area_Type
  10
206874.424
  20
4617992.647
  0
VERTEX
  8
Unknown_Area_Type
  10
207656.500
  20
4617992.000
  0
VERTEX
  8
Unknown_Area_Type
  10
207660.000
  20
4617990.000
  0
VERTEX
  8
Unknown_Area_Type
  10
206874.424
  20
4617990.000
  0
VERTEX
  8
Unknown_Area_Type
  10
206874.424
  20
4617992.647
  0
SEQEND
  8
Unknown_Area_Type
  0
INSERT
  8
FeatureAttribs
  2
FEATURE
  41
1
  42
1
  43
1
  50
0
  10
206913.223
  20
4620655.058
 66
1
  0
ATTRIB
  8
FeatureAttribs
 70
0
  1
PNOA-H_AMS_1956-57_33k_ES_PAN_2
  2
NAME
  10
206913.223
  20
4620655.058
 40
34.53493
  0
SEQEND
  0
POLYLINE
  8
Unknown_Area_Type
  70
1
  66
1
  0
VERTEX
  8
Unknown_Area_Type
  10
207027.299
  20
4622494.467
  0
VERTEX
  8
Unknown_Area_Type
  10
206969.101
  20
4621072.536
  0
VERTEX
  8
Unknown_Area_Type
  10
206874.452
  20
4618759.054
  0
VERTEX
  8
Unknown_Area_Type
  10
206874.424
  20
4618759.056
  0
VERTEX
  8
Unknown_Area_Type
  10
206874.424
  20
4622551.061
  0
VERTEX
  8
Unknown_Area_Type
  10
207027.299
  20
4622494.467
  0
SEQEND
  8
Unknown_Area_Type
  0
INSERT
  8
FeatureAttribs
  2
FEATURE
  41
1
  42
1
  43
1
  50
0
  10
207342.920
  20
4618374.527
 66
1
  0
ATTRIB
  8
FeatureAttribs
 70
0
  1
PNOA-H_AMS_1956-57_33k_ES_PAN_2
  2
NAME
  10
207342.920
  20
4618374.527
 40
34.53493
  0
SEQEND
  0
POLYLINE
  8
Unknown_Area_Type
  70
1
  66
1
  0
VERTEX
  8
Unknown_Area_Type
  10
207816.742
  20
4618720.740
  0
VERTEX
  8
Unknown_Area_Type
  10
207805.500
  20
4617990.000
  0
VERTEX
  8
Unknown_Area_Type
  10
207660.000
  20
4617990.000
  0
VERTEX
  8
Unknown_Area_Type
  10
207656.500
  20
4617992.000
  0
VERTEX
  8
Unknown_Area_Type
  10
206874.424
  20
4617992.647
  0
VERTEX
  8
Unknown_Area_Type
  10
206874.424
  20
4618758.359
  0
VERTEX
  8
Unknown_Area_Type
  10
206874.452
  20
4618759.054
  0
VERTEX
  8
Unknown_Area_Type
  10
207816.742
  20
4618720.740
  0
SEQEND
  8
Unknown_Area_Type
  0
INSERT
  8
FeatureAttribs
  2
FEATURE
  41
1
  42
1
  43
1
  50
0
  10
207390.216
  20
4620509.718
 66
1
  0
ATTRIB
  8
FeatureAttribs
 70
0
  1
PNOA-H_AMS_1956-57_33k_ES_PAN_2
  2
NAME
  10
207390.216
  20
4620509.718
 40
34.53493
  0
SEQEND
  0
POLYLINE
  8
Unknown_Area_Type
  70
1
  66
1
  0
VERTEX
  8
Unknown_Area_Type
  10
207816.742
  20
4618720.740
  0
VERTEX
  8
Unknown_Area_Type
  10
206874.452
  20
4618759.054
  0
VERTEX
  8
Unknown_Area_Type
  10
206969.101
  20
4621072.536
  0
VERTEX
  8
Unknown_Area_Type
  10
207027.299
  20
4622494.467
  0
VERTEX
  8
Unknown_Area_Type
  10
207870.000
  20
4622182.500
  0
VERTEX
  8
Unknown_Area_Type
  10
207816.742
  20
4618720.740
  0
SEQEND
  8
Unknown_Area_Type
  0
INSERT
  8
FeatureAttribs
  2
FEATURE
  41
1
  42
1
  43
1
  50
0
  10
207390.216
  20
4620509.718
 66
1
  0
ATTRIB
  8
FeatureAttribs
 70
0
  1
PNOA-H_AMS_1956-57_33k_ES_PAN_2
  2
NAME
  10
207390.216
  20
4620509.718
 40
34.53493
  0
SEQEND
  0
POLYLINE
  8
Unknown_Area_Type
  70
1
  66
1
  0
VERTEX
  8
Unknown_Area_Type
  10
207816.742
  20
4618720.740
  0
VERTEX
  8
Unknown_Area_Type
  10
207870.000
  20
4622182.500
  0
VERTEX
  8
Unknown_Area_Type
  10
207027.299
  20
4622494.467
  0
VERTEX
  8
Unknown_Area_Type
  10
206969.101
  20
4621072.536
  0
VERTEX
  8
Unknown_Area_Type
  10
206874.452
  20
4618759.054
  0
VERTEX
  8
Unknown_Area_Type
  10
207816.742
  20
4618720.740
  0
SEQEND
  8
Unknown_Area_Type
  0
INSERT
  8
FeatureAttribs
  2
FEATURE
  41
1
  42
1
  43
1
  50
0
  10
221128.779
  20
4617979.984
 66
1
  0
ATTRIB
  8
FeatureAttribs
 70
0
  1
PNOA-H_AMS_1956-57_33k_ES_PAN_2
  2
NAME
  10
221128.779
  20
4617979.984
 40
34.53493
  0
SEQEND
  0
POLYLINE
  8
Unknown_Area_Type
  70
1
  66
1
  0
VERTEX
  8
Unknown_Area_Type
  10
221539.600
  20
4617677.617
  0
VERTEX
  8
Unknown_Area_Type
  10
220700.000
  20
4617677.617
  0
VERTEX
  8
Unknown_Area_Type
  10
220700.000
  20
4617998.000
  0
VERTEX
  8
Unknown_Area_Type
  10
220698.000
  20
4618000.000
  0
VERTEX
  8
Unknown_Area_Type
  10
220470.000
  20
4618000.000
  0
VERTEX
  8
Unknown_Area_Type
  10
220470.000
  20
4618100.000
  0
VERTEX
  8
Unknown_Area_Type
  10
218761.791
  20
4618100.000
  0
VERTEX
  8
Unknown_Area_Type
  10
218775.997
  20
4618282.350
  0
VERTEX
  8
Unknown_Area_Type
  10
220752.122
  20
4618204.875
  0
VERTEX
  8
Unknown_Area_Type
  10
221569.037
  20
4618173.244
  0
VERTEX
  8
Unknown_Area_Type
  10
221539.600
  20
4617677.617
  0
SEQEND
  8
Unknown_Area_Type
  0
INSERT
  8
FeatureAttribs
  2
FEATURE
  41
1
  42
1
  43
1
  50
0
  10
220281.232
  20
4619994.946
 66
1
  0
ATTRIB
  8
FeatureAttribs
 70
0
  1
PNOA-H_AMS_1956-57_33k_ES_PAN_2
  2
NAME
  10
220281.232
  20
4619994.946
 40
34.53493
  0
SEQEND
  0
POLYLINE
  8
Unknown_Area_Type
  70
1
  66
1
  0
VERTEX
  8
Unknown_Area_Type
  10
221569.037
  20
4618173.244
  0
VERTEX
  8
Unknown_Area_Type
  10
220752.122
  20
4618204.875
  0
VERTEX
  8
Unknown_Area_Type
  10
218775.997
  20
4618282.350
  0
VERTEX
  8
Unknown_Area_Type
  10
219043.000
  20
4621709.500
  0
VERTEX
  8
Unknown_Area_Type
  10
219931.000
  20
4621963.500
  0
VERTEX
  8
Unknown_Area_Type
  10
219935.000
  20
4621963.500
  0
VERTEX
  8
Unknown_Area_Type
  10
221767.500
  20
4621520.500
  0
VERTEX
  8
Unknown_Area_Type
  10
221649.500
  20
4619534.500
  0
VERTEX
  8
Unknown_Area_Type
  10
221649.500
  20
4619528.000
  0
VERTEX
  8
Unknown_Area_Type
  10
221569.037
  20
4618173.244
  0
SEQEND
  8
Unknown_Area_Type
  0
INSERT
  8
FeatureAttribs
  2
FEATURE
  41
1
  42
1
  43
1
  50
0
  10
220281.232
  20
4619994.946
 66
1
  0
ATTRIB
  8
FeatureAttribs
 70
0
  1
PNOA-H_AMS_1956-57_33k_ES_PAN_2
  2
NAME
  10
220281.232
  20
4619994.946
 40
34.53493
  0
SEQEND
  0
POLYLINE
  8
Unknown_Area_Type
  70
1
  66
1
  0
VERTEX
  8
Unknown_Area_Type
  10
221569.037
  20
4618173.244
  0
VERTEX
  8
Unknown_Area_Type
  10
221649.500
  20
4619528.000
  0
VERTEX
  8
Unknown_Area_Type
  10
221649.500
  20
4619534.500
  0
VERTEX
  8
Unknown_Area_Type
  10
221767.500
  20
4621520.500
  0
VERTEX
  8
Unknown_Area_Type
  10
219935.000
  20
4621963.500
  0
VERTEX
  8
Unknown_Area_Type
  10
219931.000
  20
4621963.500
  0
VERTEX
  8
Unknown_Area_Type
  10
219043.000
  20
4621709.500
  0
VERTEX
  8
Unknown_Area_Type
  10
218775.997
  20
4618282.350
  0
VERTEX
  8
Unknown_Area_Type
  10
220752.122
  20
4618204.875
  0
VERTEX
  8
Unknown_Area_Type
  10
221569.037
  20
4618173.244
  0
SEQEND
  8
Unknown_Area_Type
  0
INSERT
  8
FeatureAttribs
  2
FEATURE
  41
1
  42
1
  43
1
  50
0
  10
214666.152
  20
4618244.809
 66
1
  0
ATTRIB
  8
FeatureAttribs
 70
0
  1
PNOA-H_AMS_1956-57_33k_ES_PAN_2
  2
NAME
  10
214666.152
  20
4618244.809
 40
34.53493
  0
SEQEND
  0
POLYLINE
  8
Unknown_Area_Type
  70
1
  66
1
  0
VERTEX
  8
Unknown_Area_Type
  10
216066.432
  20
4618389.170
  0
VERTEX
  8
Unknown_Area_Type
  10
216046.049
  20
4618100.000
  0
VERTEX
  8
Unknown_Area_Type
  10
213920.000
  20
4618100.000
  0
VERTEX
  8
Unknown_Area_Type
  10
213920.000
  20
4617990.000
  0
VERTEX
  8
Unknown_Area_Type
  10
213262.000
  20
4617990.000
  0
VERTEX
  8
Unknown_Area_Type
  10
213290.096
  20
4618499.618
  0
VERTEX
  8
Unknown_Area_Type
  10
213813.322
  20
4618478.597
  0
VERTEX
  8
Unknown_Area_Type
  10
216066.432
  20
4618389.170
  0
SEQEND
  8
Unknown_Area_Type
  0
INSERT
  8
FeatureAttribs
  2
FEATURE
  41
1
  42
1
  43
1
  50
0
  10
214788.203
  20
4620261.594
 66
1
  0
ATTRIB
  8
FeatureAttribs
 70
0
  1
PNOA-H_AMS_1956-57_33k_ES_PAN_2
  2
NAME
  10
214788.203
  20
4620261.594
 40
34.53493
  0
SEQEND
  0
POLYLINE
  8
Unknown_Area_Type
  70
1
  66
1
  0
VERTEX
  8
Unknown_Area_Type
  10
216066.432
  20
4618389.170
  0
VERTEX
  8
Unknown_Area_Type
  10
213813.322
  20
4618478.597
  0
VERTEX
  8
Unknown_Area_Type
  10
213290.096
  20
4618499.618
  0
VERTEX
  8
Unknown_Area_Type
  10
213479.000
  20
4621926.000
  0
VERTEX
  8
Unknown_Area_Type
  10
213481.500
  20
4621928.000
  0
VERTEX
  8
Unknown_Area_Type
  10
214735.500
  20
4622269.000
  0
VERTEX
  8
Unknown_Area_Type
  10
214737.000
  20
4622269.500
  0
VERTEX
  8
Unknown_Area_Type
  10
216307.000
  20
4621802.000
  0
VERTEX
  8
Unknown_Area_Type
  10
216066.432
  20
4618389.170
  0
SEQEND
  8
Unknown_Area_Type
  0
INSERT
  8
FeatureAttribs
  2
FEATURE
  41
1
  42
1
  43
1
  50
0
  10
214788.203
  20
4620261.594
 66
1
  0
ATTRIB
  8
FeatureAttribs
 70
0
  1
PNOA-H_AMS_1956-57_33k_ES_PAN_2
  2
NAME
  10
214788.203
  20
4620261.594
 40
34.53493
  0
SEQEND
  0
POLYLINE
  8
Unknown_Area_Type
  70
1
  66
1
  0
VERTEX
  8
Unknown_Area_Type
  10
216066.432
  20
4618389.170
  0
VERTEX
  8
Unknown_Area_Type
  10
216307.000
  20
4621802.000
  0
VERTEX
  8
Unknown_Area_Type
  10
214737.000
  20
4622269.500
  0
VERTEX
  8
Unknown_Area_Type
  10
214735.500
  20
4622269.000
  0
VERTEX
  8
Unknown_Area_Type
  10
213481.500
  20
4621928.000
  0
VERTEX
  8
Unknown_Area_Type
  10
213479.000
  20
4621926.000
  0
VERTEX
  8
Unknown_Area_Type
  10
213290.096
  20
4618499.618
  0
VERTEX
  8
Unknown_Area_Type
  10
213813.322
  20
4618478.597
  0
VERTEX
  8
Unknown_Area_Type
  10
216066.432
  20
4618389.170
  0
SEQEND
  8
Unknown_Area_Type
  0
INSERT
  8
FeatureAttribs
  2
FEATURE
  41
1
  42
1
  43
1
  50
0
  10
222968.738
  20
4617925.432
 66
1
  0
ATTRIB
  8
FeatureAttribs
 70
0
  1
PNOA-H_AMS_1956-57_33k_ES_PAN_2
  2
NAME
  10
222968.738
  20
4617925.432
 40
34.53493
  0
SEQEND
  0
POLYLINE
  8
Unknown_Area_Type
  70
1
  66
1
  0
VERTEX
  8
Unknown_Area_Type
  10
224368.501
  20
4617677.617
  0
VERTEX
  8
Unknown_Area_Type
  10
221539.595
  20
4617677.617
  0
VERTEX
  8
Unknown_Area_Type
  10
221568.989
  20
4618173.246
  0
VERTEX
  8
Unknown_Area_Type
  10
224221.496
  20
4618070.541
  0
VERTEX
  8
Unknown_Area_Type
  10
224391.397
  20
4618064.044
  0
VERTEX
  8
Unknown_Area_Type
  10
224368.501
  20
4617677.617
  0
SEQEND
  8
Unknown_Area_Type
  0
INSERT
  8
FeatureAttribs
  2
FEATURE
  41
1
  42
1
  43
1
  50
0
  10
223075.354
  20
4619871.950
 66
1
  0
ATTRIB
  8
FeatureAttribs
 70
0
  1
PNOA-H_AMS_1956-57_33k_ES_PAN_2
  2
NAME
  10
223075.354
  20
4619871.950
 40
34.53493
  0
SEQEND
  0
POLYLINE
  8
Unknown_Area_Type
  70
1
  66
1
  0
VERTEX
  8
Unknown_Area_Type
  10
224391.397
  20
4618064.044
  0
VERTEX
  8
Unknown_Area_Type
  10
224221.496
  20
4618070.541
  0
VERTEX
  8
Unknown_Area_Type
  10
221568.989
  20
4618173.246
  0
VERTEX
  8
Unknown_Area_Type
  10
221767.500
  20
4621520.500
  0
VERTEX
  8
Unknown_Area_Type
  10
222578.500
  20
4621799.500
  0
VERTEX
  8
Unknown_Area_Type
  10
224590.000
  20
4621416.000
  0
VERTEX
  8
Unknown_Area_Type
  10
224391.397
  20
4618064.044
  0
SEQEND
  8
Unknown_Area_Type
  0
INSERT
  8
FeatureAttribs
  2
FEATURE
  41
1
  42
1
  43
1
  50
0
  10
223075.354
  20
4619871.950
 66
1
  0
ATTRIB
  8
FeatureAttribs
 70
0
  1
PNOA-H_AMS_1956-57_33k_ES_PAN_2
  2
NAME
  10
223075.354
  20
4619871.950
 40
34.53493
  0
SEQEND
  0
POLYLINE
  8
Unknown_Area_Type
  70
1
  66
1
  0
VERTEX
  8
Unknown_Area_Type
  10
224391.397
  20
4618064.044
  0
VERTEX
  8
Unknown_Area_Type
  10
224590.000
  20
4621416.000
  0
VERTEX
  8
Unknown_Area_Type
  10
222578.500
  20
4621799.500
  0
VERTEX
  8
Unknown_Area_Type
  10
221767.500
  20
4621520.500
  0
VERTEX
  8
Unknown_Area_Type
  10
221568.989
  20
4618173.246
  0
VERTEX
  8
Unknown_Area_Type
  10
224221.496
  20
4618070.541
  0
VERTEX
  8
Unknown_Area_Type
  10
224391.397
  20
4618064.044
  0
SEQEND
  8
Unknown_Area_Type
  0
INSERT
  8
FeatureAttribs
  2
FEATURE
  41
1
  42
1
  43
1
  50
0
  10
228494.729
  20
4617818.815
 66
1
  0
ATTRIB
  8
FeatureAttribs
 70
0
  1
PNOA-H_AMS_1956-57_33k_ES_PAN_2
  2
NAME
  10
228494.729
  20
4617818.815
 40
34.53493
  0
SEQEND
  0
POLYLINE
  8
Unknown_Area_Type
  70
1
  66
1
  0
VERTEX
  8
Unknown_Area_Type
  10
229872.159
  20
4617677.617
  0
VERTEX
  8
Unknown_Area_Type
  10
227093.189
  20
4617677.617
  0
VERTEX
  8
Unknown_Area_Type
  10
227112.248
  20
4617960.012
  0
VERTEX
  8
Unknown_Area_Type
  10
227690.852
  20
4617937.889
  0
VERTEX
  8
Unknown_Area_Type
  10
229890.461
  20
4617854.854
  0
VERTEX
  8
Unknown_Area_Type
  10
229872.159
  20
4617677.617
  0
SEQEND
  8
Unknown_Area_Type
  0
INSERT
  8
FeatureAttribs
  2
FEATURE
  41
1
  42
1
  43
1
  50
0
  10
228630.233
  20
4619601.965
 66
1
  0
ATTRIB
  8
FeatureAttribs
 70
0
  1
PNOA-H_AMS_1956-57_33k_ES_PAN_2
  2
NAME
  10
228630.233
  20
4619601.965
 40
34.53493
  0
SEQEND
  0
POLYLINE
  8
Unknown_Area_Type
  70
1
  66
1
  0
VERTEX
  8
Unknown_Area_Type
  10
229890.461
  20
4617854.854
  0
VERTEX
  8
Unknown_Area_Type
  10
227690.852
  20
4617937.889
  0
VERTEX
  8
Unknown_Area_Type
  10
227112.248
  20
4617960.012
  0
VERTEX
  8
Unknown_Area_Type
  10
227335.500
  20
4621268.000
  0
VERTEX
  8
Unknown_Area_Type
  10
227774.500
  20
4621433.000
  0
VERTEX
  8
Unknown_Area_Type
  10
229007.000
  20
4621255.000
  0
VERTEX
  8
Unknown_Area_Type
  10
229010.000
  20
4621255.000
  0
VERTEX
  8
Unknown_Area_Type
  10
230223.500
  20
4621080.000
  0
VERTEX
  8
Unknown_Area_Type
  10
229890.461
  20
4617854.854
  0
SEQEND
  8
Unknown_Area_Type
  0
INSERT
  8
FeatureAttribs
  2
FEATURE
  41
1
  42
1
  43
1
  50
0
  10
228630.233
  20
4619601.965
 66
1
  0
ATTRIB
  8
FeatureAttribs
 70
0
  1
PNOA-H_AMS_1956-57_33k_ES_PAN_2
  2
NAME
  10
228630.233
  20
4619601.965
 40
34.53493
  0
SEQEND
  0
POLYLINE
  8
Unknown_Area_Type
  70
1
  66
1
  0
VERTEX
  8
Unknown_Area_Type
  10
229890.461
  20
4617854.854
  0
VERTEX
  8
Unknown_Area_Type
  10
230223.500
  20
4621080.000
  0
VERTEX
  8
Unknown_Area_Type
  10
229010.000
  20
4621255.000
  0
VERTEX
  8
Unknown_Area_Type
  10
229007.000
  20
4621255.000
  0
VERTEX
  8
Unknown_Area_Type
  10
227774.500
  20
4621433.000
  0
VERTEX
  8
Unknown_Area_Type
  10
227335.500
  20
4621268.000
  0
VERTEX
  8
Unknown_Area_Type
  10
227112.248
  20
4617960.012
  0
VERTEX
  8
Unknown_Area_Type
  10
227690.852
  20
4617937.889
  0
VERTEX
  8
Unknown_Area_Type
  10
229890.461
  20
4617854.854
  0
SEQEND
  8
Unknown_Area_Type
  0
INSERT
  8
FeatureAttribs
  2
FEATURE
  41
1
  42
1
  43
1
  50
0
  10
231066.649
  20
4617766.235
 66
1
  0
ATTRIB
  8
FeatureAttribs
 70
0
  1
PNOA-H_AMS_1956-57_33k_ES_PAN_2
  2
NAME
  10
231066.649
  20
4617766.235
 40
34.53493
  0
SEQEND
  0
POLYLINE
  8
Unknown_Area_Type
  70
1
  66
1
  0
VERTEX
  8
Unknown_Area_Type
  10
232748.605
  20
4617747.729
  0
VERTEX
  8
Unknown_Area_Type
  10
232743.659
  20
4617677.617
  0
VERTEX
  8
Unknown_Area_Type
  10
229872.159
  20
4617677.617
  0
VERTEX
  8
Unknown_Area_Type
  10
229890.461
  20
4617854.854
  0
VERTEX
  8
Unknown_Area_Type
  10
231160.192
  20
4617806.921
  0
VERTEX
  8
Unknown_Area_Type
  10
232748.605
  20
4617747.729
  0
SEQEND
  8
Unknown_Area_Type
  0
INSERT
  8
FeatureAttribs
  2
FEATURE
  41
1
  42
1
  43
1
  50
0
  10
231455.610
  20
4619427.303
 66
1
  0
ATTRIB
  8
FeatureAttribs
 70
0
  1
PNOA-H_AMS_1956-57_33k_ES_PAN_2
  2
NAME
  10
231455.610
  20
4619427.303
 40
34.53493
  0
SEQEND
  0
POLYLINE
  8
Unknown_Area_Type
  70
1
  66
1
  0
VERTEX
  8
Unknown_Area_Type
  10
232748.605
  20
4617747.729
  0
VERTEX
  8
Unknown_Area_Type
  10
231160.192
  20
4617806.921
  0
VERTEX
  8
Unknown_Area_Type
  10
229890.461
  20
4617854.854
  0
VERTEX
  8
Unknown_Area_Type
  10
230223.500
  20
4621080.000
  0
VERTEX
  8
Unknown_Area_Type
  10
230420.000
  20
4621162.000
  0
VERTEX
  8
Unknown_Area_Type
  10
231052.000
  20
4621116.500
  0
VERTEX
  8
Unknown_Area_Type
  10
231058.000
  20
4621116.500
  0
VERTEX
  8
Unknown_Area_Type
  10
232976.500
  20
4620978.000
  0
VERTEX
  8
Unknown_Area_Type
  10
232748.605
  20
4617747.729
  0
SEQEND
  8
Unknown_Area_Type
  0
INSERT
  8
FeatureAttribs
  2
FEATURE
  41
1
  42
1
  43
1
  50
0
  10
231455.610
  20
4619427.303
 66
1
  0
ATTRIB
  8
FeatureAttribs
 70
0
  1
PNOA-H_AMS_1956-57_33k_ES_PAN_2
  2
NAME
  10
231455.610
  20
4619427.303
 40
34.53493
  0
SEQEND
  0
POLYLINE
  8
Unknown_Area_Type
  70
1
  66
1
  0
VERTEX
  8
Unknown_Area_Type
  10
232748.605
  20
4617747.729
  0
VERTEX
  8
Unknown_Area_Type
  10
232976.500
  20
4620978.000
  0
VERTEX
  8
Unknown_Area_Type
  10
231058.000
  20
4621116.500
  0
VERTEX
  8
Unknown_Area_Type
  10
231052.000
  20
4621116.500
  0
VERTEX
  8
Unknown_Area_Type
  10
230420.000
  20
4621162.000
  0
VERTEX
  8
Unknown_Area_Type
  10
230223.500
  20
4621080.000
  0
VERTEX
  8
Unknown_Area_Type
  10
229890.461
  20
4617854.854
  0
VERTEX
  8
Unknown_Area_Type
  10
231160.192
  20
4617806.921
  0
VERTEX
  8
Unknown_Area_Type
  10
232748.605
  20
4617747.729
  0
SEQEND
  8
Unknown_Area_Type
  0
INSERT
  8
FeatureAttribs
  2
FEATURE
  41
1
  42
1
  43
1
  50
0
  10
209156.146
  20
4618199.179
 66
1
  0
ATTRIB
  8
FeatureAttribs
 70
0
  1
PNOA-H_AMS_1956-57_33k_ES_PAN_2
  2
NAME
  10
209156.146
  20
4618199.179
 40
34.53493
  0
SEQEND
  0
POLYLINE
  8
Unknown_Area_Type
  70
1
  66
1
  0
VERTEX
  8
Unknown_Area_Type
  10
210478.493
  20
4617677.617
  0
VERTEX
  8
Unknown_Area_Type
  10
207995.000
  20
4617677.617
  0
VERTEX
  8
Unknown_Area_Type
  10
207995.000
  20
4617988.000
  0
VERTEX
  8
Unknown_Area_Type
  10
207993.000
  20
4617990.000
  0
VERTEX
  8
Unknown_Area_Type
  10
207805.500
  20
4617990.000
  0
VERTEX
  8
Unknown_Area_Type
  10
207816.742
  20
4618720.740
  0
VERTEX
  8
Unknown_Area_Type
  10
210343.896
  20
4618617.983
  0
VERTEX
  8
Unknown_Area_Type
  10
210523.367
  20
4618610.773
  0
VERTEX
  8
Unknown_Area_Type
  10
210478.493
  20
4617677.617
  0
SEQEND
  8
Unknown_Area_Type
  0
INSERT
  8
FeatureAttribs
  2
FEATURE
  41
1
  42
1
  43
1
  50
0
  10
209232.103
  20
4620514.182
 66
1
  0
ATTRIB
  8
FeatureAttribs
 70
0
  1
PNOA-H_AMS_1956-57_33k_ES_PAN_2
  2
NAME
  10
209232.103
  20
4620514.182
 40
34.53493
  0
SEQEND
  0
POLYLINE
  8
Unknown_Area_Type
  70
1
  66
1
  0
VERTEX
  8
Unknown_Area_Type
  10
210523.367
  20
4618610.773
  0
VERTEX
  8
Unknown_Area_Type
  10
210343.896
  20
4618617.983
  0
VERTEX
  8
Unknown_Area_Type
  10
207816.742
  20
4618720.740
  0
VERTEX
  8
Unknown_Area_Type
  10
207870.000
  20
4622182.500
  0
VERTEX
  8
Unknown_Area_Type
  10
208526.000
  20
4622326.000
  0
VERTEX
  8
Unknown_Area_Type
  10
208528.000
  20
4622326.500
  0
VERTEX
  8
Unknown_Area_Type
  10
209478.000
  20
4622533.500
  0
VERTEX
  8
Unknown_Area_Type
  10
210689.500
  20
4622065.500
  0
VERTEX
  8
Unknown_Area_Type
  10
210523.367
  20
4618610.773
  0
SEQEND
  8
Unknown_Area_Type
  0
INSERT
  8
FeatureAttribs
  2
FEATURE
  41
1
  42
1
  43
1
  50
0
  10
209232.103
  20
4620514.182
 66
1
  0
ATTRIB
  8
FeatureAttribs
 70
0
  1
PNOA-H_AMS_1956-57_33k_ES_PAN_2
  2
NAME
  10
209232.103
  20
4620514.182
 40
34.53493
  0
SEQEND
  0
POLYLINE
  8
Unknown_Area_Type
  70
1
  66
1
  0
VERTEX
  8
Unknown_Area_Type
  10
210523.367
  20
4618610.773
  0
VERTEX
  8
Unknown_Area_Type
  10
210689.500
  20
4622065.500
  0
VERTEX
  8
Unknown_Area_Type
  10
209478.000
  20
4622533.500
  0
VERTEX
  8
Unknown_Area_Type
  10
208528.000
  20
4622326.500
  0
VERTEX
  8
Unknown_Area_Type
  10
208526.000
  20
4622326.000
  0
VERTEX
  8
Unknown_Area_Type
  10
207870.000
  20
4622182.500
  0
VERTEX
  8
Unknown_Area_Type
  10
207816.742
  20
4618720.740
  0
VERTEX
  8
Unknown_Area_Type
  10
210343.896
  20
4618617.983
  0
VERTEX
  8
Unknown_Area_Type
  10
210523.367
  20
4618610.773
  0
SEQEND
  8
Unknown_Area_Type
  0
INSERT
  8
FeatureAttribs
  2
FEATURE
  41
1
  42
1
  43
1
  50
0
  10
207248.348
  20
4633473.313
 66
1
  0
ATTRIB
  8
FeatureAttribs
 70
0
  1
PNOA-H_AMS_1956-57_33k_ES_PAN_2
  2
NAME
  10
207248.348
  20
4633473.313
 40
34.53493
  0
SEQEND
  0
POLYLINE
  8
Unknown_Area_Type
  70
1
  66
1
  0
VERTEX
  8
Unknown_Area_Type
  10
207571.298
  20
4635769.706
  0
VERTEX
  8
Unknown_Area_Type
  10
207537.812
  20
4634953.535
  0
VERTEX
  8
Unknown_Area_Type
  10
207442.930
  20
4632640.022
  0
VERTEX
  8
Unknown_Area_Type
  10
207382.949
  20
4631176.919
  0
VERTEX
  8
Unknown_Area_Type
  10
206932.500
  20
4631308.000
  0
VERTEX
  8
Unknown_Area_Type
  10
207110.500
  20
4635733.500
  0
VERTEX
  8
Unknown_Area_Type
  10
207571.298
  20
4635769.706
  0
SEQEND
  8
Unknown_Area_Type
  0
INSERT
  8
FeatureAttribs
  2
FEATURE
  41
1
  42
1
  43
1
  50
0
  10
208688.519
  20
4633376.242
 66
1
  0
ATTRIB
  8
FeatureAttribs
 70
0
  1
PNOA-H_AMS_1956-57_33k_ES_PAN_2
  2
NAME
  10
208688.519
  20
4633376.242
 40
34.53493
  0
SEQEND
  0
POLYLINE
  8
Unknown_Area_Type
  70
1
  66
1
  0
VERTEX
  8
Unknown_Area_Type
  10
207571.298
  20
4635769.706
  0
VERTEX
  8
Unknown_Area_Type
  10
209185.000
  20
4635896.500
  0
VERTEX
  8
Unknown_Area_Type
  10
209191.000
  20
4635897.000
  0
VERTEX
  8
Unknown_Area_Type
  10
209993.000
  20
4635556.500
  0
VERTEX
  8
Unknown_Area_Type
  10
209810.500
  20
4631122.500
  0
VERTEX
  8
Unknown_Area_Type
  10
208827.500
  20
4630757.500
  0
VERTEX
  8
Unknown_Area_Type
  10
208810.500
  20
4630761.500
  0
VERTEX
  8
Unknown_Area_Type
  10
207382.949
  20
4631176.919
  0
VERTEX
  8
Unknown_Area_Type
  10
207442.930
  20
4632640.022
  0
VERTEX
  8
Unknown_Area_Type
  10
207537.812
  20
4634953.535
  0
VERTEX
  8
Unknown_Area_Type
  10
207571.298
  20
4635769.706
  0
SEQEND
  8
Unknown_Area_Type
  0
INSERT
  8
FeatureAttribs
  2
FEATURE
  41
1
  42
1
  43
1
  50
0
  10
208688.519
  20
4633376.242
 66
1
  0
ATTRIB
  8
FeatureAttribs
 70
0
  1
PNOA-H_AMS_1956-57_33k_ES_PAN_2
  2
NAME
  10
208688.519
  20
4633376.242
 40
34.53493
  0
SEQEND
  0
POLYLINE
  8
Unknown_Area_Type
  70
1
  66
1
  0
VERTEX
  8
Unknown_Area_Type
  10
207571.298
  20
4635769.706
  0
VERTEX
  8
Unknown_Area_Type
  10
207537.812
  20
4634953.535
  0
VERTEX
  8
Unknown_Area_Type
  10
207442.930
  20
4632640.022
  0
VERTEX
  8
Unknown_Area_Type
  10
207382.949
  20
4631176.919
  0
VERTEX
  8
Unknown_Area_Type
  10
208810.500
  20
4630761.500
  0
VERTEX
  8
Unknown_Area_Type
  10
208827.500
  20
4630757.500
  0
VERTEX
  8
Unknown_Area_Type
  10
209810.500
  20
4631122.500
  0
VERTEX
  8
Unknown_Area_Type
  10
209993.000
  20
4635556.500
  0
VERTEX
  8
Unknown_Area_Type
  10
209191.000
  20
4635897.000
  0
VERTEX
  8
Unknown_Area_Type
  10
209185.000
  20
4635896.500
  0
VERTEX
  8
Unknown_Area_Type
  10
207571.298
  20
4635769.706
  0
SEQEND
  8
Unknown_Area_Type
  0
INSERT
  8
FeatureAttribs
  2
FEATURE
  41
1
  42
1
  43
1
  50
0
  10
217414.634
  20
4618244.586
 66
1
  0
ATTRIB
  8
FeatureAttribs
 70
0
  1
PNOA-H_AMS_1956-57_33k_ES_PAN_2
  2
NAME
  10
217414.634
  20
4618244.586
 40
34.53493
  0
SEQEND
  0
POLYLINE
  8
Unknown_Area_Type
  70
1
  66
1
  0
VERTEX
  8
Unknown_Area_Type
  10
218775.997
  20
4618282.350
  0
VERTEX
  8
Unknown_Area_Type
  10
218761.791
  20
4618100.000
  0
VERTEX
  8
Unknown_Area_Type
  10
216046.038
  20
4618100.000
  0
VERTEX
  8
Unknown_Area_Type
  10
216066.388
  20
4618389.171
  0
VERTEX
  8
Unknown_Area_Type
  10
217282.731
  20
4618340.894
  0
VERTEX
  8
Unknown_Area_Type
  10
218775.997
  20
4618282.350
  0
SEQEND
  8
Unknown_Area_Type
  0
INSERT
  8
FeatureAttribs
  2
FEATURE
  41
1
  42
1
  43
1
  50
0
  10
217550.893
  20
4620139.008
 66
1
  0
ATTRIB
  8
FeatureAttribs
 70
0
  1
PNOA-H_AMS_1956-57_33k_ES_PAN_2
  2
NAME
  10
217550.893
  20
4620139.008
 40
34.53493
  0
SEQEND
  0
POLYLINE
  8
Unknown_Area_Type
  70
1
  66
1
  0
VERTEX
  8
Unknown_Area_Type
  10
218775.997
  20
4618282.350
  0
VERTEX
  8
Unknown_Area_Type
  10
217282.731
  20
4618340.894
  0
VERTEX
  8
Unknown_Area_Type
  10
216066.388
  20
4618389.171
  0
VERTEX
  8
Unknown_Area_Type
  10
216306.500
  20
4621801.000
  0
VERTEX
  8
Unknown_Area_Type
  10
216307.000
  20
4621802.000
  0
VERTEX
  8
Unknown_Area_Type
  10
216318.500
  20
4621805.500
  0
VERTEX
  8
Unknown_Area_Type
  10
216720.000
  20
4621922.500
  0
VERTEX
  8
Unknown_Area_Type
  10
216721.500
  20
4621923.000
  0
VERTEX
  8
Unknown_Area_Type
  10
217401.000
  20
4622121.000
  0
VERTEX
  8
Unknown_Area_Type
  10
219043.000
  20
4621709.500
  0
VERTEX
  8
Unknown_Area_Type
  10
218775.997
  20
4618282.350
  0
SEQEND
  8
Unknown_Area_Type
  0
INSERT
  8
FeatureAttribs
  2
FEATURE
  41
1
  42
1
  43
1
  50
0
  10
217550.893
  20
4620139.008
 66
1
  0
ATTRIB
  8
FeatureAttribs
 70
0
  1
PNOA-H_AMS_1956-57_33k_ES_PAN_2
  2
NAME
  10
217550.893
  20
4620139.008
 40
34.53493
  0
SEQEND
  0
POLYLINE
  8
Unknown_Area_Type
  70
1
  66
1
  0
VERTEX
  8
Unknown_Area_Type
  10
218775.997
  20
4618282.350
  0
VERTEX
  8
Unknown_Area_Type
  10
219043.000
  20
4621709.500
  0
VERTEX
  8
Unknown_Area_Type
  10
217401.000
  20
4622121.000
  0
VERTEX
  8
Unknown_Area_Type
  10
216721.500
  20
4621923.000
  0
VERTEX
  8
Unknown_Area_Type
  10
216720.000
  20
4621922.500
  0
VERTEX
  8
Unknown_Area_Type
  10
216318.500
  20
4621805.500
  0
VERTEX
  8
Unknown_Area_Type
  10
216307.000
  20
4621802.000
  0
VERTEX
  8
Unknown_Area_Type
  10
216306.500
  20
4621801.000
  0
VERTEX
  8
Unknown_Area_Type
  10
216066.388
  20
4618389.171
  0
VERTEX
  8
Unknown_Area_Type
  10
217282.731
  20
4618340.894
  0
VERTEX
  8
Unknown_Area_Type
  10
218775.997
  20
4618282.350
  0
SEQEND
  8
Unknown_Area_Type
  0
INSERT
  8
FeatureAttribs
  2
FEATURE
  41
1
  42
1
  43
1
  50
0
  10
211885.962
  20
4618144.194
 66
1
  0
ATTRIB
  8
FeatureAttribs
 70
0
  1
PNOA-H_AMS_1956-57_33k_ES_PAN_2
  2
NAME
  10
211885.962
  20
4618144.194
 40
34.53493
  0
SEQEND
  0
POLYLINE
  8
Unknown_Area_Type
  70
1
  66
1
  0
VERTEX
  8
Unknown_Area_Type
  10
212010.000
  20
4617677.617
  0
VERTEX
  8
Unknown_Area_Type
  10
210478.507
  20
4617677.617
  0
VERTEX
  8
Unknown_Area_Type
  10
210523.396
  20
4618610.772
  0
VERTEX
  8
Unknown_Area_Type
  10
213290.564
  20
4618499.599
  0
VERTEX
  8
Unknown_Area_Type
  10
213262.500
  20
4617990.500
  0
VERTEX
  8
Unknown_Area_Type
  10
212012.000
  20
4617990.000
  0
VERTEX
  8
Unknown_Area_Type
  10
212010.000
  20
4617988.000
  0
VERTEX
  8
Unknown_Area_Type
  10
212010.000
  20
4617677.617
  0
SEQEND
  8
Unknown_Area_Type
  0
INSERT
  8
FeatureAttribs
  2
FEATURE
  41
1
  42
1
  43
1
  50
0
  10
211999.321
  20
4620374.568
 66
1
  0
ATTRIB
  8
FeatureAttribs
 70
0
  1
PNOA-H_AMS_1956-57_33k_ES_PAN_2
  2
NAME
  10
211999.321
  20
4620374.568
 40
34.53493
  0
SEQEND
  0
POLYLINE
  8
Unknown_Area_Type
  70
1
  66
1
  0
VERTEX
  8
Unknown_Area_Type
  10
213290.564
  20
4618499.599
  0
VERTEX
  8
Unknown_Area_Type
  10
210523.396
  20
4618610.772
  0
VERTEX
  8
Unknown_Area_Type
  10
210577.500
  20
4619735.500
  0
VERTEX
  8
Unknown_Area_Type
  10
210577.500
  20
4619745.500
  0
VERTEX
  8
Unknown_Area_Type
  10
210689.000
  20
4622064.000
  0
VERTEX
  8
Unknown_Area_Type
  10
210690.000
  20
4622066.000
  0
VERTEX
  8
Unknown_Area_Type
  10
212122.500
  20
4622372.500
  0
VERTEX
  8
Unknown_Area_Type
  10
213479.500
  20
4621927.000
  0
VERTEX
  8
Unknown_Area_Type
  10
213290.564
  20
4618499.599
  0
SEQEND
  8
Unknown_Area_Type
  0
INSERT
  8
FeatureAttribs
  2
FEATURE
  41
1
  42
1
  43
1
  50
0
  10
211999.321
  20
4620374.568
 66
1
  0
ATTRIB
  8
FeatureAttribs
 70
0
  1
PNOA-H_AMS_1956-57_33k_ES_PAN_2
  2
NAME
  10
211999.321
  20
4620374.568
 40
34.53493
  0
SEQEND
  0
POLYLINE
  8
Unknown_Area_Type
  70
1
  66
1
  0
VERTEX
  8
Unknown_Area_Type
  10
213290.564
  20
4618499.599
  0
VERTEX
  8
Unknown_Area_Type
  10
213479.500
  20
4621927.000
  0
VERTEX
  8
Unknown_Area_Type
  10
212122.500
  20
4622372.500
  0
VERTEX
  8
Unknown_Area_Type
  10
210690.000
  20
4622066.000
  0
VERTEX
  8
Unknown_Area_Type
  10
210689.000
  20
4622064.000
  0
VERTEX
  8
Unknown_Area_Type
  10
210577.500
  20
4619745.500
  0
VERTEX
  8
Unknown_Area_Type
  10
210577.500
  20
4619735.500
  0
VERTEX
  8
Unknown_Area_Type
  10
210523.396
  20
4618610.772
  0
VERTEX
  8
Unknown_Area_Type
  10
213290.564
  20
4618499.599
  0
SEQEND
  8
Unknown_Area_Type
  0
INSERT
  8
FeatureAttribs
  2
FEATURE
  41
1
  42
1
  43
1
  50
0
  10
235002.917
  20
4619310.551
 66
1
  0
ATTRIB
  8
FeatureAttribs
 70
0
  1
PNOA-H_AMS_1956-57_33k_ES_PAN_2
  2
NAME
  10
235002.917
  20
4619310.551
 40
34.53493
  0
SEQEND
  0
POLYLINE
  8
Unknown_Area_Type
  70
1
  66
1
  0
VERTEX
  8
Unknown_Area_Type
  10
235315.851
  20
4620927.237
  0
VERTEX
  8
Unknown_Area_Type
  10
235315.851
  20
4617677.617
  0
VERTEX
  8
Unknown_Area_Type
  10
234630.048
  20
4617677.617
  0
VERTEX
  8
Unknown_Area_Type
  10
234629.516
  20
4617677.637
  0
VERTEX
  8
Unknown_Area_Type
  10
234715.181
  20
4619991.026
  0
VERTEX
  8
Unknown_Area_Type
  10
234750.465
  20
4620943.485
  0
VERTEX
  8
Unknown_Area_Type
  10
235315.851
  20
4620927.237
  0
SEQEND
  8
Unknown_Area_Type
  0
INSERT
  8
FeatureAttribs
  2
FEATURE
  41
1
  42
1
  43
1
  50
0
  10
233217.467
  20
4617712.679
 66
1
  0
ATTRIB
  8
FeatureAttribs
 70
0
  1
PNOA-H_AMS_1956-57_33k_ES_PAN_2
  2
NAME
  10
233217.467
  20
4617712.679
 40
34.53493
  0
SEQEND
  0
POLYLINE
  8
Unknown_Area_Type
  70
1
  66
1
  0
VERTEX
  8
Unknown_Area_Type
  10
232748.257
  20
4617747.742
  0
VERTEX
  8
Unknown_Area_Type
  10
234629.516
  20
4617677.637
  0
VERTEX
  8
Unknown_Area_Type
  10
234629.515
  20
4617677.617
  0
VERTEX
  8
Unknown_Area_Type
  10
232743.310
  20
4617677.617
  0
VERTEX
  8
Unknown_Area_Type
  10
232748.257
  20
4617747.742
  0
SEQEND
  8
Unknown_Area_Type
  0
INSERT
  8
FeatureAttribs
  2
FEATURE
  41
1
  42
1
  43
1
  50
0
  10
234629.649
  20
4617677.627
 66
1
  0
ATTRIB
  8
FeatureAttribs
 70
0
  1
PNOA-H_AMS_1956-57_33k_ES_PAN_2
  2
NAME
  10
234629.649
  20
4617677.627
 40
34.53493
  0
SEQEND
  0
POLYLINE
  8
Unknown_Area_Type
  70
1
  66
1
  0
VERTEX
  8
Unknown_Area_Type
  10
234629.516
  20
4617677.637
  0
VERTEX
  8
Unknown_Area_Type
  10
234630.048
  20
4617677.617
  0
VERTEX
  8
Unknown_Area_Type
  10
234629.515
  20
4617677.617
  0
VERTEX
  8
Unknown_Area_Type
  10
234629.516
  20
4617677.637
  0
SEQEND
  8
Unknown_Area_Type
  0
INSERT
  8
FeatureAttribs
  2
FEATURE
  41
1
  42
1
  43
1
  50
0
  10
233776.284
  20
4619324.543
 66
1
  0
ATTRIB
  8
FeatureAttribs
 70
0
  1
PNOA-H_AMS_1956-57_33k_ES_PAN_2
  2
NAME
  10
233776.284
  20
4619324.543
 40
34.53493
  0
SEQEND
  0
POLYLINE
  8
Unknown_Area_Type
  70
1
  66
1
  0
VERTEX
  8
Unknown_Area_Type
  10
234750.465
  20
4620943.485
  0
VERTEX
  8
Unknown_Area_Type
  10
234715.181
  20
4619991.026
  0
VERTEX
  8
Unknown_Area_Type
  10
234629.516
  20
4617677.637
  0
VERTEX
  8
Unknown_Area_Type
  10
232748.257
  20
4617747.742
  0
VERTEX
  8
Unknown_Area_Type
  10
232976.000
  20
4620975.500
  0
VERTEX
  8
Unknown_Area_Type
  10
232977.000
  20
4620978.500
  0
VERTEX
  8
Unknown_Area_Type
  10
233009.000
  20
4620993.000
  0
VERTEX
  8
Unknown_Area_Type
  10
233010.000
  20
4620993.500
  0
VERTEX
  8
Unknown_Area_Type
  10
234750.465
  20
4620943.485
  0
SEQEND
  8
Unknown_Area_Type
  0
INSERT
  8
FeatureAttribs
  2
FEATURE
  41
1
  42
1
  43
1
  50
0
  10
233776.284
  20
4619324.543
 66
1
  0
ATTRIB
  8
FeatureAttribs
 70
0
  1
PNOA-H_AMS_1956-57_33k_ES_PAN_2
  2
NAME
  10
233776.284
  20
4619324.543
 40
34.53493
  0
SEQEND
  0
POLYLINE
  8
Unknown_Area_Type
  70
1
  66
1
  0
VERTEX
  8
Unknown_Area_Type
  10
234750.465
  20
4620943.485
  0
VERTEX
  8
Unknown_Area_Type
  10
233010.000
  20
4620993.500
  0
VERTEX
  8
Unknown_Area_Type
  10
233009.000
  20
4620993.000
  0
VERTEX
  8
Unknown_Area_Type
  10
232977.000
  20
4620978.500
  0
VERTEX
  8
Unknown_Area_Type
  10
232976.000
  20
4620975.500
  0
VERTEX
  8
Unknown_Area_Type
  10
232748.257
  20
4617747.742
  0
VERTEX
  8
Unknown_Area_Type
  10
234629.516
  20
4617677.637
  0
VERTEX
  8
Unknown_Area_Type
  10
234715.181
  20
4619991.026
  0
VERTEX
  8
Unknown_Area_Type
  10
234750.465
  20
4620943.485
  0
SEQEND
  8
Unknown_Area_Type
  0
INSERT
  8
FeatureAttribs
  2
FEATURE
  41
1
  42
1
  43
1
  50
0
  10
214165.503
  20
4633030.356
 66
1
  0
ATTRIB
  8
FeatureAttribs
 70
0
  1
PNOA-H_AMS_1956-57_33k_ES_PAN_2
  2
NAME
  10
214165.503
  20
4633030.356
 40
34.53493
  0
SEQEND
  0
POLYLINE
  8
Unknown_Area_Type
  70
1
  66
1
  0
VERTEX
  8
Unknown_Area_Type
  10
214674.000
  20
4635559.000
  0
VERTEX
  8
Unknown_Area_Type
  10
215614.500
  20
4635227.500
  0
VERTEX
  8
Unknown_Area_Type
  10
215503.000
  20
4630711.500
  0
VERTEX
  8
Unknown_Area_Type
  10
214253.500
  20
4630387.500
  0
VERTEX
  8
Unknown_Area_Type
  10
212684.000
  20
4630899.000
  0
VERTEX
  8
Unknown_Area_Type
  10
212672.000
  20
4630903.500
  0
VERTEX
  8
Unknown_Area_Type
  10
212858.500
  20
4635424.000
  0
VERTEX
  8
Unknown_Area_Type
  10
214495.500
  20
4635621.000
  0
VERTEX
  8
Unknown_Area_Type
  10
214504.000
  20
4635619.500
  0
VERTEX
  8
Unknown_Area_Type
  10
214672.500
  20
4635559.500
  0
VERTEX
  8
Unknown_Area_Type
  10
214674.000
  20
4635559.000
  0
SEQEND
  8
Unknown_Area_Type
  0
INSERT
  8
FeatureAttribs
  2
FEATURE
  41
1
  42
1
  43
1
  50
0
  10
214165.503
  20
4633030.356
 66
1
  0
ATTRIB
  8
FeatureAttribs
 70
0
  1
PNOA-H_AMS_1956-57_33k_ES_PAN_2
  2
NAME
  10
214165.503
  20
4633030.356
 40
34.53493
  0
SEQEND
  0
POLYLINE
  8
Unknown_Area_Type
  70
1
  66
1
  0
VERTEX
  8
Unknown_Area_Type
  10
214674.000
  20
4635559.000
  0
VERTEX
  8
Unknown_Area_Type
  10
214672.500
  20
4635559.500
  0
VERTEX
  8
Unknown_Area_Type
  10
214504.000
  20
4635619.500
  0
VERTEX
  8
Unknown_Area_Type
  10
214495.500
  20
4635621.000
  0
VERTEX
  8
Unknown_Area_Type
  10
212858.500
  20
4635424.000
  0
VERTEX
  8
Unknown_Area_Type
  10
212672.000
  20
4630903.500
  0
VERTEX
  8
Unknown_Area_Type
  10
212684.000
  20
4630899.000
  0
VERTEX
  8
Unknown_Area_Type
  10
214253.500
  20
4630387.500
  0
VERTEX
  8
Unknown_Area_Type
  10
215503.000
  20
4630711.500
  0
VERTEX
  8
Unknown_Area_Type
  10
215614.500
  20
4635227.500
  0
VERTEX
  8
Unknown_Area_Type
  10
214674.000
  20
4635559.000
  0
SEQEND
  8
Unknown_Area_Type
  0
INSERT
  8
FeatureAttribs
  2
FEATURE
  41
1
  42
1
  43
1
  50
0
  10
206948.966
  20
4633564.808
 66
1
  0
ATTRIB
  8
FeatureAttribs
 70
0
  1
PNOA-H_AMS_1956-57_33k_ES_PAN_2
  2
NAME
  10
206948.966
  20
4633564.808
 40
34.53493
  0
SEQEND
  0
POLYLINE
  8
Unknown_Area_Type
  70
1
  66
1
  0
VERTEX
  8
Unknown_Area_Type
  10
206874.424
  20
4635843.038
  0
VERTEX
  8
Unknown_Area_Type
  10
207110.500
  20
4635733.500
  0
VERTEX
  8
Unknown_Area_Type
  10
206933.000
  20
4631308.500
  0
VERTEX
  8
Unknown_Area_Type
  10
206874.424
  20
4631286.578
  0
VERTEX
  8
Unknown_Area_Type
  10
206874.424
  20
4635843.038
  0
SEQEND
  8
Unknown_Area_Type
  0
INSERT
  8
FeatureAttribs
  2
FEATURE
  41
1
  42
1
  43
1
  50
0
  10
225742.972
  20
4617870.831
 66
1
  0
ATTRIB
  8
FeatureAttribs
 70
0
  1
PNOA-H_AMS_1956-57_33k_ES_PAN_2
  2
NAME
  10
225742.972
  20
4617870.831
 40
34.53493
  0
SEQEND
  0
POLYLINE
  8
Unknown_Area_Type
  70
1
  66
1
  0
VERTEX
  8
Unknown_Area_Type
  10
227092.945
  20
4617677.617
  0
VERTEX
  8
Unknown_Area_Type
  10
224368.523
  20
4617677.617
  0
VERTEX
  8
Unknown_Area_Type
  10
224391.368
  20
4618064.045
  0
VERTEX
  8
Unknown_Area_Type
  10
227112.023
  20
4617960.021
  0
VERTEX
  8
Unknown_Area_Type
  10
227092.945
  20
4617677.617
  0
SEQEND
  8
Unknown_Area_Type
  0
INSERT
  8
FeatureAttribs
  2
FEATURE
  41
1
  42
1
  43
1
  50
0
  10
225849.005
  20
4619740.458
 66
1
  0
ATTRIB
  8
FeatureAttribs
 70
0
  1
PNOA-H_AMS_1956-57_33k_ES_PAN_2
  2
NAME
  10
225849.005
  20
4619740.458
 40
34.53493
  0
SEQEND
  0
POLYLINE
  8
Unknown_Area_Type
  70
1
  66
1
  0
VERTEX
  8
Unknown_Area_Type
  10
227112.023
  20
4617960.021
  0
VERTEX
  8
Unknown_Area_Type
  10
224391.368
  20
4618064.045
  0
VERTEX
  8
Unknown_Area_Type
  10
224589.500
  20
4621415.500
  0
VERTEX
  8
Unknown_Area_Type
  10
225170.000
  20
4621622.000
  0
VERTEX
  8
Unknown_Area_Type
  10
227335.500
  20
4621268.000
  0
VERTEX
  8
Unknown_Area_Type
  10
227112.023
  20
4617960.021
  0
SEQEND
  8
Unknown_Area_Type
  0
INSERT
  8
FeatureAttribs
  2
FEATURE
  41
1
  42
1
  43
1
  50
0
  10
225849.005
  20
4619740.458
 66
1
  0
ATTRIB
  8
FeatureAttribs
 70
0
  1
PNOA-H_AMS_1956-57_33k_ES_PAN_2
  2
NAME
  10
225849.005
  20
4619740.458
 40
34.53493
  0
SEQEND
  0
POLYLINE
  8
Unknown_Area_Type
  70
1
  66
1
  0
VERTEX
  8
Unknown_Area_Type
  10
227112.023
  20
4617960.021
  0
VERTEX
  8
Unknown_Area_Type
  10
227335.500
  20
4621268.000
  0
VERTEX
  8
Unknown_Area_Type
  10
225170.000
  20
4621622.000
  0
VERTEX
  8
Unknown_Area_Type
  10
224589.500
  20
4621415.500
  0
VERTEX
  8
Unknown_Area_Type
  10
224391.368
  20
4618064.045
  0
VERTEX
  8
Unknown_Area_Type
  10
227112.023
  20
4617960.021
  0
SEQEND
  8
Unknown_Area_Type
  0
INSERT
  8
FeatureAttribs
  2
FEATURE
  41
1
  42
1
  43
1
  50
0
  10
211348.514
  20
4633241.695
 66
1
  0
ATTRIB
  8
FeatureAttribs
 70
0
  1
PNOA-H_AMS_1956-57_33k_ES_PAN_2
  2
NAME
  10
211348.514
  20
4633241.695
 40
34.53493
  0
SEQEND
  0
POLYLINE
  8
Unknown_Area_Type
  70
1
  66
1
  0
VERTEX
  8
Unknown_Area_Type
  10
210577.000
  20
4635635.500
  0
VERTEX
  8
Unknown_Area_Type
  10
211929.000
  20
4635818.000
  0
VERTEX
  8
Unknown_Area_Type
  10
212858.500
  20
4635424.000
  0
VERTEX
  8
Unknown_Area_Type
  10
212672.500
  20
4630903.500
  0
VERTEX
  8
Unknown_Area_Type
  10
211613.000
  20
4630598.500
  0
VERTEX
  8
Unknown_Area_Type
  10
211602.500
  20
4630600.500
  0
VERTEX
  8
Unknown_Area_Type
  10
209810.500
  20
4631122.500
  0
VERTEX
  8
Unknown_Area_Type
  10
209993.000
  20
4635556.500
  0
VERTEX
  8
Unknown_Area_Type
  10
210573.500
  20
4635635.000
  0
VERTEX
  8
Unknown_Area_Type
  10
210577.000
  20
4635635.500
  0
SEQEND
  8
Unknown_Area_Type
  0
INSERT
  8
FeatureAttribs
  2
FEATURE
  41
1
  42
1
  43
1
  50
0
  10
211348.514
  20
4633241.695
 66
1
  0
ATTRIB
  8
FeatureAttribs
 70
0
  1
PNOA-H_AMS_1956-57_33k_ES_PAN_2
  2
NAME
  10
211348.514
  20
4633241.695
 40
34.53493
  0
SEQEND
  0
POLYLINE
  8
Unknown_Area_Type
  70
1
  66
1
  0
VERTEX
  8
Unknown_Area_Type
  10
210577.000
  20
4635635.500
  0
VERTEX
  8
Unknown_Area_Type
  10
210573.500
  20
4635635.000
  0
VERTEX
  8
Unknown_Area_Type
  10
209993.000
  20
4635556.500
  0
VERTEX
  8
Unknown_Area_Type
  10
209810.500
  20
4631122.500
  0
VERTEX
  8
Unknown_Area_Type
  10
211602.500
  20
4630600.500
  0
VERTEX
  8
Unknown_Area_Type
  10
211613.000
  20
4630598.500
  0
VERTEX
  8
Unknown_Area_Type
  10
212672.500
  20
4630903.500
  0
VERTEX
  8
Unknown_Area_Type
  10
212858.500
  20
4635424.000
  0
VERTEX
  8
Unknown_Area_Type
  10
211929.000
  20
4635818.000
  0
VERTEX
  8
Unknown_Area_Type
  10
210577.000
  20
4635635.500
  0
SEQEND
  8
Unknown_Area_Type
  0
INSERT
  8
FeatureAttribs
  2
FEATURE
  41
1
  42
1
  43
1
  50
0
  10
216955.835
  20
4632895.023
 66
1
  0
ATTRIB
  8
FeatureAttribs
 70
0
  1
PNOA-H_AMS_1956-57_33k_ES_PAN_2
  2
NAME
  10
216955.835
  20
4632895.023
 40
34.53493
  0
SEQEND
  0
POLYLINE
  8
Unknown_Area_Type
  70
1
  66
1
  0
VERTEX
  8
Unknown_Area_Type
  10
217030.000
  20
4635512.000
  0
VERTEX
  8
Unknown_Area_Type
  10
218445.500
  20
4635072.000
  0
VERTEX
  8
Unknown_Area_Type
  10
218446.000
  20
4635063.500
  0
VERTEX
  8
Unknown_Area_Type
  10
218250.500
  20
4630532.500
  0
VERTEX
  8
Unknown_Area_Type
  10
216933.500
  20
4630241.500
  0
VERTEX
  8
Unknown_Area_Type
  10
215503.000
  20
4630711.000
  0
VERTEX
  8
Unknown_Area_Type
  10
215503.000
  20
4630730.000
  0
VERTEX
  8
Unknown_Area_Type
  10
215614.500
  20
4635227.500
  0
VERTEX
  8
Unknown_Area_Type
  10
217027.500
  20
4635511.500
  0
VERTEX
  8
Unknown_Area_Type
  10
217030.000
  20
4635512.000
  0
SEQEND
  8
Unknown_Area_Type
  0
INSERT
  8
FeatureAttribs
  2
FEATURE
  41
1
  42
1
  43
1
  50
0
  10
216955.835
  20
4632895.023
 66
1
  0
ATTRIB
  8
FeatureAttribs
 70
0
  1
PNOA-H_AMS_1956-57_33k_ES_PAN_2
  2
NAME
  10
216955.835
  20
4632895.023
 40
34.53493
  0
SEQEND
  0
POLYLINE
  8
Unknown_Area_Type
  70
1
  66
1
  0
VERTEX
  8
Unknown_Area_Type
  10
217030.000
  20
4635512.000
  0
VERTEX
  8
Unknown_Area_Type
  10
217027.500
  20
4635511.500
  0
VERTEX
  8
Unknown_Area_Type
  10
215614.500
  20
4635227.500
  0
VERTEX
  8
Unknown_Area_Type
  10
215503.000
  20
4630730.000
  0
VERTEX
  8
Unknown_Area_Type
  10
215503.000
  20
4630711.000
  0
VERTEX
  8
Unknown_Area_Type
  10
216933.500
  20
4630241.500
  0
VERTEX
  8
Unknown_Area_Type
  10
218250.500
  20
4630532.500
  0
VERTEX
  8
Unknown_Area_Type
  10
218446.000
  20
4635063.500
  0
VERTEX
  8
Unknown_Area_Type
  10
218445.500
  20
4635072.000
  0
VERTEX
  8
Unknown_Area_Type
  10
217030.000
  20
4635512.000
  0
SEQEND
  8
Unknown_Area_Type
  0
INSERT
  8
FeatureAttribs
  2
FEATURE
  41
1
  42
1
  43
1
  50
0
  10
222490.545
  20
4632592.472
 66
1
  0
ATTRIB
  8
FeatureAttribs
 70
0
  1
PNOA-H_AMS_1956-57_33k_ES_PAN_2
  2
NAME
  10
222490.545
  20
4632592.472
 40
34.53493
  0
SEQEND
  0
POLYLINE
  8
Unknown_Area_Type
  70
1
  66
1
  0
VERTEX
  8
Unknown_Area_Type
  10
222866.000
  20
4635084.000
  0
VERTEX
  8
Unknown_Area_Type
  10
223961.500
  20
4634826.000
  0
VERTEX
  8
Unknown_Area_Type
  10
223782.000
  20
4630266.500
  0
VERTEX
  8
Unknown_Area_Type
  10
222209.500
  20
4629953.500
  0
VERTEX
  8
Unknown_Area_Type
  10
221027.500
  20
4630369.500
  0
VERTEX
  8
Unknown_Area_Type
  10
221227.000
  20
4634957.500
  0
VERTEX
  8
Unknown_Area_Type
  10
222181.500
  20
4635245.500
  0
VERTEX
  8
Unknown_Area_Type
  10
222863.000
  20
4635084.500
  0
VERTEX
  8
Unknown_Area_Type
  10
222866.000
  20
4635084.000
  0
SEQEND
  8
Unknown_Area_Type
  0
INSERT
  8
FeatureAttribs
  2
FEATURE
  41
1
  42
1
  43
1
  50
0
  10
222490.545
  20
4632592.472
 66
1
  0
ATTRIB
  8
FeatureAttribs
 70
0
  1
PNOA-H_AMS_1956-57_33k_ES_PAN_2
  2
NAME
  10
222490.545
  20
4632592.472
 40
34.53493
  0
SEQEND
  0
POLYLINE
  8
Unknown_Area_Type
  70
1
  66
1
  0
VERTEX
  8
Unknown_Area_Type
  10
222866.000
  20
4635084.000
  0
VERTEX
  8
Unknown_Area_Type
  10
222863.000
  20
4635084.500
  0
VERTEX
  8
Unknown_Area_Type
  10
222181.500
  20
4635245.500
  0
VERTEX
  8
Unknown_Area_Type
  10
221227.000
  20
4634957.500
  0
VERTEX
  8
Unknown_Area_Type
  10
221027.500
  20
4630369.500
  0
VERTEX
  8
Unknown_Area_Type
  10
222209.500
  20
4629953.500
  0
VERTEX
  8
Unknown_Area_Type
  10
223782.000
  20
4630266.500
  0
VERTEX
  8
Unknown_Area_Type
  10
223961.500
  20
4634826.000
  0
VERTEX
  8
Unknown_Area_Type
  10
222866.000
  20
4635084.000
  0
SEQEND
  8
Unknown_Area_Type
  0
INSERT
  8
FeatureAttribs
  2
FEATURE
  41
1
  42
1
  43
1
  50
0
  10
225216.269
  20
4632491.754
 66
1
  0
ATTRIB
  8
FeatureAttribs
 70
0
  1
PNOA-H_AMS_1956-57_33k_ES_PAN_2
  2
NAME
  10
225216.269
  20
4632491.754
 40
34.53493
  0
SEQEND
  0
POLYLINE
  8
Unknown_Area_Type
  70
1
  66
1
  0
VERTEX
  8
Unknown_Area_Type
  10
224914.000
  20
4635118.500
  0
VERTEX
  8
Unknown_Area_Type
  10
226658.000
  20
4634705.500
  0
VERTEX
  8
Unknown_Area_Type
  10
226663.000
  20
4634704.000
  0
VERTEX
  8
Unknown_Area_Type
  10
226663.000
  20
4634693.500
  0
VERTEX
  8
Unknown_Area_Type
  10
226502.500
  20
4630199.500
  0
VERTEX
  8
Unknown_Area_Type
  10
224870.000
  20
4629881.500
  0
VERTEX
  8
Unknown_Area_Type
  10
223787.500
  20
4630264.000
  0
VERTEX
  8
Unknown_Area_Type
  10
223782.000
  20
4630266.000
  0
VERTEX
  8
Unknown_Area_Type
  10
223782.000
  20
4630274.000
  0
VERTEX
  8
Unknown_Area_Type
  10
223961.500
  20
4634826.000
  0
VERTEX
  8
Unknown_Area_Type
  10
224894.500
  20
4635123.000
  0
VERTEX
  8
Unknown_Area_Type
  10
224911.500
  20
4635119.000
  0
VERTEX
  8
Unknown_Area_Type
  10
224914.000
  20
4635118.500
  0
SEQEND
  8
Unknown_Area_Type
  0
INSERT
  8
FeatureAttribs
  2
FEATURE
  41
1
  42
1
  43
1
  50
0
  10
225216.269
  20
4632491.754
 66
1
  0
ATTRIB
  8
FeatureAttribs
 70
0
  1
PNOA-H_AMS_1956-57_33k_ES_PAN_2
  2
NAME
  10
225216.269
  20
4632491.754
 40
34.53493
  0
SEQEND
  0
POLYLINE
  8
Unknown_Area_Type
  70
1
  66
1
  0
VERTEX
  8
Unknown_Area_Type
  10
224914.000
  20
4635118.500
  0
VERTEX
  8
Unknown_Area_Type
  10
224911.500
  20
4635119.000
  0
VERTEX
  8
Unknown_Area_Type
  10
224894.500
  20
4635123.000
  0
VERTEX
  8
Unknown_Area_Type
  10
223961.500
  20
4634826.000
  0
VERTEX
  8
Unknown_Area_Type
  10
223782.000
  20
4630274.000
  0
VERTEX
  8
Unknown_Area_Type
  10
223782.000
  20
4630266.000
  0
VERTEX
  8
Unknown_Area_Type
  10
223787.500
  20
4630264.000
  0
VERTEX
  8
Unknown_Area_Type
  10
224870.000
  20
4629881.500
  0
VERTEX
  8
Unknown_Area_Type
  10
226502.500
  20
4630199.500
  0
VERTEX
  8
Unknown_Area_Type
  10
226663.000
  20
4634693.500
  0
VERTEX
  8
Unknown_Area_Type
  10
226663.000
  20
4634704.000
  0
VERTEX
  8
Unknown_Area_Type
  10
226658.000
  20
4634705.500
  0
VERTEX
  8
Unknown_Area_Type
  10
224914.000
  20
4635118.500
  0
SEQEND
  8
Unknown_Area_Type
  0
INSERT
  8
FeatureAttribs
  2
FEATURE
  41
1
  42
1
  43
1
  50
0
  10
230679.809
  20
4632315.850
 66
1
  0
ATTRIB
  8
FeatureAttribs
 70
0
  1
PNOA-H_AMS_1956-57_33k_ES_PAN_2
  2
NAME
  10
230679.809
  20
4632315.850
 40
34.53493
  0
SEQEND
  0
POLYLINE
  8
Unknown_Area_Type
  70
1
  66
1
  0
VERTEX
  8
Unknown_Area_Type
  10
232037.500
  20
4631816.000
  0
VERTEX
  8
Unknown_Area_Type
  10
231995.500
  20
4630055.500
  0
VERTEX
  8
Unknown_Area_Type
  10
230330.000
  20
4629727.500
  0
VERTEX
  8
Unknown_Area_Type
  10
229279.000
  20
4630132.000
  0
VERTEX
  8
Unknown_Area_Type
  10
229376.500
  20
4634601.500
  0
VERTEX
  8
Unknown_Area_Type
  10
230125.500
  20
4634872.500
  0
VERTEX
  8
Unknown_Area_Type
  10
232102.500
  20
4634564.000
  0
VERTEX
  8
Unknown_Area_Type
  10
232037.500
  20
4631826.500
  0
VERTEX
  8
Unknown_Area_Type
  10
232037.500
  20
4631816.000
  0
SEQEND
  8
Unknown_Area_Type
  0
INSERT
  8
FeatureAttribs
  2
FEATURE
  41
1
  42
1
  43
1
  50
0
  10
230679.809
  20
4632315.850
 66
1
  0
ATTRIB
  8
FeatureAttribs
 70
0
  1
PNOA-H_AMS_1956-57_33k_ES_PAN_2
  2
NAME
  10
230679.809
  20
4632315.850
 40
34.53493
  0
SEQEND
  0
POLYLINE
  8
Unknown_Area_Type
  70
1
  66
1
  0
VERTEX
  8
Unknown_Area_Type
  10
232037.500
  20
4631816.000
  0
VERTEX
  8
Unknown_Area_Type
  10
232037.500
  20
4631826.500
  0
VERTEX
  8
Unknown_Area_Type
  10
232102.500
  20
4634564.000
  0
VERTEX
  8
Unknown_Area_Type
  10
230125.500
  20
4634872.500
  0
VERTEX
  8
Unknown_Area_Type
  10
229376.500
  20
4634601.500
  0
VERTEX
  8
Unknown_Area_Type
  10
229279.000
  20
4630132.000
  0
VERTEX
  8
Unknown_Area_Type
  10
230330.000
  20
4629727.500
  0
VERTEX
  8
Unknown_Area_Type
  10
231995.500
  20
4630055.500
  0
VERTEX
  8
Unknown_Area_Type
  10
232037.500
  20
4631816.000
  0
SEQEND
  8
Unknown_Area_Type
  0
INSERT
  8
FeatureAttribs
  2
FEATURE
  41
1
  42
1
  43
1
  50
0
  10
233413.996
  20
4632244.318
 66
1
  0
ATTRIB
  8
FeatureAttribs
 70
0
  1
PNOA-H_AMS_1956-57_33k_ES_PAN_2
  2
NAME
  10
233413.996
  20
4632244.318
 40
34.53493
  0
SEQEND
  0
POLYLINE
  8
Unknown_Area_Type
  70
1
  66
1
  0
VERTEX
  8
Unknown_Area_Type
  10
232102.500
  20
4634564.000
  0
VERTEX
  8
Unknown_Area_Type
  10
232655.500
  20
4634784.000
  0
VERTEX
  8
Unknown_Area_Type
  10
232657.000
  20
4634784.500
  0
VERTEX
  8
Unknown_Area_Type
  10
234871.500
  20
4634472.500
  0
VERTEX
  8
Unknown_Area_Type
  10
234738.000
  20
4630011.500
  0
VERTEX
  8
Unknown_Area_Type
  10
233134.000
  20
4629656.500
  0
VERTEX
  8
Unknown_Area_Type
  10
231996.000
  20
4630055.500
  0
VERTEX
  8
Unknown_Area_Type
  10
232102.500
  20
4634564.000
  0
SEQEND
  8
Unknown_Area_Type
  0
INSERT
  8
FeatureAttribs
  2
FEATURE
  41
1
  42
1
  43
1
  50
0
  10
233413.996
  20
4632244.318
 66
1
  0
ATTRIB
  8
FeatureAttribs
 70
0
  1
PNOA-H_AMS_1956-57_33k_ES_PAN_2
  2
NAME
  10
233413.996
  20
4632244.318
 40
34.53493
  0
SEQEND
  0
POLYLINE
  8
Unknown_Area_Type
  70
1
  66
1
  0
VERTEX
  8
Unknown_Area_Type
  10
232102.500
  20
4634564.000
  0
VERTEX
  8
Unknown_Area_Type
  10
231996.000
  20
4630055.500
  0
VERTEX
  8
Unknown_Area_Type
  10
233134.000
  20
4629656.500
  0
VERTEX
  8
Unknown_Area_Type
  10
234738.000
  20
4630011.500
  0
VERTEX
  8
Unknown_Area_Type
  10
234871.500
  20
4634472.500
  0
VERTEX
  8
Unknown_Area_Type
  10
232657.000
  20
4634784.500
  0
VERTEX
  8
Unknown_Area_Type
  10
232655.500
  20
4634784.000
  0
VERTEX
  8
Unknown_Area_Type
  10
232102.500
  20
4634564.000
  0
SEQEND
  8
Unknown_Area_Type
  0
INSERT
  8
FeatureAttribs
  2
FEATURE
  41
1
  42
1
  43
1
  50
0
  10
219736.367
  20
4632722.982
 66
1
  0
ATTRIB
  8
FeatureAttribs
 70
0
  1
PNOA-H_AMS_1956-57_33k_ES_PAN_2
  2
NAME
  10
219736.367
  20
4632722.982
 40
34.53493
  0
SEQEND
  0
POLYLINE
  8
Unknown_Area_Type
  70
1
  66
1
  0
VERTEX
  8
Unknown_Area_Type
  10
218768.500
  20
4635153.000
  0
VERTEX
  8
Unknown_Area_Type
  10
219626.500
  20
4635368.500
  0
VERTEX
  8
Unknown_Area_Type
  10
221227.000
  20
4634957.500
  0
VERTEX
  8
Unknown_Area_Type
  10
221027.500
  20
4630369.500
  0
VERTEX
  8
Unknown_Area_Type
  10
219574.000
  20
4630069.500
  0
VERTEX
  8
Unknown_Area_Type
  10
218250.500
  20
4630532.500
  0
VERTEX
  8
Unknown_Area_Type
  10
218446.000
  20
4635071.500
  0
VERTEX
  8
Unknown_Area_Type
  10
218766.500
  20
4635152.500
  0
VERTEX
  8
Unknown_Area_Type
  10
218768.500
  20
4635153.000
  0
SEQEND
  8
Unknown_Area_Type
  0
INSERT
  8
FeatureAttribs
  2
FEATURE
  41
1
  42
1
  43
1
  50
0
  10
219736.367
  20
4632722.982
 66
1
  0
ATTRIB
  8
FeatureAttribs
 70
0
  1
PNOA-H_AMS_1956-57_33k_ES_PAN_2
  2
NAME
  10
219736.367
  20
4632722.982
 40
34.53493
  0
SEQEND
  0
POLYLINE
  8
Unknown_Area_Type
  70
1
  66
1
  0
VERTEX
  8
Unknown_Area_Type
  10
218768.500
  20
4635153.000
  0
VERTEX
  8
Unknown_Area_Type
  10
218766.500
  20
4635152.500
  0
VERTEX
  8
Unknown_Area_Type
  10
218446.000
  20
4635071.500
  0
VERTEX
  8
Unknown_Area_Type
  10
218250.500
  20
4630532.500
  0
VERTEX
  8
Unknown_Area_Type
  10
219574.000
  20
4630069.500
  0
VERTEX
  8
Unknown_Area_Type
  10
221027.500
  20
4630369.500
  0
VERTEX
  8
Unknown_Area_Type
  10
221227.000
  20
4634957.500
  0
VERTEX
  8
Unknown_Area_Type
  10
219626.500
  20
4635368.500
  0
VERTEX
  8
Unknown_Area_Type
  10
218768.500
  20
4635153.000
  0
SEQEND
  8
Unknown_Area_Type
  0
INSERT
  8
FeatureAttribs
  2
FEATURE
  41
1
  42
1
  43
1
  50
0
  10
227943.901
  20
4632388.760
 66
1
  0
ATTRIB
  8
FeatureAttribs
 70
0
  1
PNOA-H_AMS_1956-57_33k_ES_PAN_2
  2
NAME
  10
227943.901
  20
4632388.760
 40
34.53493
  0
SEQEND
  0
POLYLINE
  8
Unknown_Area_Type
  70
1
  66
1
  0
VERTEX
  8
Unknown_Area_Type
  10
226961.000
  20
4634799.000
  0
VERTEX
  8
Unknown_Area_Type
  10
227565.500
  20
4634991.000
  0
VERTEX
  8
Unknown_Area_Type
  10
229376.500
  20
4634601.500
  0
VERTEX
  8
Unknown_Area_Type
  10
229278.500
  20
4630132.000
  0
VERTEX
  8
Unknown_Area_Type
  10
227581.500
  20
4629808.500
  0
VERTEX
  8
Unknown_Area_Type
  10
226502.500
  20
4630199.500
  0
VERTEX
  8
Unknown_Area_Type
  10
226663.000
  20
4634704.000
  0
VERTEX
  8
Unknown_Area_Type
  10
226959.500
  20
4634798.500
  0
VERTEX
  8
Unknown_Area_Type
  10
226961.000
  20
4634799.000
  0
SEQEND
  8
Unknown_Area_Type
  0
INSERT
  8
FeatureAttribs
  2
FEATURE
  41
1
  42
1
  43
1
  50
0
  10
227943.901
  20
4632388.760
 66
1
  0
ATTRIB
  8
FeatureAttribs
 70
0
  1
PNOA-H_AMS_1956-57_33k_ES_PAN_2
  2
NAME
  10
227943.901
  20
4632388.760
 40
34.53493
  0
SEQEND
  0
POLYLINE
  8
Unknown_Area_Type
  70
1
  66
1
  0
VERTEX
  8
Unknown_Area_Type
  10
226961.000
  20
4634799.000
  0
VERTEX
  8
Unknown_Area_Type
  10
226959.500
  20
4634798.500
  0
VERTEX
  8
Unknown_Area_Type
  10
226663.000
  20
4634704.000
  0
VERTEX
  8
Unknown_Area_Type
  10
226502.500
  20
4630199.500
  0
VERTEX
  8
Unknown_Area_Type
  10
227581.500
  20
4629808.500
  0
VERTEX
  8
Unknown_Area_Type
  10
229278.500
  20
4630132.000
  0
VERTEX
  8
Unknown_Area_Type
  10
229376.500
  20
4634601.500
  0
VERTEX
  8
Unknown_Area_Type
  10
227565.500
  20
4634991.000
  0
VERTEX
  8
Unknown_Area_Type
  10
226961.000
  20
4634799.000
  0
SEQEND
  8
Unknown_Area_Type
  0
INSERT
  8
FeatureAttribs
  2
FEATURE
  41
1
  42
1
  43
1
  50
0
  10
235242.282
  20
4632222.887
 66
1
  0
ATTRIB
  8
FeatureAttribs
 70
0
  1
PNOA-H_AMS_1956-57_33k_ES_PAN_2
  2
NAME
  10
235242.282
  20
4632222.887
 40
34.53493
  0
SEQEND
  0
POLYLINE
  8
Unknown_Area_Type
  70
1
  66
1
  0
VERTEX
  8
Unknown_Area_Type
  10
235315.851
  20
4634641.732
  0
VERTEX
  8
Unknown_Area_Type
  10
235315.851
  20
4629799.012
  0
VERTEX
  8
Unknown_Area_Type
  10
235081.955
  20
4629885.020
  0
VERTEX
  8
Unknown_Area_Type
  10
235144.035
  20
4631558.063
  0
VERTEX
  8
Unknown_Area_Type
  10
235229.911
  20
4633871.488
  0
VERTEX
  8
Unknown_Area_Type
  10
235258.702
  20
4634646.762
  0
VERTEX
  8
Unknown_Area_Type
  10
235315.851
  20
4634641.732
  0
SEQEND
  8
Unknown_Area_Type
  0
INSERT
  8
FeatureAttribs
  2
FEATURE
  41
1
  42
1
  43
1
  50
0
  10
234990.720
  20
4632289.673
 66
1
  0
ATTRIB
  8
FeatureAttribs
 70
0
  1
PNOA-H_AMS_1956-57_33k_ES_PAN_2
  2
NAME
  10
234990.720
  20
4632289.673
 40
34.53493
  0
SEQEND
  0
POLYLINE
  8
Unknown_Area_Type
  70
1
  66
1
  0
VERTEX
  8
Unknown_Area_Type
  10
235258.702
  20
4634646.762
  0
VERTEX
  8
Unknown_Area_Type
  10
235229.911
  20
4633871.488
  0
VERTEX
  8
Unknown_Area_Type
  10
235144.035
  20
4631558.063
  0
VERTEX
  8
Unknown_Area_Type
  10
235081.955
  20
4629885.020
  0
VERTEX
  8
Unknown_Area_Type
  10
234738.000
  20
4630011.500
  0
VERTEX
  8
Unknown_Area_Type
  10
234871.500
  20
4634472.500
  0
VERTEX
  8
Unknown_Area_Type
  10
235151.500
  20
4634600.500
  0
VERTEX
  8
Unknown_Area_Type
  10
235153.000
  20
4634601.000
  0
VERTEX
  8
Unknown_Area_Type
  10
235250.000
  20
4634645.500
  0
VERTEX
  8
Unknown_Area_Type
  10
235256.000
  20
4634647.000
  0
VERTEX
  8
Unknown_Area_Type
  10
235258.702
  20
4634646.762
  0
SEQEND
  8
Unknown_Area_Type
  0
INSERT
  8
FeatureAttribs
  2
FEATURE
  41
1
  42
1
  43
1
  50
0
  10
234990.720
  20
4632289.673
 66
1
  0
ATTRIB
  8
FeatureAttribs
 70
0
  1
PNOA-H_AMS_1956-57_33k_ES_PAN_2
  2
NAME
  10
234990.720
  20
4632289.673
 40
34.53493
  0
SEQEND
  0
POLYLINE
  8
Unknown_Area_Type
  70
1
  66
1
  0
VERTEX
  8
Unknown_Area_Type
  10
235258.702
  20
4634646.762
  0
VERTEX
  8
Unknown_Area_Type
  10
235256.000
  20
4634647.000
  0
VERTEX
  8
Unknown_Area_Type
  10
235250.000
  20
4634645.500
  0
VERTEX
  8
Unknown_Area_Type
  10
235153.000
  20
4634601.000
  0
VERTEX
  8
Unknown_Area_Type
  10
235151.500
  20
4634600.500
  0
VERTEX
  8
Unknown_Area_Type
  10
234871.500
  20
4634472.500
  0
VERTEX
  8
Unknown_Area_Type
  10
234738.000
  20
4630011.500
  0
VERTEX
  8
Unknown_Area_Type
  10
235081.955
  20
4629885.020
  0
VERTEX
  8
Unknown_Area_Type
  10
235144.035
  20
4631558.063
  0
VERTEX
  8
Unknown_Area_Type
  10
235229.911
  20
4633871.488
  0
VERTEX
  8
Unknown_Area_Type
  10
235258.702
  20
4634646.762
  0
SEQEND
  8
Unknown_Area_Type
  0
ENDSEC
  0
EOF
