  0
SECTION
  2
HEADER
  9
$ACADVER
  1
AC1009
  9
$LUNITS
  70
2
  9
$LIMMIN
  10
200020.000
  20
4618759.035
  9
$LIMMAX
  10
207632.761
  20
4638457.082
  9
$EXTMIN
  10
200020.000
  20
4618759.035
  9
$EXTMAX
  10
207632.761
  20
4638457.082
  999
Created by Global Mapper
  999
Projection: UTM
  999
Datum: ETRS89
  999
Ground Units: meters
  999
ZONE: 30
  0
ENDSEC
  0
SECTION
  2
TABLES
  0
ENDSEC
  0
SECTION
  2
BLOCKS
  0
BLOCK
  8
FeatureAttribs
  70
0
  2
FEATURE
  3
FEATURE
  10
0.00000000
  20
0.00000000
  0
ATTDEF
  8
FeatureAttribs
  70
0
  1
 
  2
NAME
  3
NAME
  10
0.00000000
  20
0.00000000
  40
1.00000000
  0
ENDBLK
  0
ENDSEC
  0
SECTION
  2
ENTITIES
  0
INSERT
  8
FeatureAttribs
  2
FEATURE
  41
1
  42
1
  43
1
  50
0
  10
207108.291
  20
4637862.067
 66
1
  0
ATTRIB
  8
FeatureAttribs
 70
0
  1
PNOA-H_AMS_1956-57_33k_ES_PAN_2
  2
NAME
  10
207108.291
  20
4637862.067
 40
21.11793
  0
SEQEND
  0
POLYLINE
  8
Unknown_Area_Type
  70
1
  66
1
  0
VERTEX
  8
Unknown_Area_Type
  10
206611.175
  20
4638457.082
  0
VERTEX
  8
Unknown_Area_Type
  10
207632.761
  20
4638457.082
  0
VERTEX
  8
Unknown_Area_Type
  10
207632.761
  20
4637267.748
  0
VERTEX
  8
Unknown_Area_Type
  10
207632.733
  20
4637267.053
  0
VERTEX
  8
Unknown_Area_Type
  10
206558.506
  20
4637311.398
  0
VERTEX
  8
Unknown_Area_Type
  10
206611.175
  20
4638457.082
  0
SEQEND
  8
Unknown_Area_Type
  0
INSERT
  8
FeatureAttribs
  2
FEATURE
  41
1
  42
1
  43
1
  50
0
  10
207632.747
  20
4637267.226
 66
1
  0
ATTRIB
  8
FeatureAttribs
 70
0
  1
PNOA-H_AMS_1956-57_33k_ES_PAN_2
  2
NAME
  10
207632.747
  20
4637267.226
 40
21.11793
  0
SEQEND
  0
POLYLINE
  8
Unknown_Area_Type
  70
1
  66
1
  0
VERTEX
  8
Unknown_Area_Type
  10
207632.761
  20
4637267.748
  0
VERTEX
  8
Unknown_Area_Type
  10
207632.761
  20
4637267.052
  0
VERTEX
  8
Unknown_Area_Type
  10
207632.733
  20
4637267.053
  0
VERTEX
  8
Unknown_Area_Type
  10
207632.761
  20
4637267.748
  0
SEQEND
  8
Unknown_Area_Type
  0
INSERT
  8
FeatureAttribs
  2
FEATURE
  41
1
  42
1
  43
1
  50
0
  10
207617.388
  20
4636518.358
 66
1
  0
ATTRIB
  8
FeatureAttribs
 70
0
  1
PNOA-H_AMS_1956-57_33k_ES_PAN_2
  2
NAME
  10
207617.388
  20
4636518.358
 40
21.11793
  0
SEQEND
  0
POLYLINE
  8
Unknown_Area_Type
  70
1
  66
1
  0
VERTEX
  8
Unknown_Area_Type
  10
207632.761
  20
4635774.476
  0
VERTEX
  8
Unknown_Area_Type
  10
207571.296
  20
4635769.663
  0
VERTEX
  8
Unknown_Area_Type
  10
207632.733
  20
4637267.053
  0
VERTEX
  8
Unknown_Area_Type
  10
207632.761
  20
4637267.052
  0
VERTEX
  8
Unknown_Area_Type
  10
207632.761
  20
4635774.476
  0
SEQEND
  8
Unknown_Area_Type
  0
INSERT
  8
FeatureAttribs
  2
FEATURE
  41
1
  42
1
  43
1
  50
0
  10
207077.411
  20
4636552.608
 66
1
  0
ATTRIB
  8
FeatureAttribs
 70
0
  1
PNOA-H_AMS_1956-57_33k_ES_PAN_2
  2
NAME
  10
207077.411
  20
4636552.608
 40
21.11793
  0
SEQEND
  0
POLYLINE
  8
Unknown_Area_Type
  70
1
  66
1
  0
VERTEX
  8
Unknown_Area_Type
  10
207571.296
  20
4635769.663
  0
VERTEX
  8
Unknown_Area_Type
  10
207109.500
  20
4635733.500
  0
VERTEX
  8
Unknown_Area_Type
  10
206499.000
  20
4636017.000
  0
VERTEX
  8
Unknown_Area_Type
  10
206558.506
  20
4637311.398
  0
VERTEX
  8
Unknown_Area_Type
  10
207632.733
  20
4637267.053
  0
VERTEX
  8
Unknown_Area_Type
  10
207571.296
  20
4635769.663
  0
SEQEND
  8
Unknown_Area_Type
  0
INSERT
  8
FeatureAttribs
  2
FEATURE
  41
1
  42
1
  43
1
  50
0
  10
207077.411
  20
4636552.608
 66
1
  0
ATTRIB
  8
FeatureAttribs
 70
0
  1
PNOA-H_AMS_1956-57_33k_ES_PAN_2
  2
NAME
  10
207077.411
  20
4636552.608
 40
21.11793
  0
SEQEND
  0
POLYLINE
  8
Unknown_Area_Type
  70
1
  66
1
  0
VERTEX
  8
Unknown_Area_Type
  10
207571.296
  20
4635769.663
  0
VERTEX
  8
Unknown_Area_Type
  10
207632.733
  20
4637267.053
  0
VERTEX
  8
Unknown_Area_Type
  10
206558.506
  20
4637311.398
  0
VERTEX
  8
Unknown_Area_Type
  10
206499.000
  20
4636017.000
  0
VERTEX
  8
Unknown_Area_Type
  10
207109.500
  20
4635733.500
  0
VERTEX
  8
Unknown_Area_Type
  10
207571.296
  20
4635769.663
  0
SEQEND
  8
Unknown_Area_Type
  0
INSERT
  8
FeatureAttribs
  2
FEATURE
  41
1
  42
1
  43
1
  50
0
  10
203932.006
  20
4637884.237
 66
1
  0
ATTRIB
  8
FeatureAttribs
 70
0
  1
PNOA-H_AMS_1956-57_33k_ES_PAN_2
  2
NAME
  10
203932.006
  20
4637884.237
 40
21.11793
  0
SEQEND
  0
POLYLINE
  8
Unknown_Area_Type
  70
1
  66
1
  0
VERTEX
  8
Unknown_Area_Type
  10
206611.240
  20
4638457.082
  0
VERTEX
  8
Unknown_Area_Type
  10
206558.624
  20
4637311.393
  0
VERTEX
  8
Unknown_Area_Type
  10
204172.271
  20
4637409.903
  0
VERTEX
  8
Unknown_Area_Type
  10
201206.682
  20
4637533.768
  0
VERTEX
  8
Unknown_Area_Type
  10
201208.000
  20
4637561.000
  0
VERTEX
  8
Unknown_Area_Type
  10
201215.000
  20
4637597.000
  0
VERTEX
  8
Unknown_Area_Type
  10
201219.000
  20
4637610.000
  0
VERTEX
  8
Unknown_Area_Type
  10
201232.000
  20
4637667.500
  0
VERTEX
  8
Unknown_Area_Type
  10
201235.000
  20
4637678.000
  0
VERTEX
  8
Unknown_Area_Type
  10
201239.000
  20
4637686.500
  0
VERTEX
  8
Unknown_Area_Type
  10
201239.000
  20
4637693.500
  0
VERTEX
  8
Unknown_Area_Type
  10
201243.500
  20
4637710.000
  0
VERTEX
  8
Unknown_Area_Type
  10
201244.500
  20
4637718.500
  0
VERTEX
  8
Unknown_Area_Type
  10
201246.000
  20
4637721.000
  0
VERTEX
  8
Unknown_Area_Type
  10
201246.500
  20
4637732.500
  0
VERTEX
  8
Unknown_Area_Type
  10
201249.000
  20
4637741.000
  0
VERTEX
  8
Unknown_Area_Type
  10
201249.500
  20
4637749.000
  0
VERTEX
  8
Unknown_Area_Type
  10
201258.500
  20
4637792.500
  0
VERTEX
  8
Unknown_Area_Type
  10
201258.500
  20
4637797.000
  0
VERTEX
  8
Unknown_Area_Type
  10
201267.500
  20
4637830.500
  0
VERTEX
  8
Unknown_Area_Type
  10
201268.000
  20
4637838.000
  0
VERTEX
  8
Unknown_Area_Type
  10
201294.000
  20
4637946.500
  0
VERTEX
  8
Unknown_Area_Type
  10
201294.500
  20
4637953.000
  0
VERTEX
  8
Unknown_Area_Type
  10
201299.000
  20
4637971.500
  0
VERTEX
  8
Unknown_Area_Type
  10
201305.500
  20
4638021.000
  0
VERTEX
  8
Unknown_Area_Type
  10
201308.500
  20
4638068.500
  0
VERTEX
  8
Unknown_Area_Type
  10
201307.000
  20
4638132.500
  0
VERTEX
  8
Unknown_Area_Type
  10
201305.500
  20
4638140.000
  0
VERTEX
  8
Unknown_Area_Type
  10
201305.000
  20
4638169.000
  0
VERTEX
  8
Unknown_Area_Type
  10
201302.500
  20
4638184.500
  0
VERTEX
  8
Unknown_Area_Type
  10
201303.000
  20
4638213.500
  0
VERTEX
  8
Unknown_Area_Type
  10
201306.500
  20
4638227.000
  0
VERTEX
  8
Unknown_Area_Type
  10
201309.500
  20
4638246.500
  0
VERTEX
  8
Unknown_Area_Type
  10
201311.500
  20
4638252.000
  0
VERTEX
  8
Unknown_Area_Type
  10
201314.500
  20
4638271.500
  0
VERTEX
  8
Unknown_Area_Type
  10
201321.000
  20
4638296.500
  0
VERTEX
  8
Unknown_Area_Type
  10
201324.500
  20
4638318.000
  0
VERTEX
  8
Unknown_Area_Type
  10
201327.500
  20
4638327.000
  0
VERTEX
  8
Unknown_Area_Type
  10
201327.500
  20
4638332.500
  0
VERTEX
  8
Unknown_Area_Type
  10
201332.000
  20
4638346.500
  0
VERTEX
  8
Unknown_Area_Type
  10
201332.500
  20
4638354.000
  0
VERTEX
  8
Unknown_Area_Type
  10
201335.500
  20
4638362.500
  0
VERTEX
  8
Unknown_Area_Type
  10
201336.000
  20
4638369.000
  0
VERTEX
  8
Unknown_Area_Type
  10
201346.000
  20
4638412.500
  0
VERTEX
  8
Unknown_Area_Type
  10
201356.984
  20
4638457.082
  0
VERTEX
  8
Unknown_Area_Type
  10
206611.240
  20
4638457.082
  0
SEQEND
  8
Unknown_Area_Type
  0
INSERT
  8
FeatureAttribs
  2
FEATURE
  41
1
  42
1
  43
1
  50
0
  10
204275.608
  20
4636787.765
 66
1
  0
ATTRIB
  8
FeatureAttribs
 70
0
  1
PNOA-H_AMS_1956-57_33k_ES_PAN_2
  2
NAME
  10
204275.608
  20
4636787.765
 40
21.11793
  0
SEQEND
  0
POLYLINE
  8
Unknown_Area_Type
  70
1
  66
1
  0
VERTEX
  8
Unknown_Area_Type
  10
206558.624
  20
4637311.393
  0
VERTEX
  8
Unknown_Area_Type
  10
206499.500
  20
4636024.000
  0
VERTEX
  8
Unknown_Area_Type
  10
206499.000
  20
4636017.000
  0
VERTEX
  8
Unknown_Area_Type
  10
206496.500
  20
4636016.500
  0
VERTEX
  8
Unknown_Area_Type
  10
204318.500
  20
4635866.500
  0
VERTEX
  8
Unknown_Area_Type
  10
201950.500
  20
4636945.500
  0
VERTEX
  8
Unknown_Area_Type
  10
201943.000
  20
4636946.500
  0
VERTEX
  8
Unknown_Area_Type
  10
201920.000
  20
4636946.500
  0
VERTEX
  8
Unknown_Area_Type
  10
201909.500
  20
4636946.000
  0
VERTEX
  8
Unknown_Area_Type
  10
201900.500
  20
4636944.000
  0
VERTEX
  8
Unknown_Area_Type
  10
201877.000
  20
4636943.500
  0
VERTEX
  8
Unknown_Area_Type
  10
201844.500
  20
4636945.000
  0
VERTEX
  8
Unknown_Area_Type
  10
201816.500
  20
4636948.000
  0
VERTEX
  8
Unknown_Area_Type
  10
201762.500
  20
4636949.500
  0
VERTEX
  8
Unknown_Area_Type
  10
201617.000
  20
4636948.500
  0
VERTEX
  8
Unknown_Area_Type
  10
201612.500
  20
4636947.500
  0
VERTEX
  8
Unknown_Area_Type
  10
201577.000
  20
4636947.000
  0
VERTEX
  8
Unknown_Area_Type
  10
201569.500
  20
4636945.000
  0
VERTEX
  8
Unknown_Area_Type
  10
201532.500
  20
4636944.500
  0
VERTEX
  8
Unknown_Area_Type
  10
201508.000
  20
4636942.000
  0
VERTEX
  8
Unknown_Area_Type
  10
201426.500
  20
4636940.500
  0
VERTEX
  8
Unknown_Area_Type
  10
201414.500
  20
4636938.000
  0
VERTEX
  8
Unknown_Area_Type
  10
201395.000
  20
4636937.500
  0
VERTEX
  8
Unknown_Area_Type
  10
201383.500
  20
4636936.000
  0
VERTEX
  8
Unknown_Area_Type
  10
201368.500
  20
4636932.000
  0
VERTEX
  8
Unknown_Area_Type
  10
201341.000
  20
4636928.500
  0
VERTEX
  8
Unknown_Area_Type
  10
201283.000
  20
4636925.500
  0
VERTEX
  8
Unknown_Area_Type
  10
201274.500
  20
4636924.000
  0
VERTEX
  8
Unknown_Area_Type
  10
201236.000
  20
4636922.500
  0
VERTEX
  8
Unknown_Area_Type
  10
201231.500
  20
4636926.500
  0
VERTEX
  8
Unknown_Area_Type
  10
201231.000
  20
4636978.000
  0
VERTEX
  8
Unknown_Area_Type
  10
201230.000
  20
4636982.500
  0
VERTEX
  8
Unknown_Area_Type
  10
201231.500
  20
4637012.000
  0
VERTEX
  8
Unknown_Area_Type
  10
201231.000
  20
4637035.500
  0
VERTEX
  8
Unknown_Area_Type
  10
201240.000
  20
4637145.000
  0
VERTEX
  8
Unknown_Area_Type
  10
201239.000
  20
4637181.000
  0
VERTEX
  8
Unknown_Area_Type
  10
201237.500
  20
4637190.500
  0
VERTEX
  8
Unknown_Area_Type
  10
201237.000
  20
4637215.500
  0
VERTEX
  8
Unknown_Area_Type
  10
201233.000
  20
4637239.000
  0
VERTEX
  8
Unknown_Area_Type
  10
201232.000
  20
4637252.500
  0
VERTEX
  8
Unknown_Area_Type
  10
201230.000
  20
4637258.000
  0
VERTEX
  8
Unknown_Area_Type
  10
201226.500
  20
4637289.500
  0
VERTEX
  8
Unknown_Area_Type
  10
201224.500
  20
4637366.500
  0
VERTEX
  8
Unknown_Area_Type
  10
201218.000
  20
4637424.500
  0
VERTEX
  8
Unknown_Area_Type
  10
201215.500
  20
4637434.500
  0
VERTEX
  8
Unknown_Area_Type
  10
201214.000
  20
4637452.500
  0
VERTEX
  8
Unknown_Area_Type
  10
201212.500
  20
4637456.000
  0
VERTEX
  8
Unknown_Area_Type
  10
201212.500
  20
4637465.500
  0
VERTEX
  8
Unknown_Area_Type
  10
201210.000
  20
4637476.500
  0
VERTEX
  8
Unknown_Area_Type
  10
201206.500
  20
4637507.000
  0
VERTEX
  8
Unknown_Area_Type
  10
201208.000
  20
4637515.500
  0
VERTEX
  8
Unknown_Area_Type
  10
201206.500
  20
4637530.000
  0
VERTEX
  8
Unknown_Area_Type
  10
201206.682
  20
4637533.768
  0
VERTEX
  8
Unknown_Area_Type
  10
204172.271
  20
4637409.903
  0
VERTEX
  8
Unknown_Area_Type
  10
206558.624
  20
4637311.393
  0
SEQEND
  8
Unknown_Area_Type
  0
INSERT
  8
FeatureAttribs
  2
FEATURE
  41
1
  42
1
  43
1
  50
0
  10
204275.608
  20
4636787.765
 66
1
  0
ATTRIB
  8
FeatureAttribs
 70
0
  1
PNOA-H_AMS_1956-57_33k_ES_PAN_2
  2
NAME
  10
204275.608
  20
4636787.765
 40
21.11793
  0
SEQEND
  0
POLYLINE
  8
Unknown_Area_Type
  70
1
  66
1
  0
VERTEX
  8
Unknown_Area_Type
  10
206558.624
  20
4637311.393
  0
VERTEX
  8
Unknown_Area_Type
  10
204172.271
  20
4637409.903
  0
VERTEX
  8
Unknown_Area_Type
  10
201206.682
  20
4637533.768
  0
VERTEX
  8
Unknown_Area_Type
  10
201206.500
  20
4637530.000
  0
VERTEX
  8
Unknown_Area_Type
  10
201208.000
  20
4637515.500
  0
VERTEX
  8
Unknown_Area_Type
  10
201206.500
  20
4637507.000
  0
VERTEX
  8
Unknown_Area_Type
  10
201210.000
  20
4637476.500
  0
VERTEX
  8
Unknown_Area_Type
  10
201212.500
  20
4637465.500
  0
VERTEX
  8
Unknown_Area_Type
  10
201212.500
  20
4637456.000
  0
VERTEX
  8
Unknown_Area_Type
  10
201214.000
  20
4637452.500
  0
VERTEX
  8
Unknown_Area_Type
  10
201215.500
  20
4637434.500
  0
VERTEX
  8
Unknown_Area_Type
  10
201218.000
  20
4637424.500
  0
VERTEX
  8
Unknown_Area_Type
  10
201224.500
  20
4637366.500
  0
VERTEX
  8
Unknown_Area_Type
  10
201226.500
  20
4637289.500
  0
VERTEX
  8
Unknown_Area_Type
  10
201230.000
  20
4637258.000
  0
VERTEX
  8
Unknown_Area_Type
  10
201232.000
  20
4637252.500
  0
VERTEX
  8
Unknown_Area_Type
  10
201233.000
  20
4637239.000
  0
VERTEX
  8
Unknown_Area_Type
  10
201237.000
  20
4637215.500
  0
VERTEX
  8
Unknown_Area_Type
  10
201237.500
  20
4637190.500
  0
VERTEX
  8
Unknown_Area_Type
  10
201239.000
  20
4637181.000
  0
VERTEX
  8
Unknown_Area_Type
  10
201240.000
  20
4637145.000
  0
VERTEX
  8
Unknown_Area_Type
  10
201231.000
  20
4637035.500
  0
VERTEX
  8
Unknown_Area_Type
  10
201231.500
  20
4637012.000
  0
VERTEX
  8
Unknown_Area_Type
  10
201230.000
  20
4636982.500
  0
VERTEX
  8
Unknown_Area_Type
  10
201231.000
  20
4636978.000
  0
VERTEX
  8
Unknown_Area_Type
  10
201231.500
  20
4636926.500
  0
VERTEX
  8
Unknown_Area_Type
  10
201236.000
  20
4636922.500
  0
VERTEX
  8
Unknown_Area_Type
  10
201274.500
  20
4636924.000
  0
VERTEX
  8
Unknown_Area_Type
  10
201283.000
  20
4636925.500
  0
VERTEX
  8
Unknown_Area_Type
  10
201341.000
  20
4636928.500
  0
VERTEX
  8
Unknown_Area_Type
  10
201368.500
  20
4636932.000
  0
VERTEX
  8
Unknown_Area_Type
  10
201383.500
  20
4636936.000
  0
VERTEX
  8
Unknown_Area_Type
  10
201395.000
  20
4636937.500
  0
VERTEX
  8
Unknown_Area_Type
  10
201414.500
  20
4636938.000
  0
VERTEX
  8
Unknown_Area_Type
  10
201426.500
  20
4636940.500
  0
VERTEX
  8
Unknown_Area_Type
  10
201508.000
  20
4636942.000
  0
VERTEX
  8
Unknown_Area_Type
  10
201532.500
  20
4636944.500
  0
VERTEX
  8
Unknown_Area_Type
  10
201569.500
  20
4636945.000
  0
VERTEX
  8
Unknown_Area_Type
  10
201577.000
  20
4636947.000
  0
VERTEX
  8
Unknown_Area_Type
  10
201612.500
  20
4636947.500
  0
VERTEX
  8
Unknown_Area_Type
  10
201617.000
  20
4636948.500
  0
VERTEX
  8
Unknown_Area_Type
  10
201762.500
  20
4636949.500
  0
VERTEX
  8
Unknown_Area_Type
  10
201816.500
  20
4636948.000
  0
VERTEX
  8
Unknown_Area_Type
  10
201844.500
  20
4636945.000
  0
VERTEX
  8
Unknown_Area_Type
  10
201877.000
  20
4636943.500
  0
VERTEX
  8
Unknown_Area_Type
  10
201900.500
  20
4636944.000
  0
VERTEX
  8
Unknown_Area_Type
  10
201909.500
  20
4636946.000
  0
VERTEX
  8
Unknown_Area_Type
  10
201920.000
  20
4636946.500
  0
VERTEX
  8
Unknown_Area_Type
  10
201943.000
  20
4636946.500
  0
VERTEX
  8
Unknown_Area_Type
  10
201950.500
  20
4636945.500
  0
VERTEX
  8
Unknown_Area_Type
  10
204318.500
  20
4635866.500
  0
VERTEX
  8
Unknown_Area_Type
  10
206496.500
  20
4636016.500
  0
VERTEX
  8
Unknown_Area_Type
  10
206499.000
  20
4636017.000
  0
VERTEX
  8
Unknown_Area_Type
  10
206499.500
  20
4636024.000
  0
VERTEX
  8
Unknown_Area_Type
  10
206558.624
  20
4637311.393
  0
SEQEND
  8
Unknown_Area_Type
  0
INSERT
  8
FeatureAttribs
  2
FEATURE
  41
1
  42
1
  43
1
  50
0
  10
203392.144
  20
4626063.275
 66
1
  0
ATTRIB
  8
FeatureAttribs
 70
0
  1
PNOA-H_AMS_1956-57_33k_ES_PAN_2
  2
NAME
  10
203392.144
  20
4626063.275
 40
21.11793
  0
SEQEND
  0
POLYLINE
  8
Unknown_Area_Type
  70
1
  66
1
  0
VERTEX
  8
Unknown_Area_Type
  10
202383.000
  20
4627215.000
  0
VERTEX
  8
Unknown_Area_Type
  10
202385.000
  20
4627215.500
  0
VERTEX
  8
Unknown_Area_Type
  10
203006.000
  20
4627380.000
  0
VERTEX
  8
Unknown_Area_Type
  10
204393.000
  20
4626874.500
  0
VERTEX
  8
Unknown_Area_Type
  10
204195.500
  20
4622544.500
  0
VERTEX
  8
Unknown_Area_Type
  10
204014.500
  20
4622529.000
  0
VERTEX
  8
Unknown_Area_Type
  10
204013.000
  20
4623579.000
  0
VERTEX
  8
Unknown_Area_Type
  10
204012.000
  20
4623609.500
  0
VERTEX
  8
Unknown_Area_Type
  10
204010.000
  20
4623612.500
  0
VERTEX
  8
Unknown_Area_Type
  10
204010.000
  20
4623953.000
  0
VERTEX
  8
Unknown_Area_Type
  10
204008.000
  20
4623955.000
  0
VERTEX
  8
Unknown_Area_Type
  10
204002.000
  20
4623955.000
  0
VERTEX
  8
Unknown_Area_Type
  10
204000.000
  20
4623957.000
  0
VERTEX
  8
Unknown_Area_Type
  10
204000.000
  20
4624998.000
  0
VERTEX
  8
Unknown_Area_Type
  10
204005.000
  20
4625002.000
  0
VERTEX
  8
Unknown_Area_Type
  10
204005.000
  20
4625283.000
  0
VERTEX
  8
Unknown_Area_Type
  10
204000.000
  20
4625287.000
  0
VERTEX
  8
Unknown_Area_Type
  10
204000.000
  20
4625528.000
  0
VERTEX
  8
Unknown_Area_Type
  10
204005.000
  20
4625532.000
  0
VERTEX
  8
Unknown_Area_Type
  10
204005.000
  20
4625723.000
  0
VERTEX
  8
Unknown_Area_Type
  10
204000.000
  20
4625727.000
  0
VERTEX
  8
Unknown_Area_Type
  10
204000.000
  20
4625993.000
  0
VERTEX
  8
Unknown_Area_Type
  10
203998.000
  20
4625995.000
  0
VERTEX
  8
Unknown_Area_Type
  10
202087.000
  20
4625995.000
  0
VERTEX
  8
Unknown_Area_Type
  10
202083.000
  20
4626000.000
  0
VERTEX
  8
Unknown_Area_Type
  10
202032.000
  20
4626000.000
  0
VERTEX
  8
Unknown_Area_Type
  10
202028.000
  20
4626005.000
  0
VERTEX
  8
Unknown_Area_Type
  10
202012.000
  20
4626005.000
  0
VERTEX
  8
Unknown_Area_Type
  10
202010.000
  20
4626007.000
  0
VERTEX
  8
Unknown_Area_Type
  10
202010.000
  20
4627116.000
  0
VERTEX
  8
Unknown_Area_Type
  10
202383.000
  20
4627215.000
  0
SEQEND
  8
Unknown_Area_Type
  0
INSERT
  8
FeatureAttribs
  2
FEATURE
  41
1
  42
1
  43
1
  50
0
  10
203392.144
  20
4626063.275
 66
1
  0
ATTRIB
  8
FeatureAttribs
 70
0
  1
PNOA-H_AMS_1956-57_33k_ES_PAN_2
  2
NAME
  10
203392.144
  20
4626063.275
 40
21.11793
  0
SEQEND
  0
POLYLINE
  8
Unknown_Area_Type
  70
1
  66
1
  0
VERTEX
  8
Unknown_Area_Type
  10
202383.000
  20
4627215.000
  0
VERTEX
  8
Unknown_Area_Type
  10
202010.000
  20
4627116.000
  0
VERTEX
  8
Unknown_Area_Type
  10
202010.000
  20
4626007.000
  0
VERTEX
  8
Unknown_Area_Type
  10
202012.000
  20
4626005.000
  0
VERTEX
  8
Unknown_Area_Type
  10
202028.000
  20
4626005.000
  0
VERTEX
  8
Unknown_Area_Type
  10
202032.000
  20
4626000.000
  0
VERTEX
  8
Unknown_Area_Type
  10
202083.000
  20
4626000.000
  0
VERTEX
  8
Unknown_Area_Type
  10
202087.000
  20
4625995.000
  0
VERTEX
  8
Unknown_Area_Type
  10
203998.000
  20
4625995.000
  0
VERTEX
  8
Unknown_Area_Type
  10
204000.000
  20
4625993.000
  0
VERTEX
  8
Unknown_Area_Type
  10
204000.000
  20
4625727.000
  0
VERTEX
  8
Unknown_Area_Type
  10
204005.000
  20
4625723.000
  0
VERTEX
  8
Unknown_Area_Type
  10
204005.000
  20
4625532.000
  0
VERTEX
  8
Unknown_Area_Type
  10
204000.000
  20
4625528.000
  0
VERTEX
  8
Unknown_Area_Type
  10
204000.000
  20
4625287.000
  0
VERTEX
  8
Unknown_Area_Type
  10
204005.000
  20
4625283.000
  0
VERTEX
  8
Unknown_Area_Type
  10
204005.000
  20
4625002.000
  0
VERTEX
  8
Unknown_Area_Type
  10
204000.000
  20
4624998.000
  0
VERTEX
  8
Unknown_Area_Type
  10
204000.000
  20
4623957.000
  0
VERTEX
  8
Unknown_Area_Type
  10
204002.000
  20
4623955.000
  0
VERTEX
  8
Unknown_Area_Type
  10
204008.000
  20
4623955.000
  0
VERTEX
  8
Unknown_Area_Type
  10
204010.000
  20
4623953.000
  0
VERTEX
  8
Unknown_Area_Type
  10
204010.000
  20
4623612.500
  0
VERTEX
  8
Unknown_Area_Type
  10
204012.000
  20
4623609.500
  0
VERTEX
  8
Unknown_Area_Type
  10
204013.000
  20
4623579.000
  0
VERTEX
  8
Unknown_Area_Type
  10
204014.500
  20
4622529.000
  0
VERTEX
  8
Unknown_Area_Type
  10
204195.500
  20
4622544.500
  0
VERTEX
  8
Unknown_Area_Type
  10
204393.000
  20
4626874.500
  0
VERTEX
  8
Unknown_Area_Type
  10
203006.000
  20
4627380.000
  0
VERTEX
  8
Unknown_Area_Type
  10
202385.000
  20
4627215.500
  0
VERTEX
  8
Unknown_Area_Type
  10
202383.000
  20
4627215.000
  0
SEQEND
  8
Unknown_Area_Type
  0
INSERT
  8
FeatureAttribs
  2
FEATURE
  41
1
  42
1
  43
1
  50
0
  10
205372.500
  20
4631065.000
 66
1
  0
ATTRIB
  8
FeatureAttribs
 70
0
  1
PNOA-H_AMS_1956-57_33k_ES_PAN_2
  2
NAME
  10
205372.500
  20
4631065.000
 40
21.11793
  0
SEQEND
  0
POLYLINE
  8
Unknown_Area_Type
  70
1
  66
1
  0
VERTEX
  8
Unknown_Area_Type
  10
205374.500
  20
4631074.500
  0
VERTEX
  8
Unknown_Area_Type
  10
205375.500
  20
4631074.000
  0
VERTEX
  8
Unknown_Area_Type
  10
205379.500
  20
4631069.500
  0
VERTEX
  8
Unknown_Area_Type
  10
205379.500
  20
4631060.500
  0
VERTEX
  8
Unknown_Area_Type
  10
205374.500
  20
4631055.500
  0
VERTEX
  8
Unknown_Area_Type
  10
205369.500
  20
4631056.000
  0
VERTEX
  8
Unknown_Area_Type
  10
205365.500
  20
4631060.500
  0
VERTEX
  8
Unknown_Area_Type
  10
205365.500
  20
4631069.500
  0
VERTEX
  8
Unknown_Area_Type
  10
205369.500
  20
4631074.000
  0
VERTEX
  8
Unknown_Area_Type
  10
205374.500
  20
4631074.500
  0
SEQEND
  8
Unknown_Area_Type
  0
INSERT
  8
FeatureAttribs
  2
FEATURE
  41
1
  42
1
  43
1
  50
0
  10
205372.500
  20
4631065.000
 66
1
  0
ATTRIB
  8
FeatureAttribs
 70
0
  1
PNOA-H_AMS_1956-57_33k_ES_PAN_2
  2
NAME
  10
205372.500
  20
4631065.000
 40
21.11793
  0
SEQEND
  0
POLYLINE
  8
Unknown_Area_Type
  70
1
  66
1
  0
VERTEX
  8
Unknown_Area_Type
  10
205374.500
  20
4631074.500
  0
VERTEX
  8
Unknown_Area_Type
  10
205369.500
  20
4631074.000
  0
VERTEX
  8
Unknown_Area_Type
  10
205365.500
  20
4631069.500
  0
VERTEX
  8
Unknown_Area_Type
  10
205365.500
  20
4631060.500
  0
VERTEX
  8
Unknown_Area_Type
  10
205369.500
  20
4631056.000
  0
VERTEX
  8
Unknown_Area_Type
  10
205374.500
  20
4631055.500
  0
VERTEX
  8
Unknown_Area_Type
  10
205379.500
  20
4631060.500
  0
VERTEX
  8
Unknown_Area_Type
  10
205379.500
  20
4631069.500
  0
VERTEX
  8
Unknown_Area_Type
  10
205375.500
  20
4631074.000
  0
VERTEX
  8
Unknown_Area_Type
  10
205374.500
  20
4631074.500
  0
SEQEND
  8
Unknown_Area_Type
  0
INSERT
  8
FeatureAttribs
  2
FEATURE
  41
1
  42
1
  43
1
  50
0
  10
204536.782
  20
4629180.337
 66
1
  0
ATTRIB
  8
FeatureAttribs
 70
0
  1
PNOA-H_AMS_1956-57_33k_ES_PAN_2
  2
NAME
  10
204536.782
  20
4629180.337
 40
21.11793
  0
SEQEND
  0
POLYLINE
  8
Unknown_Area_Type
  70
1
  66
1
  0
VERTEX
  8
Unknown_Area_Type
  10
204434.000
  20
4631417.000
  0
VERTEX
  8
Unknown_Area_Type
  10
206109.000
  20
4631001.000
  0
VERTEX
  8
Unknown_Area_Type
  10
206109.500
  20
4630996.500
  0
VERTEX
  8
Unknown_Area_Type
  10
205681.000
  20
4627164.000
  0
VERTEX
  8
Unknown_Area_Type
  10
204393.000
  20
4626874.000
  0
VERTEX
  8
Unknown_Area_Type
  10
203010.000
  20
4627378.000
  0
VERTEX
  8
Unknown_Area_Type
  10
203006.000
  20
4627379.500
  0
VERTEX
  8
Unknown_Area_Type
  10
203005.500
  20
4627382.500
  0
VERTEX
  8
Unknown_Area_Type
  10
203370.500
  20
4631166.000
  0
VERTEX
  8
Unknown_Area_Type
  10
204138.500
  20
4631490.500
  0
VERTEX
  8
Unknown_Area_Type
  10
204431.500
  20
4631417.500
  0
VERTEX
  8
Unknown_Area_Type
  10
204434.000
  20
4631417.000
  0
SEQEND
  8
Unknown_Area_Type
  0
INSERT
  8
FeatureAttribs
  2
FEATURE
  41
1
  42
1
  43
1
  50
0
  10
204536.782
  20
4629180.337
 66
1
  0
ATTRIB
  8
FeatureAttribs
 70
0
  1
PNOA-H_AMS_1956-57_33k_ES_PAN_2
  2
NAME
  10
204536.782
  20
4629180.337
 40
21.11793
  0
SEQEND
  0
POLYLINE
  8
Unknown_Area_Type
  70
1
  66
1
  0
VERTEX
  8
Unknown_Area_Type
  10
204434.000
  20
4631417.000
  0
VERTEX
  8
Unknown_Area_Type
  10
204431.500
  20
4631417.500
  0
VERTEX
  8
Unknown_Area_Type
  10
204138.500
  20
4631490.500
  0
VERTEX
  8
Unknown_Area_Type
  10
203370.500
  20
4631166.000
  0
VERTEX
  8
Unknown_Area_Type
  10
203005.500
  20
4627382.500
  0
VERTEX
  8
Unknown_Area_Type
  10
203006.000
  20
4627379.500
  0
VERTEX
  8
Unknown_Area_Type
  10
203010.000
  20
4627378.000
  0
VERTEX
  8
Unknown_Area_Type
  10
204393.000
  20
4626874.000
  0
VERTEX
  8
Unknown_Area_Type
  10
205681.000
  20
4627164.000
  0
VERTEX
  8
Unknown_Area_Type
  10
206109.500
  20
4630996.500
  0
VERTEX
  8
Unknown_Area_Type
  10
206109.000
  20
4631001.000
  0
VERTEX
  8
Unknown_Area_Type
  10
204434.000
  20
4631417.000
  0
SEQEND
  8
Unknown_Area_Type
  0
INSERT
  8
FeatureAttribs
  2
FEATURE
  41
1
  42
1
  43
1
  50
0
  10
207462.102
  20
4628944.266
 66
1
  0
ATTRIB
  8
FeatureAttribs
 70
0
  1
PNOA-H_AMS_1956-57_33k_ES_PAN_2
  2
NAME
  10
207462.102
  20
4628944.266
 40
21.11793
  0
SEQEND
  0
POLYLINE
  8
Unknown_Area_Type
  70
1
  66
1
  0
VERTEX
  8
Unknown_Area_Type
  10
207632.761
  20
4631104.687
  0
VERTEX
  8
Unknown_Area_Type
  10
207632.761
  20
4626811.010
  0
VERTEX
  8
Unknown_Area_Type
  10
207199.955
  20
4626711.164
  0
VERTEX
  8
Unknown_Area_Type
  10
207253.282
  20
4628013.012
  0
VERTEX
  8
Unknown_Area_Type
  10
207348.086
  20
4630326.514
  0
VERTEX
  8
Unknown_Area_Type
  10
207382.967
  20
4631177.368
  0
VERTEX
  8
Unknown_Area_Type
  10
207632.761
  20
4631104.687
  0
SEQEND
  8
Unknown_Area_Type
  0
INSERT
  8
FeatureAttribs
  2
FEATURE
  41
1
  42
1
  43
1
  50
0
  10
206609.230
  20
4628953.013
 66
1
  0
ATTRIB
  8
FeatureAttribs
 70
0
  1
PNOA-H_AMS_1956-57_33k_ES_PAN_2
  2
NAME
  10
206609.230
  20
4628953.013
 40
21.11793
  0
SEQEND
  0
POLYLINE
  8
Unknown_Area_Type
  70
1
  66
1
  0
VERTEX
  8
Unknown_Area_Type
  10
207382.967
  20
4631177.368
  0
VERTEX
  8
Unknown_Area_Type
  10
207348.086
  20
4630326.514
  0
VERTEX
  8
Unknown_Area_Type
  10
207253.282
  20
4628013.012
  0
VERTEX
  8
Unknown_Area_Type
  10
207199.955
  20
4626711.164
  0
VERTEX
  8
Unknown_Area_Type
  10
206969.500
  20
4626658.000
  0
VERTEX
  8
Unknown_Area_Type
  10
205681.000
  20
4627164.000
  0
VERTEX
  8
Unknown_Area_Type
  10
206109.500
  20
4631000.500
  0
VERTEX
  8
Unknown_Area_Type
  10
206479.500
  20
4631139.000
  0
VERTEX
  8
Unknown_Area_Type
  10
206481.000
  20
4631139.500
  0
VERTEX
  8
Unknown_Area_Type
  10
206911.500
  20
4631300.500
  0
VERTEX
  8
Unknown_Area_Type
  10
206934.000
  20
4631308.000
  0
VERTEX
  8
Unknown_Area_Type
  10
207382.967
  20
4631177.368
  0
SEQEND
  8
Unknown_Area_Type
  0
INSERT
  8
FeatureAttribs
  2
FEATURE
  41
1
  42
1
  43
1
  50
0
  10
206609.230
  20
4628953.013
 66
1
  0
ATTRIB
  8
FeatureAttribs
 70
0
  1
PNOA-H_AMS_1956-57_33k_ES_PAN_2
  2
NAME
  10
206609.230
  20
4628953.013
 40
21.11793
  0
SEQEND
  0
POLYLINE
  8
Unknown_Area_Type
  70
1
  66
1
  0
VERTEX
  8
Unknown_Area_Type
  10
207382.967
  20
4631177.368
  0
VERTEX
  8
Unknown_Area_Type
  10
206934.000
  20
4631308.000
  0
VERTEX
  8
Unknown_Area_Type
  10
206911.500
  20
4631300.500
  0
VERTEX
  8
Unknown_Area_Type
  10
206481.000
  20
4631139.500
  0
VERTEX
  8
Unknown_Area_Type
  10
206479.500
  20
4631139.000
  0
VERTEX
  8
Unknown_Area_Type
  10
206109.500
  20
4631000.500
  0
VERTEX
  8
Unknown_Area_Type
  10
205681.000
  20
4627164.000
  0
VERTEX
  8
Unknown_Area_Type
  10
206969.500
  20
4626658.000
  0
VERTEX
  8
Unknown_Area_Type
  10
207199.955
  20
4626711.164
  0
VERTEX
  8
Unknown_Area_Type
  10
207253.282
  20
4628013.012
  0
VERTEX
  8
Unknown_Area_Type
  10
207348.086
  20
4630326.514
  0
VERTEX
  8
Unknown_Area_Type
  10
207382.967
  20
4631177.368
  0
SEQEND
  8
Unknown_Area_Type
  0
INSERT
  8
FeatureAttribs
  2
FEATURE
  41
1
  42
1
  43
1
  50
0
  10
205567.816
  20
4624684.028
 66
1
  0
ATTRIB
  8
FeatureAttribs
 70
0
  1
PNOA-H_AMS_1956-57_33k_ES_PAN_2
  2
NAME
  10
205567.816
  20
4624684.028
 40
21.11793
  0
SEQEND
  0
POLYLINE
  8
Unknown_Area_Type
  70
1
  66
1
  0
VERTEX
  8
Unknown_Area_Type
  10
204393.000
  20
4626874.000
  0
VERTEX
  8
Unknown_Area_Type
  10
204429.500
  20
4626882.500
  0
VERTEX
  8
Unknown_Area_Type
  10
204431.500
  20
4626883.000
  0
VERTEX
  8
Unknown_Area_Type
  10
205682.000
  20
4627164.000
  0
VERTEX
  8
Unknown_Area_Type
  10
206969.500
  20
4626658.500
  0
VERTEX
  8
Unknown_Area_Type
  10
206787.000
  20
4622603.500
  0
VERTEX
  8
Unknown_Area_Type
  10
206786.000
  20
4622583.500
  0
VERTEX
  8
Unknown_Area_Type
  10
206784.500
  20
4622583.000
  0
VERTEX
  8
Unknown_Area_Type
  10
204903.500
  20
4622233.500
  0
VERTEX
  8
Unknown_Area_Type
  10
204899.500
  20
4622233.500
  0
VERTEX
  8
Unknown_Area_Type
  10
204195.500
  20
4622544.500
  0
VERTEX
  8
Unknown_Area_Type
  10
204393.000
  20
4626874.000
  0
SEQEND
  8
Unknown_Area_Type
  0
INSERT
  8
FeatureAttribs
  2
FEATURE
  41
1
  42
1
  43
1
  50
0
  10
205567.816
  20
4624684.028
 66
1
  0
ATTRIB
  8
FeatureAttribs
 70
0
  1
PNOA-H_AMS_1956-57_33k_ES_PAN_2
  2
NAME
  10
205567.816
  20
4624684.028
 40
21.11793
  0
SEQEND
  0
POLYLINE
  8
Unknown_Area_Type
  70
1
  66
1
  0
VERTEX
  8
Unknown_Area_Type
  10
204393.000
  20
4626874.000
  0
VERTEX
  8
Unknown_Area_Type
  10
204195.500
  20
4622544.500
  0
VERTEX
  8
Unknown_Area_Type
  10
204899.500
  20
4622233.500
  0
VERTEX
  8
Unknown_Area_Type
  10
204903.500
  20
4622233.500
  0
VERTEX
  8
Unknown_Area_Type
  10
206784.500
  20
4622583.000
  0
VERTEX
  8
Unknown_Area_Type
  10
206786.000
  20
4622583.500
  0
VERTEX
  8
Unknown_Area_Type
  10
206787.000
  20
4622603.500
  0
VERTEX
  8
Unknown_Area_Type
  10
206969.500
  20
4626658.500
  0
VERTEX
  8
Unknown_Area_Type
  10
205682.000
  20
4627164.000
  0
VERTEX
  8
Unknown_Area_Type
  10
204431.500
  20
4626883.000
  0
VERTEX
  8
Unknown_Area_Type
  10
204429.500
  20
4626882.500
  0
VERTEX
  8
Unknown_Area_Type
  10
204393.000
  20
4626874.000
  0
SEQEND
  8
Unknown_Area_Type
  0
INSERT
  8
FeatureAttribs
  2
FEATURE
  41
1
  42
1
  43
1
  50
0
  10
206995.272
  20
4624602.706
 66
1
  0
ATTRIB
  8
FeatureAttribs
 70
0
  1
PNOA-H_AMS_1956-57_33k_ES_PAN_2
  2
NAME
  10
206995.272
  20
4624602.706
 40
21.11793
  0
SEQEND
  0
POLYLINE
  8
Unknown_Area_Type
  70
1
  66
1
  0
VERTEX
  8
Unknown_Area_Type
  10
207199.959
  20
4626711.254
  0
VERTEX
  8
Unknown_Area_Type
  10
207158.516
  20
4625699.515
  0
VERTEX
  8
Unknown_Area_Type
  10
207063.789
  20
4623386.023
  0
VERTEX
  8
Unknown_Area_Type
  10
207027.287
  20
4622494.159
  0
VERTEX
  8
Unknown_Area_Type
  10
206786.000
  20
4622583.500
  0
VERTEX
  8
Unknown_Area_Type
  10
206969.500
  20
4626658.000
  0
VERTEX
  8
Unknown_Area_Type
  10
207199.959
  20
4626711.254
  0
SEQEND
  8
Unknown_Area_Type
  0
INSERT
  8
FeatureAttribs
  2
FEATURE
  41
1
  42
1
  43
1
  50
0
  10
206995.272
  20
4624602.706
 66
1
  0
ATTRIB
  8
FeatureAttribs
 70
0
  1
PNOA-H_AMS_1956-57_33k_ES_PAN_2
  2
NAME
  10
206995.272
  20
4624602.706
 40
21.11793
  0
SEQEND
  0
POLYLINE
  8
Unknown_Area_Type
  70
1
  66
1
  0
VERTEX
  8
Unknown_Area_Type
  10
207199.959
  20
4626711.254
  0
VERTEX
  8
Unknown_Area_Type
  10
207158.516
  20
4625699.515
  0
VERTEX
  8
Unknown_Area_Type
  10
207063.789
  20
4623386.023
  0
VERTEX
  8
Unknown_Area_Type
  10
207027.287
  20
4622494.159
  0
VERTEX
  8
Unknown_Area_Type
  10
206786.000
  20
4622583.500
  0
VERTEX
  8
Unknown_Area_Type
  10
206969.500
  20
4626658.000
  0
VERTEX
  8
Unknown_Area_Type
  10
207199.959
  20
4626711.254
  0
SEQEND
  8
Unknown_Area_Type
  0
INSERT
  8
FeatureAttribs
  2
FEATURE
  41
1
  42
1
  43
1
  50
0
  10
207371.913
  20
4624540.618
 66
1
  0
ATTRIB
  8
FeatureAttribs
 70
0
  1
PNOA-H_AMS_1956-57_33k_ES_PAN_2
  2
NAME
  10
207371.913
  20
4624540.618
 40
21.11793
  0
SEQEND
  0
POLYLINE
  8
Unknown_Area_Type
  70
1
  66
1
  0
VERTEX
  8
Unknown_Area_Type
  10
207632.761
  20
4626811.264
  0
VERTEX
  8
Unknown_Area_Type
  10
207632.761
  20
4622269.972
  0
VERTEX
  8
Unknown_Area_Type
  10
207027.287
  20
4622494.159
  0
VERTEX
  8
Unknown_Area_Type
  10
207063.789
  20
4623386.023
  0
VERTEX
  8
Unknown_Area_Type
  10
207158.516
  20
4625699.515
  0
VERTEX
  8
Unknown_Area_Type
  10
207199.959
  20
4626711.254
  0
VERTEX
  8
Unknown_Area_Type
  10
207632.761
  20
4626811.264
  0
SEQEND
  8
Unknown_Area_Type
  0
INSERT
  8
FeatureAttribs
  2
FEATURE
  41
1
  42
1
  43
1
  50
0
  10
201697.116
  20
4629648.294
 66
1
  0
ATTRIB
  8
FeatureAttribs
 70
0
  1
PNOA-H_AMS_1956-57_33k_ES_PAN_2
  2
NAME
  10
201697.116
  20
4629648.294
 40
21.11793
  0
SEQEND
  0
POLYLINE
  8
Unknown_Area_Type
  70
1
  66
1
  0
VERTEX
  8
Unknown_Area_Type
  10
200220.000
  20
4632004.651
  0
VERTEX
  8
Unknown_Area_Type
  10
202383.500
  20
4631428.500
  0
VERTEX
  8
Unknown_Area_Type
  10
202386.000
  20
4631428.000
  0
VERTEX
  8
Unknown_Area_Type
  10
203370.500
  20
4631166.000
  0
VERTEX
  8
Unknown_Area_Type
  10
203005.500
  20
4627380.000
  0
VERTEX
  8
Unknown_Area_Type
  10
202010.000
  20
4627116.000
  0
VERTEX
  8
Unknown_Area_Type
  10
202010.000
  20
4627898.000
  0
VERTEX
  8
Unknown_Area_Type
  10
202008.000
  20
4627900.000
  0
VERTEX
  8
Unknown_Area_Type
  10
200020.000
  20
4627900.000
  0
VERTEX
  8
Unknown_Area_Type
  10
200020.000
  20
4628410.000
  0
VERTEX
  8
Unknown_Area_Type
  10
200220.000
  20
4628410.000
  0
VERTEX
  8
Unknown_Area_Type
  10
200220.000
  20
4632004.651
  0
SEQEND
  8
Unknown_Area_Type
  0
INSERT
  8
FeatureAttribs
  2
FEATURE
  41
1
  42
1
  43
1
  50
0
  10
201697.116
  20
4629648.294
 66
1
  0
ATTRIB
  8
FeatureAttribs
 70
0
  1
PNOA-H_AMS_1956-57_33k_ES_PAN_2
  2
NAME
  10
201697.116
  20
4629648.294
 40
21.11793
  0
SEQEND
  0
POLYLINE
  8
Unknown_Area_Type
  70
1
  66
1
  0
VERTEX
  8
Unknown_Area_Type
  10
200220.000
  20
4632004.651
  0
VERTEX
  8
Unknown_Area_Type
  10
200220.000
  20
4628410.000
  0
VERTEX
  8
Unknown_Area_Type
  10
200020.000
  20
4628410.000
  0
VERTEX
  8
Unknown_Area_Type
  10
200020.000
  20
4627900.000
  0
VERTEX
  8
Unknown_Area_Type
  10
202008.000
  20
4627900.000
  0
VERTEX
  8
Unknown_Area_Type
  10
202010.000
  20
4627898.000
  0
VERTEX
  8
Unknown_Area_Type
  10
202010.000
  20
4627116.000
  0
VERTEX
  8
Unknown_Area_Type
  10
203005.500
  20
4627380.000
  0
VERTEX
  8
Unknown_Area_Type
  10
203370.500
  20
4631166.000
  0
VERTEX
  8
Unknown_Area_Type
  10
202386.000
  20
4631428.000
  0
VERTEX
  8
Unknown_Area_Type
  10
202383.500
  20
4631428.500
  0
VERTEX
  8
Unknown_Area_Type
  10
200220.000
  20
4632004.651
  0
SEQEND
  8
Unknown_Area_Type
  0
INSERT
  8
FeatureAttribs
  2
FEATURE
  41
1
  42
1
  43
1
  50
0
  10
204458.713
  20
4621198.712
 66
1
  0
ATTRIB
  8
FeatureAttribs
 70
0
  1
PNOA-H_AMS_1956-57_33k_ES_PAN_2
  2
NAME
  10
204458.713
  20
4621198.712
 40
21.11793
  0
SEQEND
  0
POLYLINE
  8
Unknown_Area_Type
  70
1
  66
1
  0
VERTEX
  8
Unknown_Area_Type
  10
204010.000
  20
4623593.000
  0
VERTEX
  8
Unknown_Area_Type
  10
204012.500
  20
4623593.000
  0
VERTEX
  8
Unknown_Area_Type
  10
204013.000
  20
4623579.000
  0
VERTEX
  8
Unknown_Area_Type
  10
204014.500
  20
4622529.000
  0
VERTEX
  8
Unknown_Area_Type
  10
204196.500
  20
4622544.500
  0
VERTEX
  8
Unknown_Area_Type
  10
204901.000
  20
4622233.500
  0
VERTEX
  8
Unknown_Area_Type
  10
204959.500
  20
4620004.000
  0
VERTEX
  8
Unknown_Area_Type
  10
204959.500
  20
4619995.000
  0
VERTEX
  8
Unknown_Area_Type
  10
204012.000
  20
4619995.000
  0
VERTEX
  8
Unknown_Area_Type
  10
204010.000
  20
4619997.000
  0
VERTEX
  8
Unknown_Area_Type
  10
204010.000
  20
4621353.000
  0
VERTEX
  8
Unknown_Area_Type
  10
204012.000
  20
4621355.000
  0
VERTEX
  8
Unknown_Area_Type
  10
204018.000
  20
4621355.000
  0
VERTEX
  8
Unknown_Area_Type
  10
204020.000
  20
4621357.000
  0
VERTEX
  8
Unknown_Area_Type
  10
204020.000
  20
4621548.000
  0
VERTEX
  8
Unknown_Area_Type
  10
204018.000
  20
4621550.000
  0
VERTEX
  8
Unknown_Area_Type
  10
204012.000
  20
4621550.000
  0
VERTEX
  8
Unknown_Area_Type
  10
204010.000
  20
4621552.000
  0
VERTEX
  8
Unknown_Area_Type
  10
204010.000
  20
4623593.000
  0
SEQEND
  8
Unknown_Area_Type
  0
INSERT
  8
FeatureAttribs
  2
FEATURE
  41
1
  42
1
  43
1
  50
0
  10
204458.713
  20
4621198.712
 66
1
  0
ATTRIB
  8
FeatureAttribs
 70
0
  1
PNOA-H_AMS_1956-57_33k_ES_PAN_2
  2
NAME
  10
204458.713
  20
4621198.712
 40
21.11793
  0
SEQEND
  0
POLYLINE
  8
Unknown_Area_Type
  70
1
  66
1
  0
VERTEX
  8
Unknown_Area_Type
  10
204010.000
  20
4623593.000
  0
VERTEX
  8
Unknown_Area_Type
  10
204010.000
  20
4621552.000
  0
VERTEX
  8
Unknown_Area_Type
  10
204012.000
  20
4621550.000
  0
VERTEX
  8
Unknown_Area_Type
  10
204018.000
  20
4621550.000
  0
VERTEX
  8
Unknown_Area_Type
  10
204020.000
  20
4621548.000
  0
VERTEX
  8
Unknown_Area_Type
  10
204020.000
  20
4621357.000
  0
VERTEX
  8
Unknown_Area_Type
  10
204018.000
  20
4621355.000
  0
VERTEX
  8
Unknown_Area_Type
  10
204012.000
  20
4621355.000
  0
VERTEX
  8
Unknown_Area_Type
  10
204010.000
  20
4621353.000
  0
VERTEX
  8
Unknown_Area_Type
  10
204010.000
  20
4619997.000
  0
VERTEX
  8
Unknown_Area_Type
  10
204012.000
  20
4619995.000
  0
VERTEX
  8
Unknown_Area_Type
  10
204959.500
  20
4619995.000
  0
VERTEX
  8
Unknown_Area_Type
  10
204959.500
  20
4620004.000
  0
VERTEX
  8
Unknown_Area_Type
  10
204901.000
  20
4622233.500
  0
VERTEX
  8
Unknown_Area_Type
  10
204196.500
  20
4622544.500
  0
VERTEX
  8
Unknown_Area_Type
  10
204014.500
  20
4622529.000
  0
VERTEX
  8
Unknown_Area_Type
  10
204013.000
  20
4623579.000
  0
VERTEX
  8
Unknown_Area_Type
  10
204012.500
  20
4623593.000
  0
VERTEX
  8
Unknown_Area_Type
  10
204010.000
  20
4623593.000
  0
SEQEND
  8
Unknown_Area_Type
  0
INSERT
  8
FeatureAttribs
  2
FEATURE
  41
1
  42
1
  43
1
  50
0
  10
204011.000
  20
4623602.750
 66
1
  0
ATTRIB
  8
FeatureAttribs
 70
0
  1
PNOA-H_AMS_1956-57_33k_ES_PAN_2
  2
NAME
  10
204011.000
  20
4623602.750
 40
21.11793
  0
SEQEND
  0
POLYLINE
  8
Unknown_Area_Type
  70
1
  66
1
  0
VERTEX
  8
Unknown_Area_Type
  10
204010.000
  20
4623612.500
  0
VERTEX
  8
Unknown_Area_Type
  10
204012.000
  20
4623609.500
  0
VERTEX
  8
Unknown_Area_Type
  10
204012.000
  20
4623593.000
  0
VERTEX
  8
Unknown_Area_Type
  10
204010.000
  20
4623593.000
  0
VERTEX
  8
Unknown_Area_Type
  10
204010.000
  20
4623612.500
  0
SEQEND
  8
Unknown_Area_Type
  0
INSERT
  8
FeatureAttribs
  2
FEATURE
  41
1
  42
1
  43
1
  50
0
  10
204011.000
  20
4623602.750
 66
1
  0
ATTRIB
  8
FeatureAttribs
 70
0
  1
PNOA-H_AMS_1956-57_33k_ES_PAN_2
  2
NAME
  10
204011.000
  20
4623602.750
 40
21.11793
  0
SEQEND
  0
POLYLINE
  8
Unknown_Area_Type
  70
1
  66
1
  0
VERTEX
  8
Unknown_Area_Type
  10
204010.000
  20
4623612.500
  0
VERTEX
  8
Unknown_Area_Type
  10
204010.000
  20
4623593.000
  0
VERTEX
  8
Unknown_Area_Type
  10
204012.000
  20
4623593.000
  0
VERTEX
  8
Unknown_Area_Type
  10
204012.000
  20
4623609.500
  0
VERTEX
  8
Unknown_Area_Type
  10
204010.000
  20
4623612.500
  0
SEQEND
  8
Unknown_Area_Type
  0
INSERT
  8
FeatureAttribs
  2
FEATURE
  41
1
  42
1
  43
1
  50
0
  10
207291.812
  20
4620626.751
 66
1
  0
ATTRIB
  8
FeatureAttribs
 70
0
  1
PNOA-H_AMS_1956-57_33k_ES_PAN_2
  2
NAME
  10
207291.812
  20
4620626.751
 40
21.11793
  0
SEQEND
  0
POLYLINE
  8
Unknown_Area_Type
  70
1
  66
1
  0
VERTEX
  8
Unknown_Area_Type
  10
207632.761
  20
4622270.326
  0
VERTEX
  8
Unknown_Area_Type
  10
207632.761
  20
4618759.035
  0
VERTEX
  8
Unknown_Area_Type
  10
206874.937
  20
4618759.035
  0
VERTEX
  8
Unknown_Area_Type
  10
206874.452
  20
4618759.054
  0
VERTEX
  8
Unknown_Area_Type
  10
206969.101
  20
4621072.536
  0
VERTEX
  8
Unknown_Area_Type
  10
207027.299
  20
4622494.467
  0
VERTEX
  8
Unknown_Area_Type
  10
207632.761
  20
4622270.326
  0
SEQEND
  8
Unknown_Area_Type
  0
INSERT
  8
FeatureAttribs
  2
FEATURE
  41
1
  42
1
  43
1
  50
0
  10
206874.573
  20
4618759.045
 66
1
  0
ATTRIB
  8
FeatureAttribs
 70
0
  1
PNOA-H_AMS_1956-57_33k_ES_PAN_2
  2
NAME
  10
206874.573
  20
4618759.045
 40
21.11793
  0
SEQEND
  0
POLYLINE
  8
Unknown_Area_Type
  70
1
  66
1
  0
VERTEX
  8
Unknown_Area_Type
  10
206874.452
  20
4618759.054
  0
VERTEX
  8
Unknown_Area_Type
  10
206874.937
  20
4618759.035
  0
VERTEX
  8
Unknown_Area_Type
  10
206874.452
  20
4618759.035
  0
VERTEX
  8
Unknown_Area_Type
  10
206874.452
  20
4618759.054
  0
SEQEND
  8
Unknown_Area_Type
  0
INSERT
  8
FeatureAttribs
  2
FEATURE
  41
1
  42
1
  43
1
  50
0
  10
206063.853
  20
4620895.757
 66
1
  0
ATTRIB
  8
FeatureAttribs
 70
0
  1
PNOA-H_AMS_1956-57_33k_ES_PAN_2
  2
NAME
  10
206063.853
  20
4620895.757
 40
21.11793
  0
SEQEND
  0
POLYLINE
  8
Unknown_Area_Type
  70
1
  66
1
  0
VERTEX
  8
Unknown_Area_Type
  10
207027.299
  20
4622494.467
  0
VERTEX
  8
Unknown_Area_Type
  10
206969.101
  20
4621072.536
  0
VERTEX
  8
Unknown_Area_Type
  10
206874.452
  20
4618759.054
  0
VERTEX
  8
Unknown_Area_Type
  10
206000.000
  20
4618795.035
  0
VERTEX
  8
Unknown_Area_Type
  10
206000.000
  20
4619993.000
  0
VERTEX
  8
Unknown_Area_Type
  10
205998.000
  20
4619995.000
  0
VERTEX
  8
Unknown_Area_Type
  10
204959.500
  20
4619995.000
  0
VERTEX
  8
Unknown_Area_Type
  10
204901.000
  20
4622233.500
  0
VERTEX
  8
Unknown_Area_Type
  10
206781.500
  20
4622583.000
  0
VERTEX
  8
Unknown_Area_Type
  10
206784.500
  20
4622583.500
  0
VERTEX
  8
Unknown_Area_Type
  10
206789.500
  20
4622582.500
  0
VERTEX
  8
Unknown_Area_Type
  10
207027.299
  20
4622494.467
  0
SEQEND
  8
Unknown_Area_Type
  0
INSERT
  8
FeatureAttribs
  2
FEATURE
  41
1
  42
1
  43
1
  50
0
  10
206063.853
  20
4620895.757
 66
1
  0
ATTRIB
  8
FeatureAttribs
 70
0
  1
PNOA-H_AMS_1956-57_33k_ES_PAN_2
  2
NAME
  10
206063.853
  20
4620895.757
 40
21.11793
  0
SEQEND
  0
POLYLINE
  8
Unknown_Area_Type
  70
1
  66
1
  0
VERTEX
  8
Unknown_Area_Type
  10
207027.299
  20
4622494.467
  0
VERTEX
  8
Unknown_Area_Type
  10
206789.500
  20
4622582.500
  0
VERTEX
  8
Unknown_Area_Type
  10
206784.500
  20
4622583.500
  0
VERTEX
  8
Unknown_Area_Type
  10
206781.500
  20
4622583.000
  0
VERTEX
  8
Unknown_Area_Type
  10
204901.000
  20
4622233.500
  0
VERTEX
  8
Unknown_Area_Type
  10
204959.500
  20
4619995.000
  0
VERTEX
  8
Unknown_Area_Type
  10
205998.000
  20
4619995.000
  0
VERTEX
  8
Unknown_Area_Type
  10
206000.000
  20
4619993.000
  0
VERTEX
  8
Unknown_Area_Type
  10
206000.000
  20
4618795.035
  0
VERTEX
  8
Unknown_Area_Type
  10
206874.452
  20
4618759.054
  0
VERTEX
  8
Unknown_Area_Type
  10
206969.101
  20
4621072.536
  0
VERTEX
  8
Unknown_Area_Type
  10
207027.299
  20
4622494.467
  0
SEQEND
  8
Unknown_Area_Type
  0
INSERT
  8
FeatureAttribs
  2
FEATURE
  41
1
  42
1
  43
1
  50
0
  10
207554.237
  20
4633439.379
 66
1
  0
ATTRIB
  8
FeatureAttribs
 70
0
  1
PNOA-H_AMS_1956-57_33k_ES_PAN_2
  2
NAME
  10
207554.237
  20
4633439.379
 40
21.11793
  0
SEQEND
  0
POLYLINE
  8
Unknown_Area_Type
  70
1
  66
1
  0
VERTEX
  8
Unknown_Area_Type
  10
207632.761
  20
4635774.536
  0
VERTEX
  8
Unknown_Area_Type
  10
207632.761
  20
4631104.223
  0
VERTEX
  8
Unknown_Area_Type
  10
207382.949
  20
4631176.919
  0
VERTEX
  8
Unknown_Area_Type
  10
207442.930
  20
4632640.022
  0
VERTEX
  8
Unknown_Area_Type
  10
207537.812
  20
4634953.535
  0
VERTEX
  8
Unknown_Area_Type
  10
207571.298
  20
4635769.706
  0
VERTEX
  8
Unknown_Area_Type
  10
207632.761
  20
4635774.536
  0
SEQEND
  8
Unknown_Area_Type
  0
INSERT
  8
FeatureAttribs
  2
FEATURE
  41
1
  42
1
  43
1
  50
0
  10
207250.835
  20
4633499.802
 66
1
  0
ATTRIB
  8
FeatureAttribs
 70
0
  1
PNOA-H_AMS_1956-57_33k_ES_PAN_2
  2
NAME
  10
207250.835
  20
4633499.802
 40
21.11793
  0
SEQEND
  0
POLYLINE
  8
Unknown_Area_Type
  70
1
  66
1
  0
VERTEX
  8
Unknown_Area_Type
  10
207571.298
  20
4635769.706
  0
VERTEX
  8
Unknown_Area_Type
  10
207537.812
  20
4634953.535
  0
VERTEX
  8
Unknown_Area_Type
  10
207442.930
  20
4632640.022
  0
VERTEX
  8
Unknown_Area_Type
  10
207382.949
  20
4631176.919
  0
VERTEX
  8
Unknown_Area_Type
  10
206932.500
  20
4631308.000
  0
VERTEX
  8
Unknown_Area_Type
  10
207110.500
  20
4635733.500
  0
VERTEX
  8
Unknown_Area_Type
  10
207571.298
  20
4635769.706
  0
SEQEND
  8
Unknown_Area_Type
  0
INSERT
  8
FeatureAttribs
  2
FEATURE
  41
1
  42
1
  43
1
  50
0
  10
207250.835
  20
4633499.802
 66
1
  0
ATTRIB
  8
FeatureAttribs
 70
0
  1
PNOA-H_AMS_1956-57_33k_ES_PAN_2
  2
NAME
  10
207250.835
  20
4633499.802
 40
21.11793
  0
SEQEND
  0
POLYLINE
  8
Unknown_Area_Type
  70
1
  66
1
  0
VERTEX
  8
Unknown_Area_Type
  10
207571.298
  20
4635769.706
  0
VERTEX
  8
Unknown_Area_Type
  10
207110.500
  20
4635733.500
  0
VERTEX
  8
Unknown_Area_Type
  10
206932.500
  20
4631308.000
  0
VERTEX
  8
Unknown_Area_Type
  10
207382.949
  20
4631176.919
  0
VERTEX
  8
Unknown_Area_Type
  10
207442.930
  20
4632640.022
  0
VERTEX
  8
Unknown_Area_Type
  10
207537.812
  20
4634953.535
  0
VERTEX
  8
Unknown_Area_Type
  10
207571.298
  20
4635769.706
  0
SEQEND
  8
Unknown_Area_Type
  0
INSERT
  8
FeatureAttribs
  2
FEATURE
  41
1
  42
1
  43
1
  50
0
  10
202392.457
  20
4633993.030
 66
1
  0
ATTRIB
  8
FeatureAttribs
 70
0
  1
PNOA-H_AMS_1956-57_33k_ES_PAN_2
  2
NAME
  10
202392.457
  20
4633993.030
 40
21.11793
  0
SEQEND
  0
POLYLINE
  8
Unknown_Area_Type
  70
1
  66
1
  0
VERTEX
  8
Unknown_Area_Type
  10
200720.000
  20
4636357.000
  0
VERTEX
  8
Unknown_Area_Type
  10
200720.000
  20
4636388.000
  0
VERTEX
  8
Unknown_Area_Type
  10
200725.000
  20
4636392.000
  0
VERTEX
  8
Unknown_Area_Type
  10
200725.000
  20
4636428.000
  0
VERTEX
  8
Unknown_Area_Type
  10
200730.000
  20
4636432.000
  0
VERTEX
  8
Unknown_Area_Type
  10
200730.000
  20
4636463.000
  0
VERTEX
  8
Unknown_Area_Type
  10
200735.000
  20
4636467.000
  0
VERTEX
  8
Unknown_Area_Type
  10
200735.000
  20
4636498.000
  0
VERTEX
  8
Unknown_Area_Type
  10
200740.000
  20
4636502.000
  0
VERTEX
  8
Unknown_Area_Type
  10
200740.000
  20
4636533.000
  0
VERTEX
  8
Unknown_Area_Type
  10
200745.000
  20
4636537.000
  0
VERTEX
  8
Unknown_Area_Type
  10
200745.000
  20
4636568.000
  0
VERTEX
  8
Unknown_Area_Type
  10
200750.000
  20
4636572.000
  0
VERTEX
  8
Unknown_Area_Type
  10
200750.000
  20
4636608.000
  0
VERTEX
  8
Unknown_Area_Type
  10
200755.000
  20
4636612.000
  0
VERTEX
  8
Unknown_Area_Type
  10
200755.000
  20
4636643.000
  0
VERTEX
  8
Unknown_Area_Type
  10
200760.000
  20
4636647.000
  0
VERTEX
  8
Unknown_Area_Type
  10
200760.000
  20
4636678.000
  0
VERTEX
  8
Unknown_Area_Type
  10
200765.000
  20
4636682.000
  0
VERTEX
  8
Unknown_Area_Type
  10
200765.000
  20
4636713.000
  0
VERTEX
  8
Unknown_Area_Type
  10
200770.000
  20
4636717.000
  0
VERTEX
  8
Unknown_Area_Type
  10
200770.000
  20
4636748.000
  0
VERTEX
  8
Unknown_Area_Type
  10
200775.000
  20
4636752.000
  0
VERTEX
  8
Unknown_Area_Type
  10
200775.000
  20
4636788.000
  0
VERTEX
  8
Unknown_Area_Type
  10
200780.000
  20
4636792.000
  0
VERTEX
  8
Unknown_Area_Type
  10
200780.000
  20
4636823.000
  0
VERTEX
  8
Unknown_Area_Type
  10
200785.000
  20
4636827.000
  0
VERTEX
  8
Unknown_Area_Type
  10
200785.000
  20
4636858.000
  0
VERTEX
  8
Unknown_Area_Type
  10
200790.000
  20
4636862.000
  0
VERTEX
  8
Unknown_Area_Type
  10
200790.000
  20
4636893.000
  0
VERTEX
  8
Unknown_Area_Type
  10
200795.000
  20
4636897.000
  0
VERTEX
  8
Unknown_Area_Type
  10
200795.500
  20
4636928.500
  0
VERTEX
  8
Unknown_Area_Type
  10
200818.500
  20
4636930.000
  0
VERTEX
  8
Unknown_Area_Type
  10
200827.000
  20
4636928.500
  0
VERTEX
  8
Unknown_Area_Type
  10
200838.500
  20
4636928.500
  0
VERTEX
  8
Unknown_Area_Type
  10
200877.000
  20
4636925.000
  0
VERTEX
  8
Unknown_Area_Type
  10
200891.500
  20
4636922.000
  0
VERTEX
  8
Unknown_Area_Type
  10
200904.000
  20
4636922.500
  0
VERTEX
  8
Unknown_Area_Type
  10
200906.500
  20
4636921.500
  0
VERTEX
  8
Unknown_Area_Type
  10
200916.000
  20
4636921.500
  0
VERTEX
  8
Unknown_Area_Type
  10
200925.500
  20
4636923.500
  0
VERTEX
  8
Unknown_Area_Type
  10
200985.000
  20
4636925.500
  0
VERTEX
  8
Unknown_Area_Type
  10
200995.000
  20
4636927.500
  0
VERTEX
  8
Unknown_Area_Type
  10
201019.000
  20
4636927.000
  0
VERTEX
  8
Unknown_Area_Type
  10
201024.000
  20
4636925.500
  0
VERTEX
  8
Unknown_Area_Type
  10
201061.500
  20
4636925.500
  0
VERTEX
  8
Unknown_Area_Type
  10
201069.500
  20
4636927.000
  0
VERTEX
  8
Unknown_Area_Type
  10
201083.500
  20
4636927.000
  0
VERTEX
  8
Unknown_Area_Type
  10
201096.000
  20
4636925.500
  0
VERTEX
  8
Unknown_Area_Type
  10
201106.000
  20
4636926.500
  0
VERTEX
  8
Unknown_Area_Type
  10
201202.000
  20
4636925.000
  0
VERTEX
  8
Unknown_Area_Type
  10
201232.000
  20
4636926.500
  0
VERTEX
  8
Unknown_Area_Type
  10
201236.000
  20
4636922.500
  0
VERTEX
  8
Unknown_Area_Type
  10
201240.000
  20
4636922.500
  0
VERTEX
  8
Unknown_Area_Type
  10
201341.000
  20
4636928.500
  0
VERTEX
  8
Unknown_Area_Type
  10
201368.500
  20
4636932.000
  0
VERTEX
  8
Unknown_Area_Type
  10
201383.500
  20
4636936.000
  0
VERTEX
  8
Unknown_Area_Type
  10
201395.000
  20
4636937.500
  0
VERTEX
  8
Unknown_Area_Type
  10
201414.500
  20
4636938.000
  0
VERTEX
  8
Unknown_Area_Type
  10
201426.500
  20
4636940.500
  0
VERTEX
  8
Unknown_Area_Type
  10
201508.000
  20
4636942.000
  0
VERTEX
  8
Unknown_Area_Type
  10
201542.500
  20
4636945.000
  0
VERTEX
  8
Unknown_Area_Type
  10
201569.500
  20
4636945.000
  0
VERTEX
  8
Unknown_Area_Type
  10
201584.500
  20
4636947.500
  0
VERTEX
  8
Unknown_Area_Type
  10
201691.500
  20
4636949.500
  0
VERTEX
  8
Unknown_Area_Type
  10
201762.500
  20
4636949.500
  0
VERTEX
  8
Unknown_Area_Type
  10
201816.500
  20
4636948.000
  0
VERTEX
  8
Unknown_Area_Type
  10
201844.500
  20
4636945.000
  0
VERTEX
  8
Unknown_Area_Type
  10
201877.000
  20
4636943.500
  0
VERTEX
  8
Unknown_Area_Type
  10
201900.500
  20
4636944.000
  0
VERTEX
  8
Unknown_Area_Type
  10
201909.500
  20
4636946.000
  0
VERTEX
  8
Unknown_Area_Type
  10
201920.000
  20
4636946.500
  0
VERTEX
  8
Unknown_Area_Type
  10
201949.000
  20
4636946.000
  0
VERTEX
  8
Unknown_Area_Type
  10
204318.500
  20
4635867.000
  0
VERTEX
  8
Unknown_Area_Type
  10
204236.500
  20
4633870.000
  0
VERTEX
  8
Unknown_Area_Type
  10
204236.500
  20
4633864.000
  0
VERTEX
  8
Unknown_Area_Type
  10
204139.000
  20
4631490.500
  0
VERTEX
  8
Unknown_Area_Type
  10
203371.500
  20
4631166.000
  0
VERTEX
  8
Unknown_Area_Type
  10
200220.000
  20
4632004.911
  0
VERTEX
  8
Unknown_Area_Type
  10
200220.000
  20
4633030.000
  0
VERTEX
  8
Unknown_Area_Type
  10
200410.000
  20
4633030.000
  0
VERTEX
  8
Unknown_Area_Type
  10
200410.000
  20
4634070.000
  0
VERTEX
  8
Unknown_Area_Type
  10
200423.000
  20
4634070.000
  0
VERTEX
  8
Unknown_Area_Type
  10
200427.000
  20
4634075.000
  0
VERTEX
  8
Unknown_Area_Type
  10
200473.000
  20
4634075.000
  0
VERTEX
  8
Unknown_Area_Type
  10
200477.000
  20
4634080.000
  0
VERTEX
  8
Unknown_Area_Type
  10
200628.000
  20
4634080.000
  0
VERTEX
  8
Unknown_Area_Type
  10
200632.000
  20
4634075.000
  0
VERTEX
  8
Unknown_Area_Type
  10
200833.000
  20
4634075.000
  0
VERTEX
  8
Unknown_Area_Type
  10
200837.000
  20
4634070.000
  0
VERTEX
  8
Unknown_Area_Type
  10
200928.000
  20
4634070.000
  0
VERTEX
  8
Unknown_Area_Type
  10
200932.000
  20
4634065.000
  0
VERTEX
  8
Unknown_Area_Type
  10
201153.000
  20
4634065.000
  0
VERTEX
  8
Unknown_Area_Type
  10
201157.000
  20
4634070.000
  0
VERTEX
  8
Unknown_Area_Type
  10
201168.000
  20
4634070.000
  0
VERTEX
  8
Unknown_Area_Type
  10
201172.000
  20
4634075.000
  0
VERTEX
  8
Unknown_Area_Type
  10
201183.000
  20
4634075.000
  0
VERTEX
  8
Unknown_Area_Type
  10
201190.000
  20
4634082.000
  0
VERTEX
  8
Unknown_Area_Type
  10
201190.000
  20
4634123.000
  0
VERTEX
  8
Unknown_Area_Type
  10
201195.000
  20
4634127.000
  0
VERTEX
  8
Unknown_Area_Type
  10
201195.000
  20
4634253.000
  0
VERTEX
  8
Unknown_Area_Type
  10
201200.000
  20
4634257.000
  0
VERTEX
  8
Unknown_Area_Type
  10
201200.000
  20
4634383.000
  0
VERTEX
  8
Unknown_Area_Type
  10
201205.000
  20
4634387.000
  0
VERTEX
  8
Unknown_Area_Type
  10
201205.000
  20
4634513.000
  0
VERTEX
  8
Unknown_Area_Type
  10
201210.000
  20
4634517.000
  0
VERTEX
  8
Unknown_Area_Type
  10
201210.000
  20
4634643.000
  0
VERTEX
  8
Unknown_Area_Type
  10
201215.000
  20
4634647.000
  0
VERTEX
  8
Unknown_Area_Type
  10
201215.000
  20
4634778.000
  0
VERTEX
  8
Unknown_Area_Type
  10
201220.000
  20
4634782.000
  0
VERTEX
  8
Unknown_Area_Type
  10
201220.000
  20
4634908.000
  0
VERTEX
  8
Unknown_Area_Type
  10
201225.000
  20
4634912.000
  0
VERTEX
  8
Unknown_Area_Type
  10
201225.000
  20
4635038.000
  0
VERTEX
  8
Unknown_Area_Type
  10
201230.000
  20
4635042.000
  0
VERTEX
  8
Unknown_Area_Type
  10
201230.000
  20
4635208.000
  0
VERTEX
  8
Unknown_Area_Type
  10
201203.000
  20
4635235.000
  0
VERTEX
  8
Unknown_Area_Type
  10
201197.000
  20
4635235.000
  0
VERTEX
  8
Unknown_Area_Type
  10
201173.000
  20
4635260.000
  0
VERTEX
  8
Unknown_Area_Type
  10
201167.000
  20
4635260.000
  0
VERTEX
  8
Unknown_Area_Type
  10
201163.000
  20
4635265.000
  0
VERTEX
  8
Unknown_Area_Type
  10
200877.000
  20
4635265.000
  0
VERTEX
  8
Unknown_Area_Type
  10
200873.000
  20
4635260.000
  0
VERTEX
  8
Unknown_Area_Type
  10
200662.000
  20
4635260.000
  0
VERTEX
  8
Unknown_Area_Type
  10
200658.000
  20
4635265.000
  0
VERTEX
  8
Unknown_Area_Type
  10
200622.000
  20
4635265.000
  0
VERTEX
  8
Unknown_Area_Type
  10
200618.000
  20
4635270.000
  0
VERTEX
  8
Unknown_Area_Type
  10
200587.000
  20
4635270.000
  0
VERTEX
  8
Unknown_Area_Type
  10
200583.000
  20
4635275.000
  0
VERTEX
  8
Unknown_Area_Type
  10
200577.000
  20
4635275.000
  0
VERTEX
  8
Unknown_Area_Type
  10
200570.000
  20
4635282.000
  0
VERTEX
  8
Unknown_Area_Type
  10
200570.000
  20
4635313.000
  0
VERTEX
  8
Unknown_Area_Type
  10
200575.000
  20
4635317.000
  0
VERTEX
  8
Unknown_Area_Type
  10
200575.000
  20
4635348.000
  0
VERTEX
  8
Unknown_Area_Type
  10
200580.000
  20
4635352.000
  0
VERTEX
  8
Unknown_Area_Type
  10
200580.000
  20
4635383.000
  0
VERTEX
  8
Unknown_Area_Type
  10
200585.000
  20
4635387.000
  0
VERTEX
  8
Unknown_Area_Type
  10
200585.000
  20
4635418.000
  0
VERTEX
  8
Unknown_Area_Type
  10
200590.000
  20
4635422.000
  0
VERTEX
  8
Unknown_Area_Type
  10
200590.000
  20
4635453.000
  0
VERTEX
  8
Unknown_Area_Type
  10
200595.000
  20
4635457.000
  0
VERTEX
  8
Unknown_Area_Type
  10
200595.000
  20
4635493.000
  0
VERTEX
  8
Unknown_Area_Type
  10
200600.000
  20
4635497.000
  0
VERTEX
  8
Unknown_Area_Type
  10
200600.000
  20
4635528.000
  0
VERTEX
  8
Unknown_Area_Type
  10
200605.000
  20
4635532.000
  0
VERTEX
  8
Unknown_Area_Type
  10
200605.000
  20
4635563.000
  0
VERTEX
  8
Unknown_Area_Type
  10
200610.000
  20
4635567.000
  0
VERTEX
  8
Unknown_Area_Type
  10
200610.000
  20
4635598.000
  0
VERTEX
  8
Unknown_Area_Type
  10
200615.000
  20
4635602.000
  0
VERTEX
  8
Unknown_Area_Type
  10
200615.000
  20
4635633.000
  0
VERTEX
  8
Unknown_Area_Type
  10
200620.000
  20
4635637.000
  0
VERTEX
  8
Unknown_Area_Type
  10
200620.000
  20
4635673.000
  0
VERTEX
  8
Unknown_Area_Type
  10
200625.000
  20
4635677.000
  0
VERTEX
  8
Unknown_Area_Type
  10
200625.000
  20
4635708.000
  0
VERTEX
  8
Unknown_Area_Type
  10
200630.000
  20
4635712.000
  0
VERTEX
  8
Unknown_Area_Type
  10
200630.000
  20
4635743.000
  0
VERTEX
  8
Unknown_Area_Type
  10
200635.000
  20
4635747.000
  0
VERTEX
  8
Unknown_Area_Type
  10
200635.000
  20
4635778.000
  0
VERTEX
  8
Unknown_Area_Type
  10
200640.000
  20
4635782.000
  0
VERTEX
  8
Unknown_Area_Type
  10
200640.000
  20
4635813.000
  0
VERTEX
  8
Unknown_Area_Type
  10
200645.000
  20
4635817.000
  0
VERTEX
  8
Unknown_Area_Type
  10
200645.000
  20
4635853.000
  0
VERTEX
  8
Unknown_Area_Type
  10
200650.000
  20
4635857.000
  0
VERTEX
  8
Unknown_Area_Type
  10
200650.000
  20
4635888.000
  0
VERTEX
  8
Unknown_Area_Type
  10
200655.000
  20
4635892.000
  0
VERTEX
  8
Unknown_Area_Type
  10
200655.000
  20
4635923.000
  0
VERTEX
  8
Unknown_Area_Type
  10
200660.000
  20
4635927.000
  0
VERTEX
  8
Unknown_Area_Type
  10
200660.000
  20
4635958.000
  0
VERTEX
  8
Unknown_Area_Type
  10
200665.000
  20
4635962.000
  0
VERTEX
  8
Unknown_Area_Type
  10
200665.000
  20
4635993.000
  0
VERTEX
  8
Unknown_Area_Type
  10
200670.000
  20
4635997.000
  0
VERTEX
  8
Unknown_Area_Type
  10
200670.000
  20
4636033.000
  0
VERTEX
  8
Unknown_Area_Type
  10
200675.000
  20
4636037.000
  0
VERTEX
  8
Unknown_Area_Type
  10
200675.000
  20
4636068.000
  0
VERTEX
  8
Unknown_Area_Type
  10
200680.000
  20
4636072.000
  0
VERTEX
  8
Unknown_Area_Type
  10
200680.000
  20
4636103.000
  0
VERTEX
  8
Unknown_Area_Type
  10
200685.000
  20
4636107.000
  0
VERTEX
  8
Unknown_Area_Type
  10
200685.000
  20
4636138.000
  0
VERTEX
  8
Unknown_Area_Type
  10
200690.000
  20
4636142.000
  0
VERTEX
  8
Unknown_Area_Type
  10
200690.000
  20
4636173.000
  0
VERTEX
  8
Unknown_Area_Type
  10
200695.000
  20
4636177.000
  0
VERTEX
  8
Unknown_Area_Type
  10
200695.000
  20
4636208.000
  0
VERTEX
  8
Unknown_Area_Type
  10
200700.000
  20
4636212.000
  0
VERTEX
  8
Unknown_Area_Type
  10
200700.000
  20
4636248.000
  0
VERTEX
  8
Unknown_Area_Type
  10
200705.000
  20
4636252.000
  0
VERTEX
  8
Unknown_Area_Type
  10
200705.000
  20
4636283.000
  0
VERTEX
  8
Unknown_Area_Type
  10
200710.000
  20
4636287.000
  0
VERTEX
  8
Unknown_Area_Type
  10
200710.000
  20
4636318.000
  0
VERTEX
  8
Unknown_Area_Type
  10
200715.000
  20
4636322.000
  0
VERTEX
  8
Unknown_Area_Type
  10
200715.000
  20
4636353.000
  0
VERTEX
  8
Unknown_Area_Type
  10
200720.000
  20
4636357.000
  0
SEQEND
  8
Unknown_Area_Type
  0
INSERT
  8
FeatureAttribs
  2
FEATURE
  41
1
  42
1
  43
1
  50
0
  10
202392.457
  20
4633993.030
 66
1
  0
ATTRIB
  8
FeatureAttribs
 70
0
  1
PNOA-H_AMS_1956-57_33k_ES_PAN_2
  2
NAME
  10
202392.457
  20
4633993.030
 40
21.11793
  0
SEQEND
  0
POLYLINE
  8
Unknown_Area_Type
  70
1
  66
1
  0
VERTEX
  8
Unknown_Area_Type
  10
200720.000
  20
4636357.000
  0
VERTEX
  8
Unknown_Area_Type
  10
200715.000
  20
4636353.000
  0
VERTEX
  8
Unknown_Area_Type
  10
200715.000
  20
4636322.000
  0
VERTEX
  8
Unknown_Area_Type
  10
200710.000
  20
4636318.000
  0
VERTEX
  8
Unknown_Area_Type
  10
200710.000
  20
4636287.000
  0
VERTEX
  8
Unknown_Area_Type
  10
200705.000
  20
4636283.000
  0
VERTEX
  8
Unknown_Area_Type
  10
200705.000
  20
4636252.000
  0
VERTEX
  8
Unknown_Area_Type
  10
200700.000
  20
4636248.000
  0
VERTEX
  8
Unknown_Area_Type
  10
200700.000
  20
4636212.000
  0
VERTEX
  8
Unknown_Area_Type
  10
200695.000
  20
4636208.000
  0
VERTEX
  8
Unknown_Area_Type
  10
200695.000
  20
4636177.000
  0
VERTEX
  8
Unknown_Area_Type
  10
200690.000
  20
4636173.000
  0
VERTEX
  8
Unknown_Area_Type
  10
200690.000
  20
4636142.000
  0
VERTEX
  8
Unknown_Area_Type
  10
200685.000
  20
4636138.000
  0
VERTEX
  8
Unknown_Area_Type
  10
200685.000
  20
4636107.000
  0
VERTEX
  8
Unknown_Area_Type
  10
200680.000
  20
4636103.000
  0
VERTEX
  8
Unknown_Area_Type
  10
200680.000
  20
4636072.000
  0
VERTEX
  8
Unknown_Area_Type
  10
200675.000
  20
4636068.000
  0
VERTEX
  8
Unknown_Area_Type
  10
200675.000
  20
4636037.000
  0
VERTEX
  8
Unknown_Area_Type
  10
200670.000
  20
4636033.000
  0
VERTEX
  8
Unknown_Area_Type
  10
200670.000
  20
4635997.000
  0
VERTEX
  8
Unknown_Area_Type
  10
200665.000
  20
4635993.000
  0
VERTEX
  8
Unknown_Area_Type
  10
200665.000
  20
4635962.000
  0
VERTEX
  8
Unknown_Area_Type
  10
200660.000
  20
4635958.000
  0
VERTEX
  8
Unknown_Area_Type
  10
200660.000
  20
4635927.000
  0
VERTEX
  8
Unknown_Area_Type
  10
200655.000
  20
4635923.000
  0
VERTEX
  8
Unknown_Area_Type
  10
200655.000
  20
4635892.000
  0
VERTEX
  8
Unknown_Area_Type
  10
200650.000
  20
4635888.000
  0
VERTEX
  8
Unknown_Area_Type
  10
200650.000
  20
4635857.000
  0
VERTEX
  8
Unknown_Area_Type
  10
200645.000
  20
4635853.000
  0
VERTEX
  8
Unknown_Area_Type
  10
200645.000
  20
4635817.000
  0
VERTEX
  8
Unknown_Area_Type
  10
200640.000
  20
4635813.000
  0
VERTEX
  8
Unknown_Area_Type
  10
200640.000
  20
4635782.000
  0
VERTEX
  8
Unknown_Area_Type
  10
200635.000
  20
4635778.000
  0
VERTEX
  8
Unknown_Area_Type
  10
200635.000
  20
4635747.000
  0
VERTEX
  8
Unknown_Area_Type
  10
200630.000
  20
4635743.000
  0
VERTEX
  8
Unknown_Area_Type
  10
200630.000
  20
4635712.000
  0
VERTEX
  8
Unknown_Area_Type
  10
200625.000
  20
4635708.000
  0
VERTEX
  8
Unknown_Area_Type
  10
200625.000
  20
4635677.000
  0
VERTEX
  8
Unknown_Area_Type
  10
200620.000
  20
4635673.000
  0
VERTEX
  8
Unknown_Area_Type
  10
200620.000
  20
4635637.000
  0
VERTEX
  8
Unknown_Area_Type
  10
200615.000
  20
4635633.000
  0
VERTEX
  8
Unknown_Area_Type
  10
200615.000
  20
4635602.000
  0
VERTEX
  8
Unknown_Area_Type
  10
200610.000
  20
4635598.000
  0
VERTEX
  8
Unknown_Area_Type
  10
200610.000
  20
4635567.000
  0
VERTEX
  8
Unknown_Area_Type
  10
200605.000
  20
4635563.000
  0
VERTEX
  8
Unknown_Area_Type
  10
200605.000
  20
4635532.000
  0
VERTEX
  8
Unknown_Area_Type
  10
200600.000
  20
4635528.000
  0
VERTEX
  8
Unknown_Area_Type
  10
200600.000
  20
4635497.000
  0
VERTEX
  8
Unknown_Area_Type
  10
200595.000
  20
4635493.000
  0
VERTEX
  8
Unknown_Area_Type
  10
200595.000
  20
4635457.000
  0
VERTEX
  8
Unknown_Area_Type
  10
200590.000
  20
4635453.000
  0
VERTEX
  8
Unknown_Area_Type
  10
200590.000
  20
4635422.000
  0
VERTEX
  8
Unknown_Area_Type
  10
200585.000
  20
4635418.000
  0
VERTEX
  8
Unknown_Area_Type
  10
200585.000
  20
4635387.000
  0
VERTEX
  8
Unknown_Area_Type
  10
200580.000
  20
4635383.000
  0
VERTEX
  8
Unknown_Area_Type
  10
200580.000
  20
4635352.000
  0
VERTEX
  8
Unknown_Area_Type
  10
200575.000
  20
4635348.000
  0
VERTEX
  8
Unknown_Area_Type
  10
200575.000
  20
4635317.000
  0
VERTEX
  8
Unknown_Area_Type
  10
200570.000
  20
4635313.000
  0
VERTEX
  8
Unknown_Area_Type
  10
200570.000
  20
4635282.000
  0
VERTEX
  8
Unknown_Area_Type
  10
200577.000
  20
4635275.000
  0
VERTEX
  8
Unknown_Area_Type
  10
200583.000
  20
4635275.000
  0
VERTEX
  8
Unknown_Area_Type
  10
200587.000
  20
4635270.000
  0
VERTEX
  8
Unknown_Area_Type
  10
200618.000
  20
4635270.000
  0
VERTEX
  8
Unknown_Area_Type
  10
200622.000
  20
4635265.000
  0
VERTEX
  8
Unknown_Area_Type
  10
200658.000
  20
4635265.000
  0
VERTEX
  8
Unknown_Area_Type
  10
200662.000
  20
4635260.000
  0
VERTEX
  8
Unknown_Area_Type
  10
200873.000
  20
4635260.000
  0
VERTEX
  8
Unknown_Area_Type
  10
200877.000
  20
4635265.000
  0
VERTEX
  8
Unknown_Area_Type
  10
201163.000
  20
4635265.000
  0
VERTEX
  8
Unknown_Area_Type
  10
201167.000
  20
4635260.000
  0
VERTEX
  8
Unknown_Area_Type
  10
201173.000
  20
4635260.000
  0
VERTEX
  8
Unknown_Area_Type
  10
201197.000
  20
4635235.000
  0
VERTEX
  8
Unknown_Area_Type
  10
201203.000
  20
4635235.000
  0
VERTEX
  8
Unknown_Area_Type
  10
201230.000
  20
4635208.000
  0
VERTEX
  8
Unknown_Area_Type
  10
201230.000
  20
4635042.000
  0
VERTEX
  8
Unknown_Area_Type
  10
201225.000
  20
4635038.000
  0
VERTEX
  8
Unknown_Area_Type
  10
201225.000
  20
4634912.000
  0
VERTEX
  8
Unknown_Area_Type
  10
201220.000
  20
4634908.000
  0
VERTEX
  8
Unknown_Area_Type
  10
201220.000
  20
4634782.000
  0
VERTEX
  8
Unknown_Area_Type
  10
201215.000
  20
4634778.000
  0
VERTEX
  8
Unknown_Area_Type
  10
201215.000
  20
4634647.000
  0
VERTEX
  8
Unknown_Area_Type
  10
201210.000
  20
4634643.000
  0
VERTEX
  8
Unknown_Area_Type
  10
201210.000
  20
4634517.000
  0
VERTEX
  8
Unknown_Area_Type
  10
201205.000
  20
4634513.000
  0
VERTEX
  8
Unknown_Area_Type
  10
201205.000
  20
4634387.000
  0
VERTEX
  8
Unknown_Area_Type
  10
201200.000
  20
4634383.000
  0
VERTEX
  8
Unknown_Area_Type
  10
201200.000
  20
4634257.000
  0
VERTEX
  8
Unknown_Area_Type
  10
201195.000
  20
4634253.000
  0
VERTEX
  8
Unknown_Area_Type
  10
201195.000
  20
4634127.000
  0
VERTEX
  8
Unknown_Area_Type
  10
201190.000
  20
4634123.000
  0
VERTEX
  8
Unknown_Area_Type
  10
201190.000
  20
4634082.000
  0
VERTEX
  8
Unknown_Area_Type
  10
201183.000
  20
4634075.000
  0
VERTEX
  8
Unknown_Area_Type
  10
201172.000
  20
4634075.000
  0
VERTEX
  8
Unknown_Area_Type
  10
201168.000
  20
4634070.000
  0
VERTEX
  8
Unknown_Area_Type
  10
201157.000
  20
4634070.000
  0
VERTEX
  8
Unknown_Area_Type
  10
201153.000
  20
4634065.000
  0
VERTEX
  8
Unknown_Area_Type
  10
200932.000
  20
4634065.000
  0
VERTEX
  8
Unknown_Area_Type
  10
200928.000
  20
4634070.000
  0
VERTEX
  8
Unknown_Area_Type
  10
200837.000
  20
4634070.000
  0
VERTEX
  8
Unknown_Area_Type
  10
200833.000
  20
4634075.000
  0
VERTEX
  8
Unknown_Area_Type
  10
200632.000
  20
4634075.000
  0
VERTEX
  8
Unknown_Area_Type
  10
200628.000
  20
4634080.000
  0
VERTEX
  8
Unknown_Area_Type
  10
200477.000
  20
4634080.000
  0
VERTEX
  8
Unknown_Area_Type
  10
200473.000
  20
4634075.000
  0
VERTEX
  8
Unknown_Area_Type
  10
200427.000
  20
4634075.000
  0
VERTEX
  8
Unknown_Area_Type
  10
200423.000
  20
4634070.000
  0
VERTEX
  8
Unknown_Area_Type
  10
200410.000
  20
4634070.000
  0
VERTEX
  8
Unknown_Area_Type
  10
200410.000
  20
4633030.000
  0
VERTEX
  8
Unknown_Area_Type
  10
200220.000
  20
4633030.000
  0
VERTEX
  8
Unknown_Area_Type
  10
200220.000
  20
4632004.911
  0
VERTEX
  8
Unknown_Area_Type
  10
203371.500
  20
4631166.000
  0
VERTEX
  8
Unknown_Area_Type
  10
204139.000
  20
4631490.500
  0
VERTEX
  8
Unknown_Area_Type
  10
204236.500
  20
4633864.000
  0
VERTEX
  8
Unknown_Area_Type
  10
204236.500
  20
4633870.000
  0
VERTEX
  8
Unknown_Area_Type
  10
204318.500
  20
4635867.000
  0
VERTEX
  8
Unknown_Area_Type
  10
201949.000
  20
4636946.000
  0
VERTEX
  8
Unknown_Area_Type
  10
201920.000
  20
4636946.500
  0
VERTEX
  8
Unknown_Area_Type
  10
201909.500
  20
4636946.000
  0
VERTEX
  8
Unknown_Area_Type
  10
201900.500
  20
4636944.000
  0
VERTEX
  8
Unknown_Area_Type
  10
201877.000
  20
4636943.500
  0
VERTEX
  8
Unknown_Area_Type
  10
201844.500
  20
4636945.000
  0
VERTEX
  8
Unknown_Area_Type
  10
201816.500
  20
4636948.000
  0
VERTEX
  8
Unknown_Area_Type
  10
201762.500
  20
4636949.500
  0
VERTEX
  8
Unknown_Area_Type
  10
201691.500
  20
4636949.500
  0
VERTEX
  8
Unknown_Area_Type
  10
201584.500
  20
4636947.500
  0
VERTEX
  8
Unknown_Area_Type
  10
201569.500
  20
4636945.000
  0
VERTEX
  8
Unknown_Area_Type
  10
201542.500
  20
4636945.000
  0
VERTEX
  8
Unknown_Area_Type
  10
201508.000
  20
4636942.000
  0
VERTEX
  8
Unknown_Area_Type
  10
201426.500
  20
4636940.500
  0
VERTEX
  8
Unknown_Area_Type
  10
201414.500
  20
4636938.000
  0
VERTEX
  8
Unknown_Area_Type
  10
201395.000
  20
4636937.500
  0
VERTEX
  8
Unknown_Area_Type
  10
201383.500
  20
4636936.000
  0
VERTEX
  8
Unknown_Area_Type
  10
201368.500
  20
4636932.000
  0
VERTEX
  8
Unknown_Area_Type
  10
201341.000
  20
4636928.500
  0
VERTEX
  8
Unknown_Area_Type
  10
201240.000
  20
4636922.500
  0
VERTEX
  8
Unknown_Area_Type
  10
201236.000
  20
4636922.500
  0
VERTEX
  8
Unknown_Area_Type
  10
201232.000
  20
4636926.500
  0
VERTEX
  8
Unknown_Area_Type
  10
201202.000
  20
4636925.000
  0
VERTEX
  8
Unknown_Area_Type
  10
201106.000
  20
4636926.500
  0
VERTEX
  8
Unknown_Area_Type
  10
201096.000
  20
4636925.500
  0
VERTEX
  8
Unknown_Area_Type
  10
201083.500
  20
4636927.000
  0
VERTEX
  8
Unknown_Area_Type
  10
201069.500
  20
4636927.000
  0
VERTEX
  8
Unknown_Area_Type
  10
201061.500
  20
4636925.500
  0
VERTEX
  8
Unknown_Area_Type
  10
201024.000
  20
4636925.500
  0
VERTEX
  8
Unknown_Area_Type
  10
201019.000
  20
4636927.000
  0
VERTEX
  8
Unknown_Area_Type
  10
200995.000
  20
4636927.500
  0
VERTEX
  8
Unknown_Area_Type
  10
200985.000
  20
4636925.500
  0
VERTEX
  8
Unknown_Area_Type
  10
200925.500
  20
4636923.500
  0
VERTEX
  8
Unknown_Area_Type
  10
200916.000
  20
4636921.500
  0
VERTEX
  8
Unknown_Area_Type
  10
200906.500
  20
4636921.500
  0
VERTEX
  8
Unknown_Area_Type
  10
200904.000
  20
4636922.500
  0
VERTEX
  8
Unknown_Area_Type
  10
200891.500
  20
4636922.000
  0
VERTEX
  8
Unknown_Area_Type
  10
200877.000
  20
4636925.000
  0
VERTEX
  8
Unknown_Area_Type
  10
200838.500
  20
4636928.500
  0
VERTEX
  8
Unknown_Area_Type
  10
200827.000
  20
4636928.500
  0
VERTEX
  8
Unknown_Area_Type
  10
200818.500
  20
4636930.000
  0
VERTEX
  8
Unknown_Area_Type
  10
200795.500
  20
4636928.500
  0
VERTEX
  8
Unknown_Area_Type
  10
200795.000
  20
4636897.000
  0
VERTEX
  8
Unknown_Area_Type
  10
200790.000
  20
4636893.000
  0
VERTEX
  8
Unknown_Area_Type
  10
200790.000
  20
4636862.000
  0
VERTEX
  8
Unknown_Area_Type
  10
200785.000
  20
4636858.000
  0
VERTEX
  8
Unknown_Area_Type
  10
200785.000
  20
4636827.000
  0
VERTEX
  8
Unknown_Area_Type
  10
200780.000
  20
4636823.000
  0
VERTEX
  8
Unknown_Area_Type
  10
200780.000
  20
4636792.000
  0
VERTEX
  8
Unknown_Area_Type
  10
200775.000
  20
4636788.000
  0
VERTEX
  8
Unknown_Area_Type
  10
200775.000
  20
4636752.000
  0
VERTEX
  8
Unknown_Area_Type
  10
200770.000
  20
4636748.000
  0
VERTEX
  8
Unknown_Area_Type
  10
200770.000
  20
4636717.000
  0
VERTEX
  8
Unknown_Area_Type
  10
200765.000
  20
4636713.000
  0
VERTEX
  8
Unknown_Area_Type
  10
200765.000
  20
4636682.000
  0
VERTEX
  8
Unknown_Area_Type
  10
200760.000
  20
4636678.000
  0
VERTEX
  8
Unknown_Area_Type
  10
200760.000
  20
4636647.000
  0
VERTEX
  8
Unknown_Area_Type
  10
200755.000
  20
4636643.000
  0
VERTEX
  8
Unknown_Area_Type
  10
200755.000
  20
4636612.000
  0
VERTEX
  8
Unknown_Area_Type
  10
200750.000
  20
4636608.000
  0
VERTEX
  8
Unknown_Area_Type
  10
200750.000
  20
4636572.000
  0
VERTEX
  8
Unknown_Area_Type
  10
200745.000
  20
4636568.000
  0
VERTEX
  8
Unknown_Area_Type
  10
200745.000
  20
4636537.000
  0
VERTEX
  8
Unknown_Area_Type
  10
200740.000
  20
4636533.000
  0
VERTEX
  8
Unknown_Area_Type
  10
200740.000
  20
4636502.000
  0
VERTEX
  8
Unknown_Area_Type
  10
200735.000
  20
4636498.000
  0
VERTEX
  8
Unknown_Area_Type
  10
200735.000
  20
4636467.000
  0
VERTEX
  8
Unknown_Area_Type
  10
200730.000
  20
4636463.000
  0
VERTEX
  8
Unknown_Area_Type
  10
200730.000
  20
4636432.000
  0
VERTEX
  8
Unknown_Area_Type
  10
200725.000
  20
4636428.000
  0
VERTEX
  8
Unknown_Area_Type
  10
200725.000
  20
4636392.000
  0
VERTEX
  8
Unknown_Area_Type
  10
200720.000
  20
4636388.000
  0
VERTEX
  8
Unknown_Area_Type
  10
200720.000
  20
4636357.000
  0
SEQEND
  8
Unknown_Area_Type
  0
INSERT
  8
FeatureAttribs
  2
FEATURE
  41
1
  42
1
  43
1
  50
0
  10
205372.500
  20
4631065.000
 66
1
  0
ATTRIB
  8
FeatureAttribs
 70
0
  1
PNOA-H_AMS_1956-57_33k_ES_PAN_2
  2
NAME
  10
205372.500
  20
4631065.000
 40
21.11793
  0
SEQEND
  0
POLYLINE
  8
Unknown_Area_Type
  70
1
  66
1
  0
VERTEX
  8
Unknown_Area_Type
  10
205370.500
  20
4631074.500
  0
VERTEX
  8
Unknown_Area_Type
  10
205375.500
  20
4631074.000
  0
VERTEX
  8
Unknown_Area_Type
  10
205379.500
  20
4631069.500
  0
VERTEX
  8
Unknown_Area_Type
  10
205379.500
  20
4631060.500
  0
VERTEX
  8
Unknown_Area_Type
  10
205375.500
  20
4631056.000
  0
VERTEX
  8
Unknown_Area_Type
  10
205370.500
  20
4631055.500
  0
VERTEX
  8
Unknown_Area_Type
  10
205365.500
  20
4631060.500
  0
VERTEX
  8
Unknown_Area_Type
  10
205365.500
  20
4631069.500
  0
VERTEX
  8
Unknown_Area_Type
  10
205369.500
  20
4631074.000
  0
VERTEX
  8
Unknown_Area_Type
  10
205370.500
  20
4631074.500
  0
SEQEND
  8
Unknown_Area_Type
  0
INSERT
  8
FeatureAttribs
  2
FEATURE
  41
1
  42
1
  43
1
  50
0
  10
205372.500
  20
4631065.000
 66
1
  0
ATTRIB
  8
FeatureAttribs
 70
0
  1
PNOA-H_AMS_1956-57_33k_ES_PAN_2
  2
NAME
  10
205372.500
  20
4631065.000
 40
21.11793
  0
SEQEND
  0
POLYLINE
  8
Unknown_Area_Type
  70
1
  66
1
  0
VERTEX
  8
Unknown_Area_Type
  10
205370.500
  20
4631074.500
  0
VERTEX
  8
Unknown_Area_Type
  10
205369.500
  20
4631074.000
  0
VERTEX
  8
Unknown_Area_Type
  10
205365.500
  20
4631069.500
  0
VERTEX
  8
Unknown_Area_Type
  10
205365.500
  20
4631060.500
  0
VERTEX
  8
Unknown_Area_Type
  10
205370.500
  20
4631055.500
  0
VERTEX
  8
Unknown_Area_Type
  10
205375.500
  20
4631056.000
  0
VERTEX
  8
Unknown_Area_Type
  10
205379.500
  20
4631060.500
  0
VERTEX
  8
Unknown_Area_Type
  10
205379.500
  20
4631069.500
  0
VERTEX
  8
Unknown_Area_Type
  10
205375.500
  20
4631074.000
  0
VERTEX
  8
Unknown_Area_Type
  10
205370.500
  20
4631074.500
  0
SEQEND
  8
Unknown_Area_Type
  0
INSERT
  8
FeatureAttribs
  2
FEATURE
  41
1
  42
1
  43
1
  50
0
  10
205640.999
  20
4633571.041
 66
1
  0
ATTRIB
  8
FeatureAttribs
 70
0
  1
PNOA-H_AMS_1956-57_33k_ES_PAN_2
  2
NAME
  10
205640.999
  20
4633571.041
 40
21.11793
  0
SEQEND
  0
POLYLINE
  8
Unknown_Area_Type
  70
1
  66
1
  0
VERTEX
  8
Unknown_Area_Type
  10
204318.500
  20
4635866.000
  0
VERTEX
  8
Unknown_Area_Type
  10
204327.500
  20
4635867.500
  0
VERTEX
  8
Unknown_Area_Type
  10
206474.500
  20
4636015.500
  0
VERTEX
  8
Unknown_Area_Type
  10
206482.000
  20
4636015.500
  0
VERTEX
  8
Unknown_Area_Type
  10
206499.500
  20
4636017.000
  0
VERTEX
  8
Unknown_Area_Type
  10
207110.500
  20
4635733.500
  0
VERTEX
  8
Unknown_Area_Type
  10
206933.000
  20
4631308.500
  0
VERTEX
  8
Unknown_Area_Type
  10
206110.000
  20
4631000.500
  0
VERTEX
  8
Unknown_Area_Type
  10
204139.000
  20
4631490.500
  0
VERTEX
  8
Unknown_Area_Type
  10
204318.500
  20
4635866.000
  0
SEQEND
  8
Unknown_Area_Type
  0
INSERT
  8
FeatureAttribs
  2
FEATURE
  41
1
  42
1
  43
1
  50
0
  10
205640.999
  20
4633571.041
 66
1
  0
ATTRIB
  8
FeatureAttribs
 70
0
  1
PNOA-H_AMS_1956-57_33k_ES_PAN_2
  2
NAME
  10
205640.999
  20
4633571.041
 40
21.11793
  0
SEQEND
  0
POLYLINE
  8
Unknown_Area_Type
  70
1
  66
1
  0
VERTEX
  8
Unknown_Area_Type
  10
204318.500
  20
4635866.000
  0
VERTEX
  8
Unknown_Area_Type
  10
204139.000
  20
4631490.500
  0
VERTEX
  8
Unknown_Area_Type
  10
206110.000
  20
4631000.500
  0
VERTEX
  8
Unknown_Area_Type
  10
206933.000
  20
4631308.500
  0
VERTEX
  8
Unknown_Area_Type
  10
207110.500
  20
4635733.500
  0
VERTEX
  8
Unknown_Area_Type
  10
206499.500
  20
4636017.000
  0
VERTEX
  8
Unknown_Area_Type
  10
206482.000
  20
4636015.500
  0
VERTEX
  8
Unknown_Area_Type
  10
206474.500
  20
4636015.500
  0
VERTEX
  8
Unknown_Area_Type
  10
204327.500
  20
4635867.500
  0
VERTEX
  8
Unknown_Area_Type
  10
204318.500
  20
4635866.000
  0
SEQEND
  8
Unknown_Area_Type
  0
ENDSEC
  0
EOF
