  0
SECTION
  2
HEADER
  9
$ACADVER
  1
AC1009
  9
$LUNITS
  70
2
  9
$LIMMIN
  10
567289.558
  20
4631590.742
  9
$LIMMAX
  10
595143.124
  20
4650096.949
  9
$EXTMIN
  10
567289.558
  20
4631590.742
  9
$EXTMAX
  10
595143.124
  20
4650096.949
  999
Created by Global Mapper
  999
Projection: UTM
  999
Datum: ETRS89
  999
Ground Units: meters
  999
ZONE: 30
  0
ENDSEC
  0
SECTION
  2
TABLES
  0
ENDSEC
  0
SECTION
  2
BLOCKS
  0
BLOCK
  8
FeatureAttribs
  70
0
  2
FEATURE
  3
FEATURE
  10
0.00000000
  20
0.00000000
  0
ATTDEF
  8
FeatureAttribs
  70
0
  1
 
  2
NAME
  3
NAME
  10
0.00000000
  20
0.00000000
  40
1.00000000
  0
ENDBLK
  0
ENDSEC
  0
SECTION
  2
ENTITIES
  0
INSERT
  8
FeatureAttribs
  2
FEATURE
  41
1
  42
1
  43
1
  50
0
  10
567369.379
  20
4649125.803
 66
1
  0
ATTRIB
  8
FeatureAttribs
 70
0
  1
PNOA-H_AMS_1956-57_33k_ES_PAN_21mic_H50_0281_fot_29C-50628_E.tif
  2
NAME
  10
567369.379
  20
4649125.803
 40
33.44101
  0
SEQEND
  0
POLYLINE
  8
PNOA-H_AMS_1956-57_33k_ES_PAN_21mic_H50_0281_fot_29C-50628_E_tif
  70
9
  66
1
  0
VERTEX
  8
PNOA-H_AMS_1956-57_33k_ES_PAN_21mic_H50_0281_fot_29C-50628_E_tif
  70
32
  10
567440.000
  20
4648155.711
  30
1087.231
  0
VERTEX
  8
PNOA-H_AMS_1956-57_33k_ES_PAN_21mic_H50_0281_fot_29C-50628_E_tif
  70
32
  10
567307.971
  20
4648154.657
  30
1076.133
  0
VERTEX
  8
PNOA-H_AMS_1956-57_33k_ES_PAN_21mic_H50_0281_fot_29C-50628_E_tif
  70
32
  10
567307.970
  20
4648154.747
  30
0
  0
VERTEX
  8
PNOA-H_AMS_1956-57_33k_ES_PAN_21mic_H50_0281_fot_29C-50628_E_tif
  70
32
  10
567289.558
  20
4650095.485
  30
0
  0
VERTEX
  8
PNOA-H_AMS_1956-57_33k_ES_PAN_21mic_H50_0281_fot_29C-50628_E_tif
  70
32
  10
567440.000
  20
4650096.949
  30
1249.665
  0
VERTEX
  8
PNOA-H_AMS_1956-57_33k_ES_PAN_21mic_H50_0281_fot_29C-50628_E_tif
  70
32
  10
567440.000
  20
4648155.830
  30
1087.241
  0
VERTEX
  8
PNOA-H_AMS_1956-57_33k_ES_PAN_21mic_H50_0281_fot_29C-50628_E_tif
  70
32
  10
567440.000
  20
4648155.711
  30
1087.231
  0
SEQEND
  8
PNOA-H_AMS_1956-57_33k_ES_PAN_21mic_H50_0281_fot_29C-50628_E_tif
  0
INSERT
  8
FeatureAttribs
  2
FEATURE
  41
1
  42
1
  43
1
  50
0
  10
567385.285
  20
4645771.964
 66
1
  0
ATTRIB
  8
FeatureAttribs
 70
0
  1
PNOA-H_AMS_1956-57_33k_ES_PAN_21mic_H50_0319_fot_30D-50528_W.tif
  2
NAME
  10
567385.285
  20
4645771.964
 40
33.44101
  0
SEQEND
  0
POLYLINE
  8
PNOA-H_AMS_1956-57_33k_ES_PAN_21mic_H50_0319_fot_30D-50528_W_tif
  70
9
  66
1
  0
VERTEX
  8
PNOA-H_AMS_1956-57_33k_ES_PAN_21mic_H50_0319_fot_30D-50528_W_tif
  70
32
  10
567440.000
  20
4648155.711
  30
1082.958
  0
VERTEX
  8
PNOA-H_AMS_1956-57_33k_ES_PAN_21mic_H50_0319_fot_30D-50528_W_tif
  70
32
  10
567440.000
  20
4645570.000
  30
1177.738
  0
VERTEX
  8
PNOA-H_AMS_1956-57_33k_ES_PAN_21mic_H50_0319_fot_30D-50528_W_tif
  70
32
  10
567480.000
  20
4645570.000
  30
1177.738
  0
VERTEX
  8
PNOA-H_AMS_1956-57_33k_ES_PAN_21mic_H50_0319_fot_30D-50528_W_tif
  70
32
  10
567480.000
  20
4643388.098
  30
1184.599
  0
VERTEX
  8
PNOA-H_AMS_1956-57_33k_ES_PAN_21mic_H50_0319_fot_30D-50528_W_tif
  70
32
  10
567353.102
  20
4643395.222
  30
1186.671
  0
VERTEX
  8
PNOA-H_AMS_1956-57_33k_ES_PAN_21mic_H50_0319_fot_30D-50528_W_tif
  70
32
  10
567333.440
  20
4645469.250
  30
0
  0
VERTEX
  8
PNOA-H_AMS_1956-57_33k_ES_PAN_21mic_H50_0319_fot_30D-50528_W_tif
  70
32
  10
567311.503
  20
4647782.363
  30
0
  0
VERTEX
  8
PNOA-H_AMS_1956-57_33k_ES_PAN_21mic_H50_0319_fot_30D-50528_W_tif
  70
32
  10
567307.971
  20
4648154.657
  30
0
  0
VERTEX
  8
PNOA-H_AMS_1956-57_33k_ES_PAN_21mic_H50_0319_fot_30D-50528_W_tif
  70
32
  10
567307.970
  20
4648154.747
  30
1072.937
  0
VERTEX
  8
PNOA-H_AMS_1956-57_33k_ES_PAN_21mic_H50_0319_fot_30D-50528_W_tif
  70
32
  10
567440.000
  20
4648155.830
  30
1082.954
  0
VERTEX
  8
PNOA-H_AMS_1956-57_33k_ES_PAN_21mic_H50_0319_fot_30D-50528_W_tif
  70
32
  10
567440.000
  20
4648155.711
  30
1082.958
  0
SEQEND
  8
PNOA-H_AMS_1956-57_33k_ES_PAN_21mic_H50_0319_fot_30D-50528_W_tif
  0
INSERT
  8
FeatureAttribs
  2
FEATURE
  41
1
  42
1
  43
1
  50
0
  10
567857.551
  20
4639995.616
 66
1
  0
ATTRIB
  8
FeatureAttribs
 70
0
  1
PNOA-H_AMS_1956-57_33k_ES_PAN_21mic_H50_0319_fot_31C-50476_E.tif
  2
NAME
  10
567857.551
  20
4639995.616
 40
33.44101
  0
SEQEND
  0
POLYLINE
  8
PNOA-H_AMS_1956-57_33k_ES_PAN_21mic_H50_0319_fot_31C-50476_E_tif
  70
9
  66
1
  0
VERTEX
  8
PNOA-H_AMS_1956-57_33k_ES_PAN_21mic_H50_0319_fot_31C-50476_E_tif
  70
32
  10
567480.000
  20
4643387.908
  30
1172.872
  0
VERTEX
  8
PNOA-H_AMS_1956-57_33k_ES_PAN_21mic_H50_0319_fot_31C-50476_E_tif
  70
32
  10
567480.000
  20
4641020.000
  30
1148.499
  0
VERTEX
  8
PNOA-H_AMS_1956-57_33k_ES_PAN_21mic_H50_0319_fot_31C-50476_E_tif
  70
32
  10
568248.428
  20
4641020.000
  30
1108.487
  0
VERTEX
  8
PNOA-H_AMS_1956-57_33k_ES_PAN_21mic_H50_0319_fot_31C-50476_E_tif
  70
32
  10
568248.596
  20
4641020.000
  30
1108.479
  0
VERTEX
  8
PNOA-H_AMS_1956-57_33k_ES_PAN_21mic_H50_0319_fot_31C-50476_E_tif
  70
32
  10
568362.000
  20
4638963.508
  30
1050.97
  0
VERTEX
  8
PNOA-H_AMS_1956-57_33k_ES_PAN_21mic_H50_0319_fot_31C-50476_E_tif
  70
32
  10
568362.000
  20
4638963.500
  30
1050.97
  0
VERTEX
  8
PNOA-H_AMS_1956-57_33k_ES_PAN_21mic_H50_0319_fot_31C-50476_E_tif
  70
32
  10
567742.173
  20
4638973.000
  30
1087.229
  0
VERTEX
  8
PNOA-H_AMS_1956-57_33k_ES_PAN_21mic_H50_0319_fot_31C-50476_E_tif
  70
32
  10
567394.950
  20
4638978.322
  30
1107.541
  0
VERTEX
  8
PNOA-H_AMS_1956-57_33k_ES_PAN_21mic_H50_0319_fot_31C-50476_E_tif
  70
32
  10
567377.287
  20
4640843.047
  30
0
  0
VERTEX
  8
PNOA-H_AMS_1956-57_33k_ES_PAN_21mic_H50_0319_fot_31C-50476_E_tif
  70
32
  10
567355.368
  20
4643156.144
  30
0
  0
VERTEX
  8
PNOA-H_AMS_1956-57_33k_ES_PAN_21mic_H50_0319_fot_31C-50476_E_tif
  70
32
  10
567353.102
  20
4643395.164
  30
1177.259
  0
VERTEX
  8
PNOA-H_AMS_1956-57_33k_ES_PAN_21mic_H50_0319_fot_31C-50476_E_tif
  70
32
  10
567480.000
  20
4643387.908
  30
1172.872
  0
SEQEND
  8
PNOA-H_AMS_1956-57_33k_ES_PAN_21mic_H50_0319_fot_31C-50476_E_tif
  0
INSERT
  8
FeatureAttribs
  2
FEATURE
  41
1
  42
1
  43
1
  50
0
  10
568220.354
  20
4636818.429
 66
1
  0
ATTRIB
  8
FeatureAttribs
 70
0
  1
PNOA-H_AMS_1956-57_33k_ES_PAN_21mic_H50_0319_fot_32B-39509_W.tif
  2
NAME
  10
568220.354
  20
4636818.429
 40
33.44101
  0
SEQEND
  0
POLYLINE
  8
PNOA-H_AMS_1956-57_33k_ES_PAN_21mic_H50_0319_fot_32B-39509_W_tif
  70
9
  66
1
  0
VERTEX
  8
PNOA-H_AMS_1956-57_33k_ES_PAN_21mic_H50_0319_fot_32B-39509_W_tif
  70
32
  10
567394.952
  20
4638978.133
  30
1111.276
  0
VERTEX
  8
PNOA-H_AMS_1956-57_33k_ES_PAN_21mic_H50_0319_fot_32B-39509_W_tif
  70
32
  10
567724.000
  20
4638973.000
  30
1093.969
  0
VERTEX
  8
PNOA-H_AMS_1956-57_33k_ES_PAN_21mic_H50_0319_fot_32B-39509_W_tif
  70
32
  10
567742.173
  20
4638973.000
  30
1093.327
  0
VERTEX
  8
PNOA-H_AMS_1956-57_33k_ES_PAN_21mic_H50_0319_fot_32B-39509_W_tif
  70
32
  10
567756.000
  20
4638973.000
  30
1092.839
  0
VERTEX
  8
PNOA-H_AMS_1956-57_33k_ES_PAN_21mic_H50_0319_fot_32B-39509_W_tif
  70
32
  10
568362.000
  20
4638963.508
  30
1050.916
  0
VERTEX
  8
PNOA-H_AMS_1956-57_33k_ES_PAN_21mic_H50_0319_fot_32B-39509_W_tif
  70
32
  10
568362.500
  20
4638963.500
  30
1050.881
  0
VERTEX
  8
PNOA-H_AMS_1956-57_33k_ES_PAN_21mic_H50_0319_fot_32B-39509_W_tif
  70
32
  10
568589.667
  20
4638904.500
  30
1049.523
  0
VERTEX
  8
PNOA-H_AMS_1956-57_33k_ES_PAN_21mic_H50_0319_fot_32B-39509_W_tif
  70
32
  10
569044.000
  20
4638786.500
  30
1046.808
  0
VERTEX
  8
PNOA-H_AMS_1956-57_33k_ES_PAN_21mic_H50_0319_fot_32B-39509_W_tif
  70
32
  10
569005.500
  20
4634733.500
  30
1226.605
  0
VERTEX
  8
PNOA-H_AMS_1956-57_33k_ES_PAN_21mic_H50_0319_fot_32B-39509_W_tif
  70
32
  10
568931.993
  20
4634729.998
  30
1229.486
  0
VERTEX
  8
PNOA-H_AMS_1956-57_33k_ES_PAN_21mic_H50_0319_fot_32B-39509_W_tif
  70
32
  10
567435.845
  20
4634658.725
  30
1288.106
  0
VERTEX
  8
PNOA-H_AMS_1956-57_33k_ES_PAN_21mic_H50_0319_fot_32B-39509_W_tif
  70
32
  10
567435.842
  20
4634659.094
  30
0
  0
VERTEX
  8
PNOA-H_AMS_1956-57_33k_ES_PAN_21mic_H50_0319_fot_32B-39509_W_tif
  70
32
  10
567421.098
  20
4636216.878
  30
0
  0
VERTEX
  8
PNOA-H_AMS_1956-57_33k_ES_PAN_21mic_H50_0319_fot_32B-39509_W_tif
  70
32
  10
567399.197
  20
4638529.958
  30
0
  0
VERTEX
  8
PNOA-H_AMS_1956-57_33k_ES_PAN_21mic_H50_0319_fot_32B-39509_W_tif
  70
32
  10
567394.952
  20
4638978.133
  30
1111.276
  0
SEQEND
  8
PNOA-H_AMS_1956-57_33k_ES_PAN_21mic_H50_0319_fot_32B-39509_W_tif
  0
INSERT
  8
FeatureAttribs
  2
FEATURE
  41
1
  42
1
  43
1
  50
0
  10
568308.704
  20
4633162.121
 66
1
  0
ATTRIB
  8
FeatureAttribs
 70
0
  1
PNOA-H_AMS_1956-57_33k_ES_PAN_21mic_H50_0319_fot_33B-38745_E.tif
  2
NAME
  10
568308.704
  20
4633162.121
 40
33.44101
  0
SEQEND
  0
POLYLINE
  8
PNOA-H_AMS_1956-57_33k_ES_PAN_21mic_H50_0319_fot_33B-38745_E_tif
  70
9
  66
1
  0
VERTEX
  8
PNOA-H_AMS_1956-57_33k_ES_PAN_21mic_H50_0319_fot_33B-38745_E_tif
  70
32
  10
569176.196
  20
4631607.344
  30
1104.99
  0
VERTEX
  8
PNOA-H_AMS_1956-57_33k_ES_PAN_21mic_H50_0319_fot_33B-38745_E_tif
  70
32
  10
567464.873
  20
4631590.742
  30
0
  0
VERTEX
  8
PNOA-H_AMS_1956-57_33k_ES_PAN_21mic_H50_0319_fot_33B-38745_E_tif
  70
32
  10
567442.990
  20
4633903.806
  30
0
  0
VERTEX
  8
PNOA-H_AMS_1956-57_33k_ES_PAN_21mic_H50_0319_fot_33B-38745_E_tif
  70
32
  10
567435.845
  20
4634658.725
  30
0
  0
VERTEX
  8
PNOA-H_AMS_1956-57_33k_ES_PAN_21mic_H50_0319_fot_33B-38745_E_tif
  70
32
  10
567435.842
  20
4634659.094
  30
1325.342
  0
VERTEX
  8
PNOA-H_AMS_1956-57_33k_ES_PAN_21mic_H50_0319_fot_33B-38745_E_tif
  70
32
  10
567738.000
  20
4634673.500
  30
1325.751
  0
VERTEX
  8
PNOA-H_AMS_1956-57_33k_ES_PAN_21mic_H50_0319_fot_33B-38745_E_tif
  70
32
  10
567748.500
  20
4634674.000
  30
1325.745
  0
VERTEX
  8
PNOA-H_AMS_1956-57_33k_ES_PAN_21mic_H50_0319_fot_33B-38745_E_tif
  70
32
  10
568931.993
  20
4634729.998
  30
1232.359
  0
VERTEX
  8
PNOA-H_AMS_1956-57_33k_ES_PAN_21mic_H50_0319_fot_33B-38745_E_tif
  70
32
  10
569005.538
  20
4634733.478
  30
1226.556
  0
VERTEX
  8
PNOA-H_AMS_1956-57_33k_ES_PAN_21mic_H50_0319_fot_33B-38745_E_tif
  70
32
  10
569006.000
  20
4634733.500
  30
1226.519
  0
VERTEX
  8
PNOA-H_AMS_1956-57_33k_ES_PAN_21mic_H50_0319_fot_33B-38745_E_tif
  70
32
  10
569158.970
  20
4634647.017
  30
1202.067
  0
VERTEX
  8
PNOA-H_AMS_1956-57_33k_ES_PAN_21mic_H50_0319_fot_33B-38745_E_tif
  70
32
  10
569159.000
  20
4634647.000
  30
1202.062
  0
VERTEX
  8
PNOA-H_AMS_1956-57_33k_ES_PAN_21mic_H50_0319_fot_33B-38745_E_tif
  70
32
  10
569176.196
  20
4631607.344
  30
1104.99
  0
SEQEND
  8
PNOA-H_AMS_1956-57_33k_ES_PAN_21mic_H50_0319_fot_33B-38745_E_tif
  0
INSERT
  8
FeatureAttribs
  2
FEATURE
  41
1
  42
1
  43
1
  50
0
  10
569007.597
  20
4639903.250
 66
1
  0
ATTRIB
  8
FeatureAttribs
 70
0
  1
PNOA-H_AMS_1956-57_33k_ES_PAN_21mic_H50_0319_fot_31B-36896_E.tif
  2
NAME
  10
569007.597
  20
4639903.250
 40
33.44101
  0
SEQEND
  0
POLYLINE
  8
PNOA-H_AMS_1956-57_33k_ES_PAN_21mic_H50_0319_fot_31B-36896_E_tif
  70
9
  66
1
  0
VERTEX
  8
PNOA-H_AMS_1956-57_33k_ES_PAN_21mic_H50_0319_fot_31B-36896_E_tif
  70
32
  10
569736.642
  20
4639052.977
  30
946.133
  0
VERTEX
  8
PNOA-H_AMS_1956-57_33k_ES_PAN_21mic_H50_0319_fot_31B-36896_E_tif
  70
32
  10
569045.000
  20
4638786.500
  30
1046.946
  0
VERTEX
  8
PNOA-H_AMS_1956-57_33k_ES_PAN_21mic_H50_0319_fot_31B-36896_E_tif
  70
32
  10
569044.402
  20
4638786.655
  30
1046.949
  0
VERTEX
  8
PNOA-H_AMS_1956-57_33k_ES_PAN_21mic_H50_0319_fot_31B-36896_E_tif
  70
32
  10
568589.667
  20
4638904.500
  30
1049.628
  0
VERTEX
  8
PNOA-H_AMS_1956-57_33k_ES_PAN_21mic_H50_0319_fot_31B-36896_E_tif
  70
32
  10
568362.000
  20
4638963.500
  30
1050.97
  0
VERTEX
  8
PNOA-H_AMS_1956-57_33k_ES_PAN_21mic_H50_0319_fot_31B-36896_E_tif
  70
32
  10
568362.000
  20
4638963.508
  30
1050.97
  0
VERTEX
  8
PNOA-H_AMS_1956-57_33k_ES_PAN_21mic_H50_0319_fot_31B-36896_E_tif
  70
32
  10
568248.428
  20
4641020.000
  30
1108.294
  0
VERTEX
  8
PNOA-H_AMS_1956-57_33k_ES_PAN_21mic_H50_0319_fot_31B-36896_E_tif
  70
32
  10
568248.596
  20
4641020.000
  30
1108.29
  0
VERTEX
  8
PNOA-H_AMS_1956-57_33k_ES_PAN_21mic_H50_0319_fot_31B-36896_E_tif
  70
32
  10
569661.568
  20
4641020.000
  30
1074.998
  0
VERTEX
  8
PNOA-H_AMS_1956-57_33k_ES_PAN_21mic_H50_0319_fot_31B-36896_E_tif
  70
32
  10
569661.734
  20
4641020.000
  30
1074.994
  0
VERTEX
  8
PNOA-H_AMS_1956-57_33k_ES_PAN_21mic_H50_0319_fot_31B-36896_E_tif
  70
32
  10
569690.000
  20
4640294.000
  30
1062.898
  0
VERTEX
  8
PNOA-H_AMS_1956-57_33k_ES_PAN_21mic_H50_0319_fot_31B-36896_E_tif
  70
32
  10
569690.000
  20
4640293.000
  30
1062.781
  0
VERTEX
  8
PNOA-H_AMS_1956-57_33k_ES_PAN_21mic_H50_0319_fot_31B-36896_E_tif
  70
32
  10
569738.000
  20
4639053.500
  30
945.935
  0
VERTEX
  8
PNOA-H_AMS_1956-57_33k_ES_PAN_21mic_H50_0319_fot_31B-36896_E_tif
  70
32
  10
569736.642
  20
4639052.977
  30
946.133
  0
SEQEND
  8
PNOA-H_AMS_1956-57_33k_ES_PAN_21mic_H50_0319_fot_31B-36896_E_tif
  0
INSERT
  8
FeatureAttribs
  2
FEATURE
  41
1
  42
1
  43
1
  50
0
  10
571891.272
  20
4639909.000
 66
1
  0
ATTRIB
  8
FeatureAttribs
 70
0
  1
PNOA-H_AMS_1956-57_33k_ES_PAN_21mic_H50_0319_fot_31B-36897_E.tif
  2
NAME
  10
571891.272
  20
4639909.000
 40
33.44101
  0
SEQEND
  0
POLYLINE
  8
PNOA-H_AMS_1956-57_33k_ES_PAN_21mic_H50_0319_fot_31B-36897_E_tif
  70
9
  66
1
  0
VERTEX
  8
PNOA-H_AMS_1956-57_33k_ES_PAN_21mic_H50_0319_fot_31B-36897_E_tif
  70
32
  10
572808.370
  20
4639165.458
  30
967.888
  0
VERTEX
  8
PNOA-H_AMS_1956-57_33k_ES_PAN_21mic_H50_0319_fot_31B-36897_E_tif
  70
32
  10
571671.500
  20
4638798.000
  30
986.722
  0
VERTEX
  8
PNOA-H_AMS_1956-57_33k_ES_PAN_21mic_H50_0319_fot_31B-36897_E_tif
  70
32
  10
571670.984
  20
4638798.157
  30
986.703
  0
VERTEX
  8
PNOA-H_AMS_1956-57_33k_ES_PAN_21mic_H50_0319_fot_31B-36897_E_tif
  70
32
  10
571357.965
  20
4638893.465
  30
975.365
  0
VERTEX
  8
PNOA-H_AMS_1956-57_33k_ES_PAN_21mic_H50_0319_fot_31B-36897_E_tif
  70
32
  10
571001.500
  20
4639002.000
  30
962.454
  0
VERTEX
  8
PNOA-H_AMS_1956-57_33k_ES_PAN_21mic_H50_0319_fot_31B-36897_E_tif
  70
32
  10
571001.518
  20
4639002.342
  30
962.46
  0
VERTEX
  8
PNOA-H_AMS_1956-57_33k_ES_PAN_21mic_H50_0319_fot_31B-36897_E_tif
  70
32
  10
571109.209
  20
4641020.000
  30
999.814
  0
VERTEX
  8
PNOA-H_AMS_1956-57_33k_ES_PAN_21mic_H50_0319_fot_31B-36897_E_tif
  70
32
  10
572619.112
  20
4641020.000
  30
921.683
  0
VERTEX
  8
PNOA-H_AMS_1956-57_33k_ES_PAN_21mic_H50_0319_fot_31B-36897_E_tif
  70
32
  10
572619.265
  20
4641020.000
  30
921.675
  0
VERTEX
  8
PNOA-H_AMS_1956-57_33k_ES_PAN_21mic_H50_0319_fot_31B-36897_E_tif
  70
32
  10
572808.500
  20
4639165.500
  30
967.885
  0
VERTEX
  8
PNOA-H_AMS_1956-57_33k_ES_PAN_21mic_H50_0319_fot_31B-36897_E_tif
  70
32
  10
572808.370
  20
4639165.458
  30
967.888
  0
SEQEND
  8
PNOA-H_AMS_1956-57_33k_ES_PAN_21mic_H50_0319_fot_31B-36897_E_tif
  0
INSERT
  8
FeatureAttribs
  2
FEATURE
  41
1
  42
1
  43
1
  50
0
  10
570365.611
  20
4636850.000
 66
1
  0
ATTRIB
  8
FeatureAttribs
 70
0
  1
PNOA-H_AMS_1956-57_33k_ES_PAN_21mic_H50_0319_fot_32B-39508_W.tif
  2
NAME
  10
570365.611
  20
4636850.000
 40
33.44101
  0
SEQEND
  0
POLYLINE
  8
PNOA-H_AMS_1956-57_33k_ES_PAN_21mic_H50_0319_fot_32B-39508_W_tif
  70
9
  66
1
  0
VERTEX
  8
PNOA-H_AMS_1956-57_33k_ES_PAN_21mic_H50_0319_fot_32B-39508_W_tif
  70
32
  10
569158.970
  20
4634647.017
  30
1202.288
  0
VERTEX
  8
PNOA-H_AMS_1956-57_33k_ES_PAN_21mic_H50_0319_fot_32B-39508_W_tif
  70
32
  10
569158.000
  20
4634647.000
  30
1202.303
  0
VERTEX
  8
PNOA-H_AMS_1956-57_33k_ES_PAN_21mic_H50_0319_fot_32B-39508_W_tif
  70
32
  10
569005.538
  20
4634733.478
  30
1226.599
  0
VERTEX
  8
PNOA-H_AMS_1956-57_33k_ES_PAN_21mic_H50_0319_fot_32B-39508_W_tif
  70
32
  10
569005.500
  20
4634733.500
  30
1226.605
  0
VERTEX
  8
PNOA-H_AMS_1956-57_33k_ES_PAN_21mic_H50_0319_fot_32B-39508_W_tif
  70
32
  10
569044.000
  20
4638786.500
  30
1046.808
  0
VERTEX
  8
PNOA-H_AMS_1956-57_33k_ES_PAN_21mic_H50_0319_fot_32B-39508_W_tif
  70
32
  10
569044.402
  20
4638786.655
  30
1046.75
  0
VERTEX
  8
PNOA-H_AMS_1956-57_33k_ES_PAN_21mic_H50_0319_fot_32B-39508_W_tif
  70
32
  10
569736.000
  20
4639053.000
  30
946.081
  0
VERTEX
  8
PNOA-H_AMS_1956-57_33k_ES_PAN_21mic_H50_0319_fot_32B-39508_W_tif
  70
32
  10
569736.642
  20
4639052.977
  30
946.115
  0
VERTEX
  8
PNOA-H_AMS_1956-57_33k_ES_PAN_21mic_H50_0319_fot_32B-39508_W_tif
  70
32
  10
569791.500
  20
4639051.000
  30
949.016
  0
VERTEX
  8
PNOA-H_AMS_1956-57_33k_ES_PAN_21mic_H50_0319_fot_32B-39508_W_tif
  70
32
  10
569804.000
  20
4639050.500
  30
943.001
  0
VERTEX
  8
PNOA-H_AMS_1956-57_33k_ES_PAN_21mic_H50_0319_fot_32B-39508_W_tif
  70
32
  10
570273.800
  20
4639031.661
  30
950.421
  0
VERTEX
  8
PNOA-H_AMS_1956-57_33k_ES_PAN_21mic_H50_0319_fot_32B-39508_W_tif
  70
32
  10
571001.000
  20
4639002.500
  30
961.907
  0
VERTEX
  8
PNOA-H_AMS_1956-57_33k_ES_PAN_21mic_H50_0319_fot_32B-39508_W_tif
  70
32
  10
571001.518
  20
4639002.342
  30
961.926
  0
VERTEX
  8
PNOA-H_AMS_1956-57_33k_ES_PAN_21mic_H50_0319_fot_32B-39508_W_tif
  70
32
  10
571357.965
  20
4638893.465
  30
974.882
  0
VERTEX
  8
PNOA-H_AMS_1956-57_33k_ES_PAN_21mic_H50_0319_fot_32B-39508_W_tif
  70
32
  10
571670.500
  20
4638798.000
  30
986.242
  0
VERTEX
  8
PNOA-H_AMS_1956-57_33k_ES_PAN_21mic_H50_0319_fot_32B-39508_W_tif
  70
32
  10
571744.500
  20
4634693.000
  30
1161.605
  0
VERTEX
  8
PNOA-H_AMS_1956-57_33k_ES_PAN_21mic_H50_0319_fot_32B-39508_W_tif
  70
32
  10
571744.491
  20
4634693.000
  30
1161.605
  0
VERTEX
  8
PNOA-H_AMS_1956-57_33k_ES_PAN_21mic_H50_0319_fot_32B-39508_W_tif
  70
32
  10
569270.235
  20
4634648.996
  30
1200.537
  0
VERTEX
  8
PNOA-H_AMS_1956-57_33k_ES_PAN_21mic_H50_0319_fot_32B-39508_W_tif
  70
32
  10
569158.970
  20
4634647.017
  30
1202.288
  0
SEQEND
  8
PNOA-H_AMS_1956-57_33k_ES_PAN_21mic_H50_0319_fot_32B-39508_W_tif
  0
INSERT
  8
FeatureAttribs
  2
FEATURE
  41
1
  42
1
  43
1
  50
0
  10
575669.410
  20
4636995.000
 66
1
  0
ATTRIB
  8
FeatureAttribs
 70
0
  1
PNOA-H_AMS_1956-57_33k_ES_PAN_21mic_H50_0319_fot_32B-39506_W.tif
  2
NAME
  10
575669.410
  20
4636995.000
 40
33.44101
  0
SEQEND
  0
POLYLINE
  8
PNOA-H_AMS_1956-57_33k_ES_PAN_21mic_H50_0319_fot_32B-39506_W_tif
  70
9
  66
1
  0
VERTEX
  8
PNOA-H_AMS_1956-57_33k_ES_PAN_21mic_H50_0319_fot_32B-39506_W_tif
  70
32
  10
574958.869
  20
4639300.936
  30
1082.704
  0
VERTEX
  8
PNOA-H_AMS_1956-57_33k_ES_PAN_21mic_H50_0319_fot_32B-39506_W_tif
  70
32
  10
575946.000
  20
4639130.000
  30
1133.869
  0
VERTEX
  8
PNOA-H_AMS_1956-57_33k_ES_PAN_21mic_H50_0319_fot_32B-39506_W_tif
  70
32
  10
575947.910
  20
4639130.000
  30
1133.893
  0
VERTEX
  8
PNOA-H_AMS_1956-57_33k_ES_PAN_21mic_H50_0319_fot_32B-39506_W_tif
  70
32
  10
575948.000
  20
4639130.000
  30
1133.894
  0
VERTEX
  8
PNOA-H_AMS_1956-57_33k_ES_PAN_21mic_H50_0319_fot_32B-39506_W_tif
  70
32
  10
576110.444
  20
4639101.895
  30
1126.885
  0
VERTEX
  8
PNOA-H_AMS_1956-57_33k_ES_PAN_21mic_H50_0319_fot_32B-39506_W_tif
  70
32
  10
577011.500
  20
4638946.000
  30
1088.01
  0
VERTEX
  8
PNOA-H_AMS_1956-57_33k_ES_PAN_21mic_H50_0319_fot_32B-39506_W_tif
  70
32
  10
576994.000
  20
4634799.500
  30
996.194
  0
VERTEX
  8
PNOA-H_AMS_1956-57_33k_ES_PAN_21mic_H50_0319_fot_32B-39506_W_tif
  70
32
  10
576893.482
  20
4634795.118
  30
1001.058
  0
VERTEX
  8
PNOA-H_AMS_1956-57_33k_ES_PAN_21mic_H50_0319_fot_32B-39506_W_tif
  70
32
  10
574459.500
  20
4634689.000
  30
1118.84
  0
VERTEX
  8
PNOA-H_AMS_1956-57_33k_ES_PAN_21mic_H50_0319_fot_32B-39506_W_tif
  70
32
  10
574449.000
  20
4634689.000
  30
1119.163
  0
VERTEX
  8
PNOA-H_AMS_1956-57_33k_ES_PAN_21mic_H50_0319_fot_32B-39506_W_tif
  70
32
  10
574448.000
  20
4634689.000
  30
1119.193
  0
VERTEX
  8
PNOA-H_AMS_1956-57_33k_ES_PAN_21mic_H50_0319_fot_32B-39506_W_tif
  70
32
  10
574348.000
  20
4634746.000
  30
1109.765
  0
VERTEX
  8
PNOA-H_AMS_1956-57_33k_ES_PAN_21mic_H50_0319_fot_32B-39506_W_tif
  70
32
  10
574324.500
  20
4638992.500
  30
1032.591
  0
VERTEX
  8
PNOA-H_AMS_1956-57_33k_ES_PAN_21mic_H50_0319_fot_32B-39506_W_tif
  70
32
  10
574324.595
  20
4638992.546
  30
1032.599
  0
VERTEX
  8
PNOA-H_AMS_1956-57_33k_ES_PAN_21mic_H50_0319_fot_32B-39506_W_tif
  70
32
  10
574958.500
  20
4639301.000
  30
1082.685
  0
VERTEX
  8
PNOA-H_AMS_1956-57_33k_ES_PAN_21mic_H50_0319_fot_32B-39506_W_tif
  70
32
  10
574958.869
  20
4639300.936
  30
1082.704
  0
SEQEND
  8
PNOA-H_AMS_1956-57_33k_ES_PAN_21mic_H50_0319_fot_32B-39506_W_tif
  0
INSERT
  8
FeatureAttribs
  2
FEATURE
  41
1
  42
1
  43
1
  50
0
  10
570378.070
  20
4640011.000
 66
1
  0
ATTRIB
  8
FeatureAttribs
 70
0
  1
PNOA-H_AMS_1956-57_33k_ES_PAN_21mic_H50_0319_fot_31C-50477_E.tif
  2
NAME
  10
570378.070
  20
4640011.000
 40
33.44101
  0
SEQEND
  0
POLYLINE
  8
PNOA-H_AMS_1956-57_33k_ES_PAN_21mic_H50_0319_fot_31C-50477_E_tif
  70
9
  66
1
  0
VERTEX
  8
PNOA-H_AMS_1956-57_33k_ES_PAN_21mic_H50_0319_fot_31C-50477_E_tif
  70
32
  10
571001.518
  20
4639002.342
  30
962.46
  0
VERTEX
  8
PNOA-H_AMS_1956-57_33k_ES_PAN_21mic_H50_0319_fot_31C-50477_E_tif
  70
32
  10
571001.500
  20
4639002.000
  30
962.454
  0
VERTEX
  8
PNOA-H_AMS_1956-57_33k_ES_PAN_21mic_H50_0319_fot_31C-50477_E_tif
  70
32
  10
570273.800
  20
4639031.661
  30
952.94
  0
VERTEX
  8
PNOA-H_AMS_1956-57_33k_ES_PAN_21mic_H50_0319_fot_31C-50477_E_tif
  70
32
  10
569738.000
  20
4639053.500
  30
945.935
  0
VERTEX
  8
PNOA-H_AMS_1956-57_33k_ES_PAN_21mic_H50_0319_fot_31C-50477_E_tif
  70
32
  10
569661.568
  20
4641020.000
  30
1021.613
  0
VERTEX
  8
PNOA-H_AMS_1956-57_33k_ES_PAN_21mic_H50_0319_fot_31C-50477_E_tif
  70
32
  10
569661.734
  20
4641020.000
  30
1021.611
  0
VERTEX
  8
PNOA-H_AMS_1956-57_33k_ES_PAN_21mic_H50_0319_fot_31C-50477_E_tif
  70
32
  10
571109.209
  20
4641020.000
  30
999.814
  0
VERTEX
  8
PNOA-H_AMS_1956-57_33k_ES_PAN_21mic_H50_0319_fot_31C-50477_E_tif
  70
32
  10
571001.518
  20
4639002.342
  30
962.46
  0
SEQEND
  8
PNOA-H_AMS_1956-57_33k_ES_PAN_21mic_H50_0319_fot_31C-50477_E_tif
  0
INSERT
  8
FeatureAttribs
  2
FEATURE
  41
1
  42
1
  43
1
  50
0
  10
573020.104
  20
4636924.750
 66
1
  0
ATTRIB
  8
FeatureAttribs
 70
0
  1
PNOA-H_AMS_1956-57_33k_ES_PAN_21mic_H50_0319_fot_32B-39507_W.tif
  2
NAME
  10
573020.104
  20
4636924.750
 40
33.44101
  0
SEQEND
  0
POLYLINE
  8
PNOA-H_AMS_1956-57_33k_ES_PAN_21mic_H50_0319_fot_32B-39507_W_tif
  70
9
  66
1
  0
VERTEX
  8
PNOA-H_AMS_1956-57_33k_ES_PAN_21mic_H50_0319_fot_32B-39507_W_tif
  70
32
  10
571760.000
  20
4634684.000
  30
1158.892
  0
VERTEX
  8
PNOA-H_AMS_1956-57_33k_ES_PAN_21mic_H50_0319_fot_32B-39507_W_tif
  70
32
  10
571759.500
  20
4634684.000
  30
1158.898
  0
VERTEX
  8
PNOA-H_AMS_1956-57_33k_ES_PAN_21mic_H50_0319_fot_32B-39507_W_tif
  70
32
  10
571744.500
  20
4634692.500
  30
1161.638
  0
VERTEX
  8
PNOA-H_AMS_1956-57_33k_ES_PAN_21mic_H50_0319_fot_32B-39507_W_tif
  70
32
  10
571744.491
  20
4634693.000
  30
1161.616
  0
VERTEX
  8
PNOA-H_AMS_1956-57_33k_ES_PAN_21mic_H50_0319_fot_32B-39507_W_tif
  70
32
  10
571670.500
  20
4638798.000
  30
986.242
  0
VERTEX
  8
PNOA-H_AMS_1956-57_33k_ES_PAN_21mic_H50_0319_fot_32B-39507_W_tif
  70
32
  10
571670.984
  20
4638798.157
  30
986.286
  0
VERTEX
  8
PNOA-H_AMS_1956-57_33k_ES_PAN_21mic_H50_0319_fot_32B-39507_W_tif
  70
32
  10
571849.500
  20
4638856.000
  30
1002.585
  0
VERTEX
  8
PNOA-H_AMS_1956-57_33k_ES_PAN_21mic_H50_0319_fot_32B-39507_W_tif
  70
32
  10
571851.500
  20
4638856.500
  30
1003.038
  0
VERTEX
  8
PNOA-H_AMS_1956-57_33k_ES_PAN_21mic_H50_0319_fot_32B-39507_W_tif
  70
32
  10
572808.000
  20
4639165.500
  30
968.119
  0
VERTEX
  8
PNOA-H_AMS_1956-57_33k_ES_PAN_21mic_H50_0319_fot_32B-39507_W_tif
  70
32
  10
572808.370
  20
4639165.458
  30
968.134
  0
VERTEX
  8
PNOA-H_AMS_1956-57_33k_ES_PAN_21mic_H50_0319_fot_32B-39507_W_tif
  70
32
  10
574324.500
  20
4638992.500
  30
1032.591
  0
VERTEX
  8
PNOA-H_AMS_1956-57_33k_ES_PAN_21mic_H50_0319_fot_32B-39507_W_tif
  70
32
  10
574348.000
  20
4634746.000
  30
1109.765
  0
VERTEX
  8
PNOA-H_AMS_1956-57_33k_ES_PAN_21mic_H50_0319_fot_32B-39507_W_tif
  70
32
  10
571771.500
  20
4634684.000
  30
1158.753
  0
VERTEX
  8
PNOA-H_AMS_1956-57_33k_ES_PAN_21mic_H50_0319_fot_32B-39507_W_tif
  70
32
  10
571760.000
  20
4634684.000
  30
1158.892
  0
SEQEND
  8
PNOA-H_AMS_1956-57_33k_ES_PAN_21mic_H50_0319_fot_32B-39507_W_tif
  0
INSERT
  8
FeatureAttribs
  2
FEATURE
  41
1
  42
1
  43
1
  50
0
  10
573839.573
  20
4640041.250
 66
1
  0
ATTRIB
  8
FeatureAttribs
 70
0
  1
PNOA-H_AMS_1956-57_33k_ES_PAN_21mic_H50_0319_fot_31C-50478_E.tif
  2
NAME
  10
573839.573
  20
4640041.250
 40
33.44101
  0
SEQEND
  0
POLYLINE
  8
PNOA-H_AMS_1956-57_33k_ES_PAN_21mic_H50_0319_fot_31C-50478_E_tif
  70
9
  66
1
  0
VERTEX
  8
PNOA-H_AMS_1956-57_33k_ES_PAN_21mic_H50_0319_fot_31C-50478_E_tif
  70
32
  10
574958.869
  20
4639300.936
  30
1082.71
  0
VERTEX
  8
PNOA-H_AMS_1956-57_33k_ES_PAN_21mic_H50_0319_fot_31C-50478_E_tif
  70
32
  10
574325.000
  20
4638992.500
  30
1032.855
  0
VERTEX
  8
PNOA-H_AMS_1956-57_33k_ES_PAN_21mic_H50_0319_fot_31C-50478_E_tif
  70
32
  10
574324.595
  20
4638992.546
  30
1032.838
  0
VERTEX
  8
PNOA-H_AMS_1956-57_33k_ES_PAN_21mic_H50_0319_fot_31C-50478_E_tif
  70
32
  10
572808.500
  20
4639165.500
  30
967.885
  0
VERTEX
  8
PNOA-H_AMS_1956-57_33k_ES_PAN_21mic_H50_0319_fot_31C-50478_E_tif
  70
32
  10
572619.112
  20
4641020.000
  30
921.836
  0
VERTEX
  8
PNOA-H_AMS_1956-57_33k_ES_PAN_21mic_H50_0319_fot_31C-50478_E_tif
  70
32
  10
572619.265
  20
4641020.000
  30
921.836
  0
VERTEX
  8
PNOA-H_AMS_1956-57_33k_ES_PAN_21mic_H50_0319_fot_31C-50478_E_tif
  70
32
  10
574180.000
  20
4641020.000
  30
926.901
  0
VERTEX
  8
PNOA-H_AMS_1956-57_33k_ES_PAN_21mic_H50_0319_fot_31C-50478_E_tif
  70
32
  10
574180.000
  20
4641090.000
  30
926.901
  0
VERTEX
  8
PNOA-H_AMS_1956-57_33k_ES_PAN_21mic_H50_0319_fot_31C-50478_E_tif
  70
32
  10
574961.611
  20
4641090.000
  30
1041.776
  0
VERTEX
  8
PNOA-H_AMS_1956-57_33k_ES_PAN_21mic_H50_0319_fot_31C-50478_E_tif
  70
32
  10
574959.000
  20
4639301.000
  30
1082.72
  0
VERTEX
  8
PNOA-H_AMS_1956-57_33k_ES_PAN_21mic_H50_0319_fot_31C-50478_E_tif
  70
32
  10
574958.869
  20
4639300.936
  30
1082.71
  0
SEQEND
  8
PNOA-H_AMS_1956-57_33k_ES_PAN_21mic_H50_0319_fot_31C-50478_E_tif
  0
INSERT
  8
FeatureAttribs
  2
FEATURE
  41
1
  42
1
  43
1
  50
0
  10
570476.642
  20
4633150.172
 66
1
  0
ATTRIB
  8
FeatureAttribs
 70
0
  1
PNOA-H_AMS_1956-57_33k_ES_PAN_21mic_H50_0319_fot_33B-38746_E.tif
  2
NAME
  10
570476.642
  20
4633150.172
 40
33.44101
  0
SEQEND
  0
POLYLINE
  8
PNOA-H_AMS_1956-57_33k_ES_PAN_21mic_H50_0319_fot_33B-38746_E_tif
  70
9
  66
1
  0
VERTEX
  8
PNOA-H_AMS_1956-57_33k_ES_PAN_21mic_H50_0319_fot_33B-38746_E_tif
  70
32
  10
571744.500
  20
4634693.000
  30
1161.605
  0
VERTEX
  8
PNOA-H_AMS_1956-57_33k_ES_PAN_21mic_H50_0319_fot_33B-38746_E_tif
  70
32
  10
571760.000
  20
4634684.000
  30
1158.819
  0
VERTEX
  8
PNOA-H_AMS_1956-57_33k_ES_PAN_21mic_H50_0319_fot_33B-38746_E_tif
  70
32
  10
571811.347
  20
4631633.338
  30
1158.691
  0
VERTEX
  8
PNOA-H_AMS_1956-57_33k_ES_PAN_21mic_H50_0319_fot_33B-38746_E_tif
  70
32
  10
570924.639
  20
4631624.306
  30
0
  0
VERTEX
  8
PNOA-H_AMS_1956-57_33k_ES_PAN_21mic_H50_0319_fot_33B-38746_E_tif
  70
32
  10
569176.196
  20
4631607.344
  30
1104.99
  0
VERTEX
  8
PNOA-H_AMS_1956-57_33k_ES_PAN_21mic_H50_0319_fot_33B-38746_E_tif
  70
32
  10
569159.000
  20
4634647.000
  30
1202.062
  0
VERTEX
  8
PNOA-H_AMS_1956-57_33k_ES_PAN_21mic_H50_0319_fot_33B-38746_E_tif
  70
32
  10
569270.235
  20
4634648.996
  30
1196.424
  0
VERTEX
  8
PNOA-H_AMS_1956-57_33k_ES_PAN_21mic_H50_0319_fot_33B-38746_E_tif
  70
32
  10
569772.000
  20
4634658.000
  30
1170.992
  0
VERTEX
  8
PNOA-H_AMS_1956-57_33k_ES_PAN_21mic_H50_0319_fot_33B-38746_E_tif
  70
32
  10
569800.000
  20
4634658.500
  30
1174.832
  0
VERTEX
  8
PNOA-H_AMS_1956-57_33k_ES_PAN_21mic_H50_0319_fot_33B-38746_E_tif
  70
32
  10
571735.000
  20
4634693.000
  30
1164.485
  0
VERTEX
  8
PNOA-H_AMS_1956-57_33k_ES_PAN_21mic_H50_0319_fot_33B-38746_E_tif
  70
32
  10
571744.491
  20
4634693.000
  30
1161.608
  0
VERTEX
  8
PNOA-H_AMS_1956-57_33k_ES_PAN_21mic_H50_0319_fot_33B-38746_E_tif
  70
32
  10
571744.500
  20
4634693.000
  30
1161.605
  0
SEQEND
  8
PNOA-H_AMS_1956-57_33k_ES_PAN_21mic_H50_0319_fot_33B-38746_E_tif
  0
INSERT
  8
FeatureAttribs
  2
FEATURE
  41
1
  42
1
  43
1
  50
0
  10
575843.296
  20
4633230.134
 66
1
  0
ATTRIB
  8
FeatureAttribs
 70
0
  1
PNOA-H_AMS_1956-57_33k_ES_PAN_21mic_H50_0319_fot_33B-38748_E.tif
  2
NAME
  10
575843.296
  20
4633230.134
 40
33.44101
  0
SEQEND
  0
POLYLINE
  8
PNOA-H_AMS_1956-57_33k_ES_PAN_21mic_H50_0319_fot_33B-38748_E_tif
  70
9
  66
1
  0
VERTEX
  8
PNOA-H_AMS_1956-57_33k_ES_PAN_21mic_H50_0319_fot_33B-38748_E_tif
  70
32
  10
577228.178
  20
4631689.896
  30
1026.281
  0
VERTEX
  8
PNOA-H_AMS_1956-57_33k_ES_PAN_21mic_H50_0319_fot_33B-38748_E_tif
  70
32
  10
574498.659
  20
4631660.768
  30
1203.74
  0
VERTEX
  8
PNOA-H_AMS_1956-57_33k_ES_PAN_21mic_H50_0319_fot_33B-38748_E_tif
  70
32
  10
574449.000
  20
4634689.000
  30
1119.154
  0
VERTEX
  8
PNOA-H_AMS_1956-57_33k_ES_PAN_21mic_H50_0319_fot_33B-38748_E_tif
  70
32
  10
575929.500
  20
4634753.500
  30
1022.091
  0
VERTEX
  8
PNOA-H_AMS_1956-57_33k_ES_PAN_21mic_H50_0319_fot_33B-38748_E_tif
  70
32
  10
575941.000
  20
4634754.000
  30
1021.377
  0
VERTEX
  8
PNOA-H_AMS_1956-57_33k_ES_PAN_21mic_H50_0319_fot_33B-38748_E_tif
  70
32
  10
576893.482
  20
4634795.118
  30
998.594
  0
VERTEX
  8
PNOA-H_AMS_1956-57_33k_ES_PAN_21mic_H50_0319_fot_33B-38748_E_tif
  70
32
  10
576994.070
  20
4634799.460
  30
996.188
  0
VERTEX
  8
PNOA-H_AMS_1956-57_33k_ES_PAN_21mic_H50_0319_fot_33B-38748_E_tif
  70
32
  10
576995.000
  20
4634799.500
  30
996.165
  0
VERTEX
  8
PNOA-H_AMS_1956-57_33k_ES_PAN_21mic_H50_0319_fot_33B-38748_E_tif
  70
32
  10
577200.000
  20
4634681.000
  30
994.14
  0
VERTEX
  8
PNOA-H_AMS_1956-57_33k_ES_PAN_21mic_H50_0319_fot_33B-38748_E_tif
  70
32
  10
577228.178
  20
4631689.896
  30
1026.281
  0
SEQEND
  8
PNOA-H_AMS_1956-57_33k_ES_PAN_21mic_H50_0319_fot_33B-38748_E_tif
  0
INSERT
  8
FeatureAttribs
  2
FEATURE
  41
1
  42
1
  43
1
  50
0
  10
573129.369
  20
4633189.669
 66
1
  0
ATTRIB
  8
FeatureAttribs
 70
0
  1
PNOA-H_AMS_1956-57_33k_ES_PAN_21mic_H50_0319_fot_33B-38747_E.tif
  2
NAME
  10
573129.369
  20
4633189.669
 40
33.44101
  0
SEQEND
  0
POLYLINE
  8
PNOA-H_AMS_1956-57_33k_ES_PAN_21mic_H50_0319_fot_33B-38747_E_tif
  70
9
  66
1
  0
VERTEX
  8
PNOA-H_AMS_1956-57_33k_ES_PAN_21mic_H50_0319_fot_33B-38747_E_tif
  70
32
  10
574384.408
  20
4631659.549
  30
0
  0
VERTEX
  8
PNOA-H_AMS_1956-57_33k_ES_PAN_21mic_H50_0319_fot_33B-38747_E_tif
  70
32
  10
571811.347
  20
4631633.338
  30
1158.691
  0
VERTEX
  8
PNOA-H_AMS_1956-57_33k_ES_PAN_21mic_H50_0319_fot_33B-38747_E_tif
  70
32
  10
571760.000
  20
4634684.000
  30
1158.819
  0
VERTEX
  8
PNOA-H_AMS_1956-57_33k_ES_PAN_21mic_H50_0319_fot_33B-38747_E_tif
  70
32
  10
574338.500
  20
4634746.000
  30
1108.914
  0
VERTEX
  8
PNOA-H_AMS_1956-57_33k_ES_PAN_21mic_H50_0319_fot_33B-38747_E_tif
  70
32
  10
574348.000
  20
4634746.000
  30
1109.766
  0
VERTEX
  8
PNOA-H_AMS_1956-57_33k_ES_PAN_21mic_H50_0319_fot_33B-38747_E_tif
  70
32
  10
574348.500
  20
4634746.000
  30
1109.811
  0
VERTEX
  8
PNOA-H_AMS_1956-57_33k_ES_PAN_21mic_H50_0319_fot_33B-38747_E_tif
  70
32
  10
574350.500
  20
4634745.000
  30
1110.151
  0
VERTEX
  8
PNOA-H_AMS_1956-57_33k_ES_PAN_21mic_H50_0319_fot_33B-38747_E_tif
  70
32
  10
574449.000
  20
4634689.000
  30
1119.154
  0
VERTEX
  8
PNOA-H_AMS_1956-57_33k_ES_PAN_21mic_H50_0319_fot_33B-38747_E_tif
  70
32
  10
574498.659
  20
4631660.768
  30
1203.74
  0
VERTEX
  8
PNOA-H_AMS_1956-57_33k_ES_PAN_21mic_H50_0319_fot_33B-38747_E_tif
  70
32
  10
574384.408
  20
4631659.549
  30
0
  0
SEQEND
  8
PNOA-H_AMS_1956-57_33k_ES_PAN_21mic_H50_0319_fot_33B-38747_E_tif
  0
INSERT
  8
FeatureAttribs
  2
FEATURE
  41
1
  42
1
  43
1
  50
0
  10
581174.950
  20
4636988.750
 66
1
  0
ATTRIB
  8
FeatureAttribs
 70
0
  1
PNOA-H_AMS_1956-57_33k_ES_PAN_21mic_H50_0319_fot_32B-39504_W.tif
  2
NAME
  10
581174.950
  20
4636988.750
 40
33.44101
  0
SEQEND
  0
POLYLINE
  8
PNOA-H_AMS_1956-57_33k_ES_PAN_21mic_H50_0319_fot_32B-39504_W_tif
  70
9
  66
1
  0
VERTEX
  8
PNOA-H_AMS_1956-57_33k_ES_PAN_21mic_H50_0319_fot_32B-39504_W_tif
  70
32
  10
582598.736
  20
4634776.887
  30
957.833
  0
VERTEX
  8
PNOA-H_AMS_1956-57_33k_ES_PAN_21mic_H50_0319_fot_32B-39504_W_tif
  70
32
  10
579977.500
  20
4634698.000
  30
967.306
  0
VERTEX
  8
PNOA-H_AMS_1956-57_33k_ES_PAN_21mic_H50_0319_fot_32B-39504_W_tif
  70
32
  10
579769.042
  20
4634823.975
  30
968.941
  0
VERTEX
  8
PNOA-H_AMS_1956-57_33k_ES_PAN_21mic_H50_0319_fot_32B-39504_W_tif
  70
32
  10
579769.000
  20
4634824.000
  30
968.941
  0
VERTEX
  8
PNOA-H_AMS_1956-57_33k_ES_PAN_21mic_H50_0319_fot_32B-39504_W_tif
  70
32
  10
579808.000
  20
4638910.500
  30
1035.416
  0
VERTEX
  8
PNOA-H_AMS_1956-57_33k_ES_PAN_21mic_H50_0319_fot_32B-39504_W_tif
  70
32
  10
580042.500
  20
4639015.500
  30
996.107
  0
VERTEX
  8
PNOA-H_AMS_1956-57_33k_ES_PAN_21mic_H50_0319_fot_32B-39504_W_tif
  70
32
  10
580043.500
  20
4639016.000
  30
995.601
  0
VERTEX
  8
PNOA-H_AMS_1956-57_33k_ES_PAN_21mic_H50_0319_fot_32B-39504_W_tif
  70
32
  10
580626.500
  20
4639277.500
  30
1098.012
  0
VERTEX
  8
PNOA-H_AMS_1956-57_33k_ES_PAN_21mic_H50_0319_fot_32B-39504_W_tif
  70
32
  10
580631.000
  20
4639279.500
  30
1097.838
  0
VERTEX
  8
PNOA-H_AMS_1956-57_33k_ES_PAN_21mic_H50_0319_fot_32B-39504_W_tif
  70
32
  10
580632.000
  20
4639279.500
  30
1097.781
  0
VERTEX
  8
PNOA-H_AMS_1956-57_33k_ES_PAN_21mic_H50_0319_fot_32B-39504_W_tif
  70
32
  10
580634.500
  20
4639279.500
  30
1097.637
  0
VERTEX
  8
PNOA-H_AMS_1956-57_33k_ES_PAN_21mic_H50_0319_fot_32B-39504_W_tif
  70
32
  10
582521.564
  20
4638964.156
  30
1101.375
  0
VERTEX
  8
PNOA-H_AMS_1956-57_33k_ES_PAN_21mic_H50_0319_fot_32B-39504_W_tif
  70
32
  10
582522.500
  20
4638964.000
  30
1101.377
  0
VERTEX
  8
PNOA-H_AMS_1956-57_33k_ES_PAN_21mic_H50_0319_fot_32B-39504_W_tif
  70
32
  10
582602.500
  20
4634777.000
  30
957.82
  0
VERTEX
  8
PNOA-H_AMS_1956-57_33k_ES_PAN_21mic_H50_0319_fot_32B-39504_W_tif
  70
32
  10
582602.467
  20
4634776.999
  30
957.82
  0
VERTEX
  8
PNOA-H_AMS_1956-57_33k_ES_PAN_21mic_H50_0319_fot_32B-39504_W_tif
  70
32
  10
582598.736
  20
4634776.887
  30
957.833
  0
SEQEND
  8
PNOA-H_AMS_1956-57_33k_ES_PAN_21mic_H50_0319_fot_32B-39504_W_tif
  0
INSERT
  8
FeatureAttribs
  2
FEATURE
  41
1
  42
1
  43
1
  50
0
  10
578396.499
  20
4636996.000
 66
1
  0
ATTRIB
  8
FeatureAttribs
 70
0
  1
PNOA-H_AMS_1956-57_33k_ES_PAN_21mic_H50_0319_fot_32B-39505_W.tif
  2
NAME
  10
578396.499
  20
4636996.000
 40
33.44101
  0
SEQEND
  0
POLYLINE
  8
PNOA-H_AMS_1956-57_33k_ES_PAN_21mic_H50_0319_fot_32B-39505_W_tif
  70
9
  66
1
  0
VERTEX
  8
PNOA-H_AMS_1956-57_33k_ES_PAN_21mic_H50_0319_fot_32B-39505_W_tif
  70
32
  10
577958.870
  20
4639283.747
  30
1048.729
  0
VERTEX
  8
PNOA-H_AMS_1956-57_33k_ES_PAN_21mic_H50_0319_fot_32B-39505_W_tif
  70
32
  10
577995.000
  20
4639276.500
  30
1046.997
  0
VERTEX
  8
PNOA-H_AMS_1956-57_33k_ES_PAN_21mic_H50_0319_fot_32B-39505_W_tif
  70
32
  10
577996.000
  20
4639276.500
  30
1046.863
  0
VERTEX
  8
PNOA-H_AMS_1956-57_33k_ES_PAN_21mic_H50_0319_fot_32B-39505_W_tif
  70
32
  10
579808.000
  20
4638910.500
  30
1035.416
  0
VERTEX
  8
PNOA-H_AMS_1956-57_33k_ES_PAN_21mic_H50_0319_fot_32B-39505_W_tif
  70
32
  10
579769.000
  20
4634824.000
  30
968.941
  0
VERTEX
  8
PNOA-H_AMS_1956-57_33k_ES_PAN_21mic_H50_0319_fot_32B-39505_W_tif
  70
32
  10
579660.831
  20
4634817.958
  30
970.01
  0
VERTEX
  8
PNOA-H_AMS_1956-57_33k_ES_PAN_21mic_H50_0319_fot_32B-39505_W_tif
  70
32
  10
577209.000
  20
4634681.000
  30
994.246
  0
VERTEX
  8
PNOA-H_AMS_1956-57_33k_ES_PAN_21mic_H50_0319_fot_32B-39505_W_tif
  70
32
  10
577200.000
  20
4634681.000
  30
994.143
  0
VERTEX
  8
PNOA-H_AMS_1956-57_33k_ES_PAN_21mic_H50_0319_fot_32B-39505_W_tif
  70
32
  10
577199.500
  20
4634681.000
  30
994.137
  0
VERTEX
  8
PNOA-H_AMS_1956-57_33k_ES_PAN_21mic_H50_0319_fot_32B-39505_W_tif
  70
32
  10
577196.500
  20
4634682.500
  30
994.07
  0
VERTEX
  8
PNOA-H_AMS_1956-57_33k_ES_PAN_21mic_H50_0319_fot_32B-39505_W_tif
  70
32
  10
576994.070
  20
4634799.460
  30
996.193
  0
VERTEX
  8
PNOA-H_AMS_1956-57_33k_ES_PAN_21mic_H50_0319_fot_32B-39505_W_tif
  70
32
  10
576994.000
  20
4634799.500
  30
996.194
  0
VERTEX
  8
PNOA-H_AMS_1956-57_33k_ES_PAN_21mic_H50_0319_fot_32B-39505_W_tif
  70
32
  10
577011.500
  20
4638946.000
  30
1088.01
  0
VERTEX
  8
PNOA-H_AMS_1956-57_33k_ES_PAN_21mic_H50_0319_fot_32B-39505_W_tif
  70
32
  10
577011.639
  20
4638946.062
  30
1088.004
  0
VERTEX
  8
PNOA-H_AMS_1956-57_33k_ES_PAN_21mic_H50_0319_fot_32B-39505_W_tif
  70
32
  10
577823.000
  20
4639311.000
  30
1055.243
  0
VERTEX
  8
PNOA-H_AMS_1956-57_33k_ES_PAN_21mic_H50_0319_fot_32B-39505_W_tif
  70
32
  10
577823.691
  20
4639310.861
  30
1055.209
  0
VERTEX
  8
PNOA-H_AMS_1956-57_33k_ES_PAN_21mic_H50_0319_fot_32B-39505_W_tif
  70
32
  10
577958.870
  20
4639283.747
  30
1048.729
  0
SEQEND
  8
PNOA-H_AMS_1956-57_33k_ES_PAN_21mic_H50_0319_fot_32B-39505_W_tif
  0
INSERT
  8
FeatureAttribs
  2
FEATURE
  41
1
  42
1
  43
1
  50
0
  10
581995.248
  20
4640067.000
 66
1
  0
ATTRIB
  8
FeatureAttribs
 70
0
  1
PNOA-H_AMS_1956-57_33k_ES_PAN_21mic_H50_0319_fot_31C-50481_E.tif
  2
NAME
  10
581995.248
  20
4640067.000
 40
33.44101
  0
SEQEND
  0
POLYLINE
  8
PNOA-H_AMS_1956-57_33k_ES_PAN_21mic_H50_0319_fot_31C-50481_E_tif
  70
9
  66
1
  0
VERTEX
  8
PNOA-H_AMS_1956-57_33k_ES_PAN_21mic_H50_0319_fot_31C-50481_E_tif
  70
32
  10
582521.564
  20
4638964.156
  30
1101.512
  0
VERTEX
  8
PNOA-H_AMS_1956-57_33k_ES_PAN_21mic_H50_0319_fot_31C-50481_E_tif
  70
32
  10
582520.000
  20
4638964.000
  30
1101.748
  0
VERTEX
  8
PNOA-H_AMS_1956-57_33k_ES_PAN_21mic_H50_0319_fot_31C-50481_E_tif
  70
32
  10
580632.000
  20
4639279.500
  30
1097.777
  0
VERTEX
  8
PNOA-H_AMS_1956-57_33k_ES_PAN_21mic_H50_0319_fot_31C-50481_E_tif
  70
32
  10
580605.043
  20
4641090.000
  30
1015.325
  0
VERTEX
  8
PNOA-H_AMS_1956-57_33k_ES_PAN_21mic_H50_0319_fot_31C-50481_E_tif
  70
32
  10
581090.000
  20
4641090.000
  30
1049.171
  0
VERTEX
  8
PNOA-H_AMS_1956-57_33k_ES_PAN_21mic_H50_0319_fot_31C-50481_E_tif
  70
32
  10
581090.000
  20
4641170.000
  30
1049.171
  0
VERTEX
  8
PNOA-H_AMS_1956-57_33k_ES_PAN_21mic_H50_0319_fot_31C-50481_E_tif
  70
32
  10
583359.895
  20
4641170.000
  30
1079.403
  0
VERTEX
  8
PNOA-H_AMS_1956-57_33k_ES_PAN_21mic_H50_0319_fot_31C-50481_E_tif
  70
32
  10
583377.000
  20
4639343.000
  30
1120.658
  0
VERTEX
  8
PNOA-H_AMS_1956-57_33k_ES_PAN_21mic_H50_0319_fot_31C-50481_E_tif
  70
32
  10
583376.848
  20
4639342.933
  30
1120.654
  0
VERTEX
  8
PNOA-H_AMS_1956-57_33k_ES_PAN_21mic_H50_0319_fot_31C-50481_E_tif
  70
32
  10
582525.000
  20
4638964.500
  30
1100.994
  0
VERTEX
  8
PNOA-H_AMS_1956-57_33k_ES_PAN_21mic_H50_0319_fot_31C-50481_E_tif
  70
32
  10
582523.227
  20
4638964.323
  30
1101.262
  0
VERTEX
  8
PNOA-H_AMS_1956-57_33k_ES_PAN_21mic_H50_0319_fot_31C-50481_E_tif
  70
32
  10
582521.564
  20
4638964.156
  30
1101.512
  0
SEQEND
  8
PNOA-H_AMS_1956-57_33k_ES_PAN_21mic_H50_0319_fot_31C-50481_E_tif
  0
INSERT
  8
FeatureAttribs
  2
FEATURE
  41
1
  42
1
  43
1
  50
0
  10
579222.169
  20
4640000.250
 66
1
  0
ATTRIB
  8
FeatureAttribs
 70
0
  1
PNOA-H_AMS_1956-57_33k_ES_PAN_21mic_H50_0319_fot_31C-50480_E.tif
  2
NAME
  10
579222.169
  20
4640000.250
 40
33.44101
  0
SEQEND
  0
POLYLINE
  8
PNOA-H_AMS_1956-57_33k_ES_PAN_21mic_H50_0319_fot_31C-50480_E_tif
  70
9
  66
1
  0
VERTEX
  8
PNOA-H_AMS_1956-57_33k_ES_PAN_21mic_H50_0319_fot_31C-50480_E_tif
  70
32
  10
580632.000
  20
4639279.500
  30
1097.777
  0
VERTEX
  8
PNOA-H_AMS_1956-57_33k_ES_PAN_21mic_H50_0319_fot_31C-50480_E_tif
  70
32
  10
579809.500
  20
4638910.500
  30
1035.312
  0
VERTEX
  8
PNOA-H_AMS_1956-57_33k_ES_PAN_21mic_H50_0319_fot_31C-50480_E_tif
  70
32
  10
579808.000
  20
4638910.500
  30
1035.436
  0
VERTEX
  8
PNOA-H_AMS_1956-57_33k_ES_PAN_21mic_H50_0319_fot_31C-50480_E_tif
  70
32
  10
579806.000
  20
4638910.500
  30
1035.601
  0
VERTEX
  8
PNOA-H_AMS_1956-57_33k_ES_PAN_21mic_H50_0319_fot_31C-50480_E_tif
  70
32
  10
577958.870
  20
4639283.747
  30
1053.869
  0
VERTEX
  8
PNOA-H_AMS_1956-57_33k_ES_PAN_21mic_H50_0319_fot_31C-50480_E_tif
  70
32
  10
577824.000
  20
4639311.000
  30
1055.202
  0
VERTEX
  8
PNOA-H_AMS_1956-57_33k_ES_PAN_21mic_H50_0319_fot_31C-50480_E_tif
  70
32
  10
577821.601
  20
4641090.000
  30
921.033
  0
VERTEX
  8
PNOA-H_AMS_1956-57_33k_ES_PAN_21mic_H50_0319_fot_31C-50480_E_tif
  70
32
  10
580605.043
  20
4641090.000
  30
1015.325
  0
VERTEX
  8
PNOA-H_AMS_1956-57_33k_ES_PAN_21mic_H50_0319_fot_31C-50480_E_tif
  70
32
  10
580632.000
  20
4639279.500
  30
1097.777
  0
SEQEND
  8
PNOA-H_AMS_1956-57_33k_ES_PAN_21mic_H50_0319_fot_31C-50480_E_tif
  0
INSERT
  8
FeatureAttribs
  2
FEATURE
  41
1
  42
1
  43
1
  50
0
  10
576391.546
  20
4640018.000
 66
1
  0
ATTRIB
  8
FeatureAttribs
 70
0
  1
PNOA-H_AMS_1956-57_33k_ES_PAN_21mic_H50_0319_fot_31C-50479_E.tif
  2
NAME
  10
576391.546
  20
4640018.000
 40
33.44101
  0
SEQEND
  0
POLYLINE
  8
PNOA-H_AMS_1956-57_33k_ES_PAN_21mic_H50_0319_fot_31C-50479_E_tif
  70
9
  66
1
  0
VERTEX
  8
PNOA-H_AMS_1956-57_33k_ES_PAN_21mic_H50_0319_fot_31C-50479_E_tif
  70
32
  10
577823.691
  20
4639310.861
  30
1055.215
  0
VERTEX
  8
PNOA-H_AMS_1956-57_33k_ES_PAN_21mic_H50_0319_fot_31C-50479_E_tif
  70
32
  10
577012.000
  20
4638946.000
  30
1087.938
  0
VERTEX
  8
PNOA-H_AMS_1956-57_33k_ES_PAN_21mic_H50_0319_fot_31C-50479_E_tif
  70
32
  10
577011.639
  20
4638946.062
  30
1087.937
  0
VERTEX
  8
PNOA-H_AMS_1956-57_33k_ES_PAN_21mic_H50_0319_fot_31C-50479_E_tif
  70
32
  10
576110.444
  20
4639101.895
  30
1085.647
  0
VERTEX
  8
PNOA-H_AMS_1956-57_33k_ES_PAN_21mic_H50_0319_fot_31C-50479_E_tif
  70
32
  10
575947.910
  20
4639130.000
  30
1085.234
  0
VERTEX
  8
PNOA-H_AMS_1956-57_33k_ES_PAN_21mic_H50_0319_fot_31C-50479_E_tif
  70
32
  10
574959.000
  20
4639301.000
  30
1082.72
  0
VERTEX
  8
PNOA-H_AMS_1956-57_33k_ES_PAN_21mic_H50_0319_fot_31C-50479_E_tif
  70
32
  10
574961.611
  20
4641090.000
  30
1041.83
  0
VERTEX
  8
PNOA-H_AMS_1956-57_33k_ES_PAN_21mic_H50_0319_fot_31C-50479_E_tif
  70
32
  10
577821.601
  20
4641090.000
  30
921.033
  0
VERTEX
  8
PNOA-H_AMS_1956-57_33k_ES_PAN_21mic_H50_0319_fot_31C-50479_E_tif
  70
32
  10
577824.000
  20
4639311.000
  30
1055.202
  0
VERTEX
  8
PNOA-H_AMS_1956-57_33k_ES_PAN_21mic_H50_0319_fot_31C-50479_E_tif
  70
32
  10
577823.691
  20
4639310.861
  30
1055.215
  0
SEQEND
  8
PNOA-H_AMS_1956-57_33k_ES_PAN_21mic_H50_0319_fot_31C-50479_E_tif
  0
INSERT
  8
FeatureAttribs
  2
FEATURE
  41
1
  42
1
  43
1
  50
0
  10
578594.764
  20
4633256.948
 66
1
  0
ATTRIB
  8
FeatureAttribs
 70
0
  1
PNOA-H_AMS_1956-57_33k_ES_PAN_21mic_H50_0319_fot_33B-38749_E.tif
  2
NAME
  10
578594.764
  20
4633256.948
 40
33.44101
  0
SEQEND
  0
POLYLINE
  8
PNOA-H_AMS_1956-57_33k_ES_PAN_21mic_H50_0319_fot_33B-38749_E_tif
  70
9
  66
1
  0
VERTEX
  8
PNOA-H_AMS_1956-57_33k_ES_PAN_21mic_H50_0319_fot_33B-38749_E_tif
  70
32
  10
577844.182
  20
4631696.470
  30
0
  0
VERTEX
  8
PNOA-H_AMS_1956-57_33k_ES_PAN_21mic_H50_0319_fot_33B-38749_E_tif
  70
32
  10
577228.178
  20
4631689.896
  30
1026.281
  0
VERTEX
  8
PNOA-H_AMS_1956-57_33k_ES_PAN_21mic_H50_0319_fot_33B-38749_E_tif
  70
32
  10
577200.000
  20
4634681.000
  30
994.14
  0
VERTEX
  8
PNOA-H_AMS_1956-57_33k_ES_PAN_21mic_H50_0319_fot_33B-38749_E_tif
  70
32
  10
577980.000
  20
4634724.500
  30
994.505
  0
VERTEX
  8
PNOA-H_AMS_1956-57_33k_ES_PAN_21mic_H50_0319_fot_33B-38749_E_tif
  70
32
  10
577989.000
  20
4634725.000
  30
994.233
  0
VERTEX
  8
PNOA-H_AMS_1956-57_33k_ES_PAN_21mic_H50_0319_fot_33B-38749_E_tif
  70
32
  10
579660.831
  20
4634817.958
  30
970.482
  0
VERTEX
  8
PNOA-H_AMS_1956-57_33k_ES_PAN_21mic_H50_0319_fot_33B-38749_E_tif
  70
32
  10
579769.042
  20
4634823.975
  30
968.945
  0
VERTEX
  8
PNOA-H_AMS_1956-57_33k_ES_PAN_21mic_H50_0319_fot_33B-38749_E_tif
  70
32
  10
579769.500
  20
4634824.000
  30
968.938
  0
VERTEX
  8
PNOA-H_AMS_1956-57_33k_ES_PAN_21mic_H50_0319_fot_33B-38749_E_tif
  70
32
  10
579977.500
  20
4634698.500
  30
967.3
  0
VERTEX
  8
PNOA-H_AMS_1956-57_33k_ES_PAN_21mic_H50_0319_fot_33B-38749_E_tif
  70
32
  10
579977.500
  20
4634698.000
  30
967.301
  0
VERTEX
  8
PNOA-H_AMS_1956-57_33k_ES_PAN_21mic_H50_0319_fot_33B-38749_E_tif
  70
32
  10
579974.634
  20
4631720.239
  30
975.215
  0
VERTEX
  8
PNOA-H_AMS_1956-57_33k_ES_PAN_21mic_H50_0319_fot_33B-38749_E_tif
  70
32
  10
577844.182
  20
4631696.470
  30
0
  0
SEQEND
  8
PNOA-H_AMS_1956-57_33k_ES_PAN_21mic_H50_0319_fot_33B-38749_E_tif
  0
INSERT
  8
FeatureAttribs
  2
FEATURE
  41
1
  42
1
  43
1
  50
0
  10
581367.456
  20
4633248.620
 66
1
  0
ATTRIB
  8
FeatureAttribs
 70
0
  1
PNOA-H_AMS_1956-57_33k_ES_PAN_21mic_H50_0319_fot_33B-38750_E.tif
  2
NAME
  10
581367.456
  20
4633248.620
 40
33.44101
  0
SEQEND
  0
POLYLINE
  8
PNOA-H_AMS_1956-57_33k_ES_PAN_21mic_H50_0319_fot_33B-38750_E_tif
  70
9
  66
1
  0
VERTEX
  8
PNOA-H_AMS_1956-57_33k_ES_PAN_21mic_H50_0319_fot_33B-38750_E_tif
  70
32
  10
581303.960
  20
4631735.070
  30
0
  0
VERTEX
  8
PNOA-H_AMS_1956-57_33k_ES_PAN_21mic_H50_0319_fot_33B-38750_E_tif
  70
32
  10
579974.634
  20
4631720.239
  30
975.217
  0
VERTEX
  8
PNOA-H_AMS_1956-57_33k_ES_PAN_21mic_H50_0319_fot_33B-38750_E_tif
  70
32
  10
579977.500
  20
4634698.000
  30
967.306
  0
VERTEX
  8
PNOA-H_AMS_1956-57_33k_ES_PAN_21mic_H50_0319_fot_33B-38750_E_tif
  70
32
  10
582581.500
  20
4634776.500
  30
957.795
  0
VERTEX
  8
PNOA-H_AMS_1956-57_33k_ES_PAN_21mic_H50_0319_fot_33B-38750_E_tif
  70
32
  10
582598.000
  20
4634777.000
  30
957.806
  0
VERTEX
  8
PNOA-H_AMS_1956-57_33k_ES_PAN_21mic_H50_0319_fot_33B-38750_E_tif
  70
32
  10
582598.736
  20
4634776.887
  30
957.807
  0
VERTEX
  8
PNOA-H_AMS_1956-57_33k_ES_PAN_21mic_H50_0319_fot_33B-38750_E_tif
  70
32
  10
582602.948
  20
4634776.239
  30
957.817
  0
VERTEX
  8
PNOA-H_AMS_1956-57_33k_ES_PAN_21mic_H50_0319_fot_33B-38750_E_tif
  70
32
  10
582604.500
  20
4634776.000
  30
957.821
  0
VERTEX
  8
PNOA-H_AMS_1956-57_33k_ES_PAN_21mic_H50_0319_fot_33B-38750_E_tif
  70
32
  10
582758.500
  20
4634686.000
  30
957.417
  0
VERTEX
  8
PNOA-H_AMS_1956-57_33k_ES_PAN_21mic_H50_0319_fot_33B-38750_E_tif
  70
32
  10
582758.500
  20
4634685.500
  30
957.423
  0
VERTEX
  8
PNOA-H_AMS_1956-57_33k_ES_PAN_21mic_H50_0319_fot_33B-38750_E_tif
  70
32
  10
582759.127
  20
4631752.011
  30
997.007
  0
VERTEX
  8
PNOA-H_AMS_1956-57_33k_ES_PAN_21mic_H50_0319_fot_33B-38750_E_tif
  70
32
  10
581303.960
  20
4631735.070
  30
0
  0
SEQEND
  8
PNOA-H_AMS_1956-57_33k_ES_PAN_21mic_H50_0319_fot_33B-38750_E_tif
  0
INSERT
  8
FeatureAttribs
  2
FEATURE
  41
1
  42
1
  43
1
  50
0
  10
586723.546
  20
4636987.000
 66
1
  0
ATTRIB
  8
FeatureAttribs
 70
0
  1
PNOA-H_AMS_1956-57_33k_ES_PAN_21mic_H50_0319_fot_32B-39502_W.tif
  2
NAME
  10
586723.546
  20
4636987.000
 40
33.44101
  0
SEQEND
  0
POLYLINE
  8
PNOA-H_AMS_1956-57_33k_ES_PAN_21mic_H50_0319_fot_32B-39502_W_tif
  70
9
  66
1
  0
VERTEX
  8
PNOA-H_AMS_1956-57_33k_ES_PAN_21mic_H50_0319_fot_32B-39502_W_tif
  70
32
  10
585646.953
  20
4634631.028
  30
1153.667
  0
VERTEX
  8
PNOA-H_AMS_1956-57_33k_ES_PAN_21mic_H50_0319_fot_32B-39502_W_tif
  70
32
  10
585646.500
  20
4634631.000
  30
1153.696
  0
VERTEX
  8
PNOA-H_AMS_1956-57_33k_ES_PAN_21mic_H50_0319_fot_32B-39502_W_tif
  70
32
  10
585296.046
  20
4634839.473
  30
1159.97
  0
VERTEX
  8
PNOA-H_AMS_1956-57_33k_ES_PAN_21mic_H50_0319_fot_32B-39502_W_tif
  70
32
  10
585296.000
  20
4634839.500
  30
1159.971
  0
VERTEX
  8
PNOA-H_AMS_1956-57_33k_ES_PAN_21mic_H50_0319_fot_32B-39502_W_tif
  70
32
  10
585355.000
  20
4638961.500
  30
1025.951
  0
VERTEX
  8
PNOA-H_AMS_1956-57_33k_ES_PAN_21mic_H50_0319_fot_32B-39502_W_tif
  70
32
  10
586208.500
  20
4639342.500
  30
989.659
  0
VERTEX
  8
PNOA-H_AMS_1956-57_33k_ES_PAN_21mic_H50_0319_fot_32B-39502_W_tif
  70
32
  10
586209.496
  20
4639342.998
  30
989.463
  0
VERTEX
  8
PNOA-H_AMS_1956-57_33k_ES_PAN_21mic_H50_0319_fot_32B-39502_W_tif
  70
32
  10
586209.500
  20
4639343.000
  30
989.462
  0
VERTEX
  8
PNOA-H_AMS_1956-57_33k_ES_PAN_21mic_H50_0319_fot_32B-39502_W_tif
  70
32
  10
588085.500
  20
4638971.500
  30
995.956
  0
VERTEX
  8
PNOA-H_AMS_1956-57_33k_ES_PAN_21mic_H50_0319_fot_32B-39502_W_tif
  70
32
  10
588159.000
  20
4634786.500
  30
994.307
  0
VERTEX
  8
PNOA-H_AMS_1956-57_33k_ES_PAN_21mic_H50_0319_fot_32B-39502_W_tif
  70
32
  10
585855.875
  20
4634643.958
  30
1140.413
  0
VERTEX
  8
PNOA-H_AMS_1956-57_33k_ES_PAN_21mic_H50_0319_fot_32B-39502_W_tif
  70
32
  10
585646.953
  20
4634631.028
  30
1153.667
  0
SEQEND
  8
PNOA-H_AMS_1956-57_33k_ES_PAN_21mic_H50_0319_fot_32B-39502_W_tif
  0
INSERT
  8
FeatureAttribs
  2
FEATURE
  41
1
  42
1
  43
1
  50
0
  10
589514.583
  20
4637020.500
 66
1
  0
ATTRIB
  8
FeatureAttribs
 70
0
  1
PNOA-H_AMS_1956-57_33k_ES_PAN_21mic_H50_0319_fot_32B-39501_W.tif
  2
NAME
  10
589514.583
  20
4637020.500
 40
33.44101
  0
SEQEND
  0
POLYLINE
  8
PNOA-H_AMS_1956-57_33k_ES_PAN_21mic_H50_0319_fot_32B-39501_W_tif
  70
9
  66
1
  0
VERTEX
  8
PNOA-H_AMS_1956-57_33k_ES_PAN_21mic_H50_0319_fot_32B-39501_W_tif
  70
32
  10
590817.281
  20
4634813.953
  30
941.576
  0
VERTEX
  8
PNOA-H_AMS_1956-57_33k_ES_PAN_21mic_H50_0319_fot_32B-39501_W_tif
  70
32
  10
588425.000
  20
4634642.000
  30
969.786
  0
VERTEX
  8
PNOA-H_AMS_1956-57_33k_ES_PAN_21mic_H50_0319_fot_32B-39501_W_tif
  70
32
  10
588422.148
  20
4634642.190
  30
969.84
  0
VERTEX
  8
PNOA-H_AMS_1956-57_33k_ES_PAN_21mic_H50_0319_fot_32B-39501_W_tif
  70
32
  10
588418.746
  20
4634642.417
  30
969.904
  0
VERTEX
  8
PNOA-H_AMS_1956-57_33k_ES_PAN_21mic_H50_0319_fot_32B-39501_W_tif
  70
32
  10
588417.500
  20
4634642.500
  30
969.928
  0
VERTEX
  8
PNOA-H_AMS_1956-57_33k_ES_PAN_21mic_H50_0319_fot_32B-39501_W_tif
  70
32
  10
588263.094
  20
4634728.513
  30
984.49
  0
VERTEX
  8
PNOA-H_AMS_1956-57_33k_ES_PAN_21mic_H50_0319_fot_32B-39501_W_tif
  70
32
  10
588217.563
  20
4634753.877
  30
988.784
  0
VERTEX
  8
PNOA-H_AMS_1956-57_33k_ES_PAN_21mic_H50_0319_fot_32B-39501_W_tif
  70
32
  10
588159.000
  20
4634786.500
  30
994.307
  0
VERTEX
  8
PNOA-H_AMS_1956-57_33k_ES_PAN_21mic_H50_0319_fot_32B-39501_W_tif
  70
32
  10
588085.500
  20
4638971.500
  30
995.956
  0
VERTEX
  8
PNOA-H_AMS_1956-57_33k_ES_PAN_21mic_H50_0319_fot_32B-39501_W_tif
  70
32
  10
588085.659
  20
4638971.567
  30
995.94
  0
VERTEX
  8
PNOA-H_AMS_1956-57_33k_ES_PAN_21mic_H50_0319_fot_32B-39501_W_tif
  70
32
  10
588234.500
  20
4639034.500
  30
981.141
  0
VERTEX
  8
PNOA-H_AMS_1956-57_33k_ES_PAN_21mic_H50_0319_fot_32B-39501_W_tif
  70
32
  10
588235.500
  20
4639035.000
  30
981.147
  0
VERTEX
  8
PNOA-H_AMS_1956-57_33k_ES_PAN_21mic_H50_0319_fot_32B-39501_W_tif
  70
32
  10
588845.209
  20
4639291.423
  30
939.58
  0
VERTEX
  8
PNOA-H_AMS_1956-57_33k_ES_PAN_21mic_H50_0319_fot_32B-39501_W_tif
  70
32
  10
589100.827
  20
4639398.927
  30
922.153
  0
VERTEX
  8
PNOA-H_AMS_1956-57_33k_ES_PAN_21mic_H50_0319_fot_32B-39501_W_tif
  70
32
  10
589101.000
  20
4639399.000
  30
922.142
  0
VERTEX
  8
PNOA-H_AMS_1956-57_33k_ES_PAN_21mic_H50_0319_fot_32B-39501_W_tif
  70
32
  10
590928.678
  20
4638990.572
  30
868.956
  0
VERTEX
  8
PNOA-H_AMS_1956-57_33k_ES_PAN_21mic_H50_0319_fot_32B-39501_W_tif
  70
32
  10
590929.000
  20
4638990.500
  30
868.946
  0
VERTEX
  8
PNOA-H_AMS_1956-57_33k_ES_PAN_21mic_H50_0319_fot_32B-39501_W_tif
  70
32
  10
590887.500
  20
4634819.000
  30
940.748
  0
VERTEX
  8
PNOA-H_AMS_1956-57_33k_ES_PAN_21mic_H50_0319_fot_32B-39501_W_tif
  70
32
  10
590817.281
  20
4634813.953
  30
941.576
  0
SEQEND
  8
PNOA-H_AMS_1956-57_33k_ES_PAN_21mic_H50_0319_fot_32B-39501_W_tif
  0
INSERT
  8
FeatureAttribs
  2
FEATURE
  41
1
  42
1
  43
1
  50
0
  10
583943.355
  20
4637014.250
 66
1
  0
ATTRIB
  8
FeatureAttribs
 70
0
  1
PNOA-H_AMS_1956-57_33k_ES_PAN_21mic_H50_0319_fot_32B-39503_W.tif
  2
NAME
  10
583943.355
  20
4637014.250
 40
33.44101
  0
SEQEND
  0
POLYLINE
  8
PNOA-H_AMS_1956-57_33k_ES_PAN_21mic_H50_0319_fot_32B-39503_W_tif
  70
9
  66
1
  0
VERTEX
  8
PNOA-H_AMS_1956-57_33k_ES_PAN_21mic_H50_0319_fot_32B-39503_W_tif
  70
32
  10
585135.399
  20
4634829.753
  30
1147.151
  0
VERTEX
  8
PNOA-H_AMS_1956-57_33k_ES_PAN_21mic_H50_0319_fot_32B-39503_W_tif
  70
32
  10
582758.500
  20
4634685.500
  30
957.417
  0
VERTEX
  8
PNOA-H_AMS_1956-57_33k_ES_PAN_21mic_H50_0319_fot_32B-39503_W_tif
  70
32
  10
582602.948
  20
4634776.239
  30
957.819
  0
VERTEX
  8
PNOA-H_AMS_1956-57_33k_ES_PAN_21mic_H50_0319_fot_32B-39503_W_tif
  70
32
  10
582602.500
  20
4634776.500
  30
957.821
  0
VERTEX
  8
PNOA-H_AMS_1956-57_33k_ES_PAN_21mic_H50_0319_fot_32B-39503_W_tif
  70
32
  10
582602.467
  20
4634776.999
  30
957.818
  0
VERTEX
  8
PNOA-H_AMS_1956-57_33k_ES_PAN_21mic_H50_0319_fot_32B-39503_W_tif
  70
32
  10
582602.000
  20
4634784.000
  30
957.78
  0
VERTEX
  8
PNOA-H_AMS_1956-57_33k_ES_PAN_21mic_H50_0319_fot_32B-39503_W_tif
  70
32
  10
582522.500
  20
4638964.000
  30
1101.377
  0
VERTEX
  8
PNOA-H_AMS_1956-57_33k_ES_PAN_21mic_H50_0319_fot_32B-39503_W_tif
  70
32
  10
582523.227
  20
4638964.323
  30
1101.393
  0
VERTEX
  8
PNOA-H_AMS_1956-57_33k_ES_PAN_21mic_H50_0319_fot_32B-39503_W_tif
  70
32
  10
583376.500
  20
4639343.000
  30
1120.577
  0
VERTEX
  8
PNOA-H_AMS_1956-57_33k_ES_PAN_21mic_H50_0319_fot_32B-39503_W_tif
  70
32
  10
583376.848
  20
4639342.933
  30
1120.542
  0
VERTEX
  8
PNOA-H_AMS_1956-57_33k_ES_PAN_21mic_H50_0319_fot_32B-39503_W_tif
  70
32
  10
584137.500
  20
4639196.000
  30
1043.976
  0
VERTEX
  8
PNOA-H_AMS_1956-57_33k_ES_PAN_21mic_H50_0319_fot_32B-39503_W_tif
  70
32
  10
584140.000
  20
4639195.500
  30
1043.38
  0
VERTEX
  8
PNOA-H_AMS_1956-57_33k_ES_PAN_21mic_H50_0319_fot_32B-39503_W_tif
  70
32
  10
584540.731
  20
4639118.322
  30
1037.631
  0
VERTEX
  8
PNOA-H_AMS_1956-57_33k_ES_PAN_21mic_H50_0319_fot_32B-39503_W_tif
  70
32
  10
585355.000
  20
4638961.500
  30
1025.951
  0
VERTEX
  8
PNOA-H_AMS_1956-57_33k_ES_PAN_21mic_H50_0319_fot_32B-39503_W_tif
  70
32
  10
585296.000
  20
4634839.500
  30
1159.971
  0
VERTEX
  8
PNOA-H_AMS_1956-57_33k_ES_PAN_21mic_H50_0319_fot_32B-39503_W_tif
  70
32
  10
585135.399
  20
4634829.753
  30
1147.151
  0
SEQEND
  8
PNOA-H_AMS_1956-57_33k_ES_PAN_21mic_H50_0319_fot_32B-39503_W_tif
  0
INSERT
  8
FeatureAttribs
  2
FEATURE
  41
1
  42
1
  43
1
  50
0
  10
587645.977
  20
4640115.750
 66
1
  0
ATTRIB
  8
FeatureAttribs
 70
0
  1
PNOA-H_AMS_1956-57_33k_ES_PAN_21mic_H50_0319_fot_31C-50483_E.tif
  2
NAME
  10
587645.977
  20
4640115.750
 40
33.44101
  0
SEQEND
  0
POLYLINE
  8
PNOA-H_AMS_1956-57_33k_ES_PAN_21mic_H50_0319_fot_31C-50483_E_tif
  70
9
  66
1
  0
VERTEX
  8
PNOA-H_AMS_1956-57_33k_ES_PAN_21mic_H50_0319_fot_31C-50483_E_tif
  70
32
  10
588845.209
  20
4639291.423
  30
940.528
  0
VERTEX
  8
PNOA-H_AMS_1956-57_33k_ES_PAN_21mic_H50_0319_fot_31C-50483_E_tif
  70
32
  10
588086.000
  20
4638971.500
  30
995.91
  0
VERTEX
  8
PNOA-H_AMS_1956-57_33k_ES_PAN_21mic_H50_0319_fot_31C-50483_E_tif
  70
32
  10
588085.659
  20
4638971.567
  30
995.909
  0
VERTEX
  8
PNOA-H_AMS_1956-57_33k_ES_PAN_21mic_H50_0319_fot_31C-50483_E_tif
  70
32
  10
586210.000
  20
4639343.000
  30
989.414
  0
VERTEX
  8
PNOA-H_AMS_1956-57_33k_ES_PAN_21mic_H50_0319_fot_31C-50483_E_tif
  70
32
  10
586196.479
  20
4641170.000
  30
931.983
  0
VERTEX
  8
PNOA-H_AMS_1956-57_33k_ES_PAN_21mic_H50_0319_fot_31C-50483_E_tif
  70
32
  10
588000.000
  20
4641170.000
  30
891.767
  0
VERTEX
  8
PNOA-H_AMS_1956-57_33k_ES_PAN_21mic_H50_0319_fot_31C-50483_E_tif
  70
32
  10
588000.000
  20
4641260.000
  30
891.767
  0
VERTEX
  8
PNOA-H_AMS_1956-57_33k_ES_PAN_21mic_H50_0319_fot_31C-50483_E_tif
  70
32
  10
589067.238
  20
4641260.000
  30
895.44
  0
VERTEX
  8
PNOA-H_AMS_1956-57_33k_ES_PAN_21mic_H50_0319_fot_31C-50483_E_tif
  70
32
  10
589067.399
  20
4641260.000
  30
895.441
  0
VERTEX
  8
PNOA-H_AMS_1956-57_33k_ES_PAN_21mic_H50_0319_fot_31C-50483_E_tif
  70
32
  10
589084.500
  20
4640306.500
  30
937.775
  0
VERTEX
  8
PNOA-H_AMS_1956-57_33k_ES_PAN_21mic_H50_0319_fot_31C-50483_E_tif
  70
32
  10
589084.500
  20
4640294.195
  30
939.023
  0
VERTEX
  8
PNOA-H_AMS_1956-57_33k_ES_PAN_21mic_H50_0319_fot_31C-50483_E_tif
  70
32
  10
589084.500
  20
4640293.000
  30
939.145
  0
VERTEX
  8
PNOA-H_AMS_1956-57_33k_ES_PAN_21mic_H50_0319_fot_31C-50483_E_tif
  70
32
  10
589100.500
  20
4639399.000
  30
921.905
  0
VERTEX
  8
PNOA-H_AMS_1956-57_33k_ES_PAN_21mic_H50_0319_fot_31C-50483_E_tif
  70
32
  10
588845.209
  20
4639291.423
  30
940.528
  0
SEQEND
  8
PNOA-H_AMS_1956-57_33k_ES_PAN_21mic_H50_0319_fot_31C-50483_E_tif
  0
INSERT
  8
FeatureAttribs
  2
FEATURE
  41
1
  42
1
  43
1
  50
0
  10
584787.260
  20
4640065.750
 66
1
  0
ATTRIB
  8
FeatureAttribs
 70
0
  1
PNOA-H_AMS_1956-57_33k_ES_PAN_21mic_H50_0319_fot_31C-50482_E.tif
  2
NAME
  10
584787.260
  20
4640065.750
 40
33.44101
  0
SEQEND
  0
POLYLINE
  8
PNOA-H_AMS_1956-57_33k_ES_PAN_21mic_H50_0319_fot_31C-50482_E_tif
  70
9
  66
1
  0
VERTEX
  8
PNOA-H_AMS_1956-57_33k_ES_PAN_21mic_H50_0319_fot_31C-50482_E_tif
  70
32
  10
585355.000
  20
4638961.500
  30
1025.951
  0
VERTEX
  8
PNOA-H_AMS_1956-57_33k_ES_PAN_21mic_H50_0319_fot_31C-50482_E_tif
  70
32
  10
585353.000
  20
4638961.500
  30
1026.16
  0
VERTEX
  8
PNOA-H_AMS_1956-57_33k_ES_PAN_21mic_H50_0319_fot_31C-50482_E_tif
  70
32
  10
584540.731
  20
4639118.322
  30
1065.005
  0
VERTEX
  8
PNOA-H_AMS_1956-57_33k_ES_PAN_21mic_H50_0319_fot_31C-50482_E_tif
  70
32
  10
583377.000
  20
4639343.000
  30
1120.658
  0
VERTEX
  8
PNOA-H_AMS_1956-57_33k_ES_PAN_21mic_H50_0319_fot_31C-50482_E_tif
  70
32
  10
583359.895
  20
4641170.000
  30
1079.403
  0
VERTEX
  8
PNOA-H_AMS_1956-57_33k_ES_PAN_21mic_H50_0319_fot_31C-50482_E_tif
  70
32
  10
586196.325
  20
4641170.000
  30
931.158
  0
VERTEX
  8
PNOA-H_AMS_1956-57_33k_ES_PAN_21mic_H50_0319_fot_31C-50482_E_tif
  70
32
  10
586209.496
  20
4639342.998
  30
989.551
  0
VERTEX
  8
PNOA-H_AMS_1956-57_33k_ES_PAN_21mic_H50_0319_fot_31C-50482_E_tif
  70
32
  10
586209.500
  20
4639342.500
  30
989.567
  0
VERTEX
  8
PNOA-H_AMS_1956-57_33k_ES_PAN_21mic_H50_0319_fot_31C-50482_E_tif
  70
32
  10
585383.000
  20
4638973.500
  30
1024.203
  0
VERTEX
  8
PNOA-H_AMS_1956-57_33k_ES_PAN_21mic_H50_0319_fot_31C-50482_E_tif
  70
32
  10
585356.000
  20
4638961.500
  30
1025.846
  0
VERTEX
  8
PNOA-H_AMS_1956-57_33k_ES_PAN_21mic_H50_0319_fot_31C-50482_E_tif
  70
32
  10
585355.000
  20
4638961.500
  30
1025.951
  0
SEQEND
  8
PNOA-H_AMS_1956-57_33k_ES_PAN_21mic_H50_0319_fot_31C-50482_E_tif
  0
INSERT
  8
FeatureAttribs
  2
FEATURE
  41
1
  42
1
  43
1
  50
0
  10
584186.380
  20
4633295.756
 66
1
  0
ATTRIB
  8
FeatureAttribs
 70
0
  1
PNOA-H_AMS_1956-57_33k_ES_PAN_21mic_H50_0319_fot_33B-38751_E.tif
  2
NAME
  10
584186.380
  20
4633295.756
 40
33.44101
  0
SEQEND
  0
POLYLINE
  8
PNOA-H_AMS_1956-57_33k_ES_PAN_21mic_H50_0319_fot_33B-38751_E_tif
  70
9
  66
1
  0
VERTEX
  8
PNOA-H_AMS_1956-57_33k_ES_PAN_21mic_H50_0319_fot_33B-38751_E_tif
  70
32
  10
584763.744
  20
4631775.349
  30
0
  0
VERTEX
  8
PNOA-H_AMS_1956-57_33k_ES_PAN_21mic_H50_0319_fot_33B-38751_E_tif
  70
32
  10
582759.127
  20
4631752.011
  30
997.004
  0
VERTEX
  8
PNOA-H_AMS_1956-57_33k_ES_PAN_21mic_H50_0319_fot_33B-38751_E_tif
  70
32
  10
582758.500
  20
4634685.500
  30
957.417
  0
VERTEX
  8
PNOA-H_AMS_1956-57_33k_ES_PAN_21mic_H50_0319_fot_33B-38751_E_tif
  70
32
  10
584131.500
  20
4634769.000
  30
1006.954
  0
VERTEX
  8
PNOA-H_AMS_1956-57_33k_ES_PAN_21mic_H50_0319_fot_33B-38751_E_tif
  70
32
  10
584139.500
  20
4634769.500
  30
1007.826
  0
VERTEX
  8
PNOA-H_AMS_1956-57_33k_ES_PAN_21mic_H50_0319_fot_33B-38751_E_tif
  70
32
  10
585135.399
  20
4634829.753
  30
1138.928
  0
VERTEX
  8
PNOA-H_AMS_1956-57_33k_ES_PAN_21mic_H50_0319_fot_33B-38751_E_tif
  70
32
  10
585296.046
  20
4634839.473
  30
1160.076
  0
VERTEX
  8
PNOA-H_AMS_1956-57_33k_ES_PAN_21mic_H50_0319_fot_33B-38751_E_tif
  70
32
  10
585296.500
  20
4634839.500
  30
1160.135
  0
VERTEX
  8
PNOA-H_AMS_1956-57_33k_ES_PAN_21mic_H50_0319_fot_33B-38751_E_tif
  70
32
  10
585646.953
  20
4634631.028
  30
1153.598
  0
VERTEX
  8
PNOA-H_AMS_1956-57_33k_ES_PAN_21mic_H50_0319_fot_33B-38751_E_tif
  70
32
  10
585647.000
  20
4634631.000
  30
1153.598
  0
VERTEX
  8
PNOA-H_AMS_1956-57_33k_ES_PAN_21mic_H50_0319_fot_33B-38751_E_tif
  70
32
  10
585576.587
  20
4631785.206
  30
1050.866
  0
VERTEX
  8
PNOA-H_AMS_1956-57_33k_ES_PAN_21mic_H50_0319_fot_33B-38751_E_tif
  70
32
  10
585576.291
  20
4631785.203
  30
0
  0
VERTEX
  8
PNOA-H_AMS_1956-57_33k_ES_PAN_21mic_H50_0319_fot_33B-38751_E_tif
  70
32
  10
584763.744
  20
4631775.349
  30
0
  0
SEQEND
  8
PNOA-H_AMS_1956-57_33k_ES_PAN_21mic_H50_0319_fot_33B-38751_E_tif
  0
INSERT
  8
FeatureAttribs
  2
FEATURE
  41
1
  42
1
  43
1
  50
0
  10
587015.960
  20
4633285.851
 66
1
  0
ATTRIB
  8
FeatureAttribs
 70
0
  1
PNOA-H_AMS_1956-57_33k_ES_PAN_21mic_H50_0319_fot_33B-38752_E.tif
  2
NAME
  10
587015.960
  20
4633285.851
 40
33.44101
  0
SEQEND
  0
POLYLINE
  8
PNOA-H_AMS_1956-57_33k_ES_PAN_21mic_H50_0319_fot_33B-38752_E_tif
  70
9
  66
1
  0
VERTEX
  8
PNOA-H_AMS_1956-57_33k_ES_PAN_21mic_H50_0319_fot_33B-38752_E_tif
  70
32
  10
585576.587
  20
4631785.206
  30
1050.867
  0
VERTEX
  8
PNOA-H_AMS_1956-57_33k_ES_PAN_21mic_H50_0319_fot_33B-38752_E_tif
  70
32
  10
585576.291
  20
4631785.203
  30
1050.959
  0
VERTEX
  8
PNOA-H_AMS_1956-57_33k_ES_PAN_21mic_H50_0319_fot_33B-38752_E_tif
  70
32
  10
585647.000
  20
4634631.000
  30
1153.598
  0
VERTEX
  8
PNOA-H_AMS_1956-57_33k_ES_PAN_21mic_H50_0319_fot_33B-38752_E_tif
  70
32
  10
585855.875
  20
4634643.958
  30
1140.339
  0
VERTEX
  8
PNOA-H_AMS_1956-57_33k_ES_PAN_21mic_H50_0319_fot_33B-38752_E_tif
  70
32
  10
588153.500
  20
4634786.500
  30
994.493
  0
VERTEX
  8
PNOA-H_AMS_1956-57_33k_ES_PAN_21mic_H50_0319_fot_33B-38752_E_tif
  70
32
  10
588159.000
  20
4634786.500
  30
994.308
  0
VERTEX
  8
PNOA-H_AMS_1956-57_33k_ES_PAN_21mic_H50_0319_fot_33B-38752_E_tif
  70
32
  10
588159.500
  20
4634786.500
  30
994.291
  0
VERTEX
  8
PNOA-H_AMS_1956-57_33k_ES_PAN_21mic_H50_0319_fot_33B-38752_E_tif
  70
32
  10
588163.500
  20
4634784.500
  30
994.43
  0
VERTEX
  8
PNOA-H_AMS_1956-57_33k_ES_PAN_21mic_H50_0319_fot_33B-38752_E_tif
  70
32
  10
588217.563
  20
4634753.877
  30
990.672
  0
VERTEX
  8
PNOA-H_AMS_1956-57_33k_ES_PAN_21mic_H50_0319_fot_33B-38752_E_tif
  70
32
  10
588235.000
  20
4634744.000
  30
989.46
  0
VERTEX
  8
PNOA-H_AMS_1956-57_33k_ES_PAN_21mic_H50_0319_fot_33B-38752_E_tif
  70
32
  10
588236.000
  20
4634743.500
  30
989.372
  0
VERTEX
  8
PNOA-H_AMS_1956-57_33k_ES_PAN_21mic_H50_0319_fot_33B-38752_E_tif
  70
32
  10
588263.094
  20
4634728.513
  30
986.497
  0
VERTEX
  8
PNOA-H_AMS_1956-57_33k_ES_PAN_21mic_H50_0319_fot_33B-38752_E_tif
  70
32
  10
588418.746
  20
4634642.417
  30
969.984
  0
VERTEX
  8
PNOA-H_AMS_1956-57_33k_ES_PAN_21mic_H50_0319_fot_33B-38752_E_tif
  70
32
  10
588419.500
  20
4634642.000
  30
969.904
  0
VERTEX
  8
PNOA-H_AMS_1956-57_33k_ES_PAN_21mic_H50_0319_fot_33B-38752_E_tif
  70
32
  10
588417.090
  20
4631819.747
  30
999.739
  0
VERTEX
  8
PNOA-H_AMS_1956-57_33k_ES_PAN_21mic_H50_0319_fot_33B-38752_E_tif
  70
32
  10
588223.532
  20
4631817.306
  30
0
  0
VERTEX
  8
PNOA-H_AMS_1956-57_33k_ES_PAN_21mic_H50_0319_fot_33B-38752_E_tif
  70
32
  10
585576.587
  20
4631785.206
  30
1050.867
  0
SEQEND
  8
PNOA-H_AMS_1956-57_33k_ES_PAN_21mic_H50_0319_fot_33B-38752_E_tif
  0
INSERT
  8
FeatureAttribs
  2
FEATURE
  41
1
  42
1
  43
1
  50
0
  10
592323.602
  20
4637063.250
 66
1
  0
ATTRIB
  8
FeatureAttribs
 70
0
  1
PNOA-H_AMS_1956-57_33k_ES_PAN_21mic_H50_0319_fot_32B-39500_W.tif
  2
NAME
  10
592323.602
  20
4637063.250
 40
33.44101
  0
SEQEND
  0
POLYLINE
  8
PNOA-H_AMS_1956-57_33k_ES_PAN_21mic_H50_0319_fot_32B-39500_W_tif
  70
9
  66
1
  0
VERTEX
  8
PNOA-H_AMS_1956-57_33k_ES_PAN_21mic_H50_0319_fot_32B-39500_W_tif
  70
32
  10
591140.482
  20
4634676.010
  30
934.891
  0
VERTEX
  8
PNOA-H_AMS_1956-57_33k_ES_PAN_21mic_H50_0319_fot_32B-39500_W_tif
  70
32
  10
591140.000
  20
4634676.000
  30
934.891
  0
VERTEX
  8
PNOA-H_AMS_1956-57_33k_ES_PAN_21mic_H50_0319_fot_32B-39500_W_tif
  70
32
  10
590887.556
  20
4634818.968
  30
940.747
  0
VERTEX
  8
PNOA-H_AMS_1956-57_33k_ES_PAN_21mic_H50_0319_fot_32B-39500_W_tif
  70
32
  10
590887.500
  20
4634819.000
  30
940.748
  0
VERTEX
  8
PNOA-H_AMS_1956-57_33k_ES_PAN_21mic_H50_0319_fot_32B-39500_W_tif
  70
32
  10
590929.000
  20
4638990.500
  30
868.946
  0
VERTEX
  8
PNOA-H_AMS_1956-57_33k_ES_PAN_21mic_H50_0319_fot_32B-39500_W_tif
  70
32
  10
591496.750
  20
4639220.500
  30
841.914
  0
VERTEX
  8
PNOA-H_AMS_1956-57_33k_ES_PAN_21mic_H50_0319_fot_32B-39500_W_tif
  70
32
  10
592064.500
  20
4639450.500
  30
814.883
  0
VERTEX
  8
PNOA-H_AMS_1956-57_33k_ES_PAN_21mic_H50_0319_fot_32B-39500_W_tif
  70
32
  10
592064.795
  20
4639450.417
  30
814.856
  0
VERTEX
  8
PNOA-H_AMS_1956-57_33k_ES_PAN_21mic_H50_0319_fot_32B-39500_W_tif
  70
32
  10
592329.500
  20
4639376.000
  30
790.586
  0
VERTEX
  8
PNOA-H_AMS_1956-57_33k_ES_PAN_21mic_H50_0319_fot_32B-39500_W_tif
  70
32
  10
592331.305
  20
4639375.639
  30
790.676
  0
VERTEX
  8
PNOA-H_AMS_1956-57_33k_ES_PAN_21mic_H50_0319_fot_32B-39500_W_tif
  70
32
  10
592332.000
  20
4639375.500
  30
790.711
  0
VERTEX
  8
PNOA-H_AMS_1956-57_33k_ES_PAN_21mic_H50_0319_fot_32B-39500_W_tif
  70
32
  10
593749.792
  20
4638977.058
  30
778.15
  0
VERTEX
  8
PNOA-H_AMS_1956-57_33k_ES_PAN_21mic_H50_0319_fot_32B-39500_W_tif
  70
32
  10
593750.000
  20
4638977.000
  30
778.148
  0
VERTEX
  8
PNOA-H_AMS_1956-57_33k_ES_PAN_21mic_H50_0319_fot_32B-39500_W_tif
  70
32
  10
593722.003
  20
4634732.500
  30
932.893
  0
VERTEX
  8
PNOA-H_AMS_1956-57_33k_ES_PAN_21mic_H50_0319_fot_32B-39500_W_tif
  70
32
  10
593722.000
  20
4634732.000
  30
932.911
  0
VERTEX
  8
PNOA-H_AMS_1956-57_33k_ES_PAN_21mic_H50_0319_fot_32B-39500_W_tif
  70
32
  10
593717.500
  20
4634729.500
  30
933.389
  0
VERTEX
  8
PNOA-H_AMS_1956-57_33k_ES_PAN_21mic_H50_0319_fot_32B-39500_W_tif
  70
32
  10
593717.000
  20
4634729.471
  30
933.447
  0
VERTEX
  8
PNOA-H_AMS_1956-57_33k_ES_PAN_21mic_H50_0319_fot_32B-39500_W_tif
  70
32
  10
593709.000
  20
4634729.000
  30
934.364
  0
VERTEX
  8
PNOA-H_AMS_1956-57_33k_ES_PAN_21mic_H50_0319_fot_32B-39500_W_tif
  70
32
  10
591170.905
  20
4634676.638
  30
934.885
  0
VERTEX
  8
PNOA-H_AMS_1956-57_33k_ES_PAN_21mic_H50_0319_fot_32B-39500_W_tif
  70
32
  10
591140.482
  20
4634676.010
  30
934.891
  0
SEQEND
  8
PNOA-H_AMS_1956-57_33k_ES_PAN_21mic_H50_0319_fot_32B-39500_W_tif
  0
INSERT
  8
FeatureAttribs
  2
FEATURE
  41
1
  42
1
  43
1
  50
0
  10
590573.047
  20
4640125.250
 66
1
  0
ATTRIB
  8
FeatureAttribs
 70
0
  1
PNOA-H_AMS_1956-57_33k_ES_PAN_21mic_H50_0319_fot_31C-50484_E.tif
  2
NAME
  10
590573.047
  20
4640125.250
 40
33.44101
  0
SEQEND
  0
POLYLINE
  8
PNOA-H_AMS_1956-57_33k_ES_PAN_21mic_H50_0319_fot_31C-50484_E_tif
  70
9
  66
1
  0
VERTEX
  8
PNOA-H_AMS_1956-57_33k_ES_PAN_21mic_H50_0319_fot_31C-50484_E_tif
  70
32
  10
590928.678
  20
4638990.572
  30
868.945
  0
VERTEX
  8
PNOA-H_AMS_1956-57_33k_ES_PAN_21mic_H50_0319_fot_31C-50484_E_tif
  70
32
  10
590928.500
  20
4638990.500
  30
868.954
  0
VERTEX
  8
PNOA-H_AMS_1956-57_33k_ES_PAN_21mic_H50_0319_fot_31C-50484_E_tif
  70
32
  10
589100.827
  20
4639398.927
  30
921.896
  0
VERTEX
  8
PNOA-H_AMS_1956-57_33k_ES_PAN_21mic_H50_0319_fot_31C-50484_E_tif
  70
32
  10
589100.500
  20
4639399.000
  30
921.905
  0
VERTEX
  8
PNOA-H_AMS_1956-57_33k_ES_PAN_21mic_H50_0319_fot_31C-50484_E_tif
  70
32
  10
589084.500
  20
4640294.195
  30
893.462
  0
VERTEX
  8
PNOA-H_AMS_1956-57_33k_ES_PAN_21mic_H50_0319_fot_31C-50484_E_tif
  70
32
  10
589067.238
  20
4641260.000
  30
862.776
  0
VERTEX
  8
PNOA-H_AMS_1956-57_33k_ES_PAN_21mic_H50_0319_fot_31C-50484_E_tif
  70
32
  10
589067.399
  20
4641260.000
  30
862.773
  0
VERTEX
  8
PNOA-H_AMS_1956-57_33k_ES_PAN_21mic_H50_0319_fot_31C-50484_E_tif
  70
32
  10
592047.767
  20
4641260.000
  30
794.722
  0
VERTEX
  8
PNOA-H_AMS_1956-57_33k_ES_PAN_21mic_H50_0319_fot_31C-50484_E_tif
  70
32
  10
592065.000
  20
4639450.500
  30
814.802
  0
VERTEX
  8
PNOA-H_AMS_1956-57_33k_ES_PAN_21mic_H50_0319_fot_31C-50484_E_tif
  70
32
  10
592064.795
  20
4639450.417
  30
814.812
  0
VERTEX
  8
PNOA-H_AMS_1956-57_33k_ES_PAN_21mic_H50_0319_fot_31C-50484_E_tif
  70
32
  10
591496.750
  20
4639220.500
  30
841.878
  0
VERTEX
  8
PNOA-H_AMS_1956-57_33k_ES_PAN_21mic_H50_0319_fot_31C-50484_E_tif
  70
32
  10
590928.678
  20
4638990.572
  30
868.945
  0
SEQEND
  8
PNOA-H_AMS_1956-57_33k_ES_PAN_21mic_H50_0319_fot_31C-50484_E_tif
  0
INSERT
  8
FeatureAttribs
  2
FEATURE
  41
1
  42
1
  43
1
  50
0
  10
593546.065
  20
4640118.500
 66
1
  0
ATTRIB
  8
FeatureAttribs
 70
0
  1
PNOA-H_AMS_1956-57_33k_ES_PAN_21mic_H50_0319_fot_31C-50485_E.tif
  2
NAME
  10
593546.065
  20
4640118.500
 40
33.44101
  0
SEQEND
  0
POLYLINE
  8
PNOA-H_AMS_1956-57_33k_ES_PAN_21mic_H50_0319_fot_31C-50485_E_tif
  70
9
  66
1
  0
VERTEX
  8
PNOA-H_AMS_1956-57_33k_ES_PAN_21mic_H50_0319_fot_31C-50485_E_tif
  70
32
  10
593749.792
  20
4638977.058
  30
778.081
  0
VERTEX
  8
PNOA-H_AMS_1956-57_33k_ES_PAN_21mic_H50_0319_fot_31C-50485_E_tif
  70
32
  10
593749.500
  20
4638977.000
  30
778.026
  0
VERTEX
  8
PNOA-H_AMS_1956-57_33k_ES_PAN_21mic_H50_0319_fot_31C-50485_E_tif
  70
32
  10
593740.500
  20
4638979.500
  30
774.871
  0
VERTEX
  8
PNOA-H_AMS_1956-57_33k_ES_PAN_21mic_H50_0319_fot_31C-50485_E_tif
  70
32
  10
592331.305
  20
4639375.639
  30
808.456
  0
VERTEX
  8
PNOA-H_AMS_1956-57_33k_ES_PAN_21mic_H50_0319_fot_31C-50485_E_tif
  70
32
  10
592065.000
  20
4639450.500
  30
814.802
  0
VERTEX
  8
PNOA-H_AMS_1956-57_33k_ES_PAN_21mic_H50_0319_fot_31C-50485_E_tif
  70
32
  10
592047.767
  20
4641260.000
  30
794.722
  0
VERTEX
  8
PNOA-H_AMS_1956-57_33k_ES_PAN_21mic_H50_0319_fot_31C-50485_E_tif
  70
32
  10
595018.241
  20
4641260.000
  30
728.274
  0
VERTEX
  8
PNOA-H_AMS_1956-57_33k_ES_PAN_21mic_H50_0319_fot_31C-50485_E_tif
  70
32
  10
595019.596
  20
4641158.664
  30
0
  0
VERTEX
  8
PNOA-H_AMS_1956-57_33k_ES_PAN_21mic_H50_0319_fot_31C-50485_E_tif
  70
32
  10
595042.834
  20
4639419.135
  30
0
  0
VERTEX
  8
PNOA-H_AMS_1956-57_33k_ES_PAN_21mic_H50_0319_fot_31C-50485_E_tif
  70
32
  10
595042.841
  20
4639418.655
  30
750.787
  0
VERTEX
  8
PNOA-H_AMS_1956-57_33k_ES_PAN_21mic_H50_0319_fot_31C-50485_E_tif
  70
32
  10
593752.000
  20
4638977.500
  30
778.503
  0
VERTEX
  8
PNOA-H_AMS_1956-57_33k_ES_PAN_21mic_H50_0319_fot_31C-50485_E_tif
  70
32
  10
593750.702
  20
4638977.240
  30
778.255
  0
VERTEX
  8
PNOA-H_AMS_1956-57_33k_ES_PAN_21mic_H50_0319_fot_31C-50485_E_tif
  70
32
  10
593749.792
  20
4638977.058
  30
778.081
  0
SEQEND
  8
PNOA-H_AMS_1956-57_33k_ES_PAN_21mic_H50_0319_fot_31C-50485_E_tif
  0
INSERT
  8
FeatureAttribs
  2
FEATURE
  41
1
  42
1
  43
1
  50
0
  10
594405.887
  20
4637048.270
 66
1
  0
ATTRIB
  8
FeatureAttribs
 70
0
  1
PNOA-H_AMS_1956-57_33k_ES_PAN_21mic_H50_0320_fot_32B-39499_W.tif
  2
NAME
  10
594405.887
  20
4637048.270
 40
33.44101
  0
SEQEND
  0
POLYLINE
  8
PNOA-H_AMS_1956-57_33k_ES_PAN_21mic_H50_0320_fot_32B-39499_W_tif
  70
9
  66
1
  0
VERTEX
  8
PNOA-H_AMS_1956-57_33k_ES_PAN_21mic_H50_0320_fot_32B-39499_W_tif
  70
32
  10
595081.385
  20
4636532.444
  30
0
  0
VERTEX
  8
PNOA-H_AMS_1956-57_33k_ES_PAN_21mic_H50_0320_fot_32B-39499_W_tif
  70
32
  10
595106.147
  20
4634677.404
  30
857.344
  0
VERTEX
  8
PNOA-H_AMS_1956-57_33k_ES_PAN_21mic_H50_0320_fot_32B-39499_W_tif
  70
32
  10
593722.003
  20
4634732.500
  30
932.916
  0
VERTEX
  8
PNOA-H_AMS_1956-57_33k_ES_PAN_21mic_H50_0320_fot_32B-39499_W_tif
  70
32
  10
593722.000
  20
4634732.500
  30
932.916
  0
VERTEX
  8
PNOA-H_AMS_1956-57_33k_ES_PAN_21mic_H50_0320_fot_32B-39499_W_tif
  70
32
  10
593750.000
  20
4638977.000
  30
778.148
  0
VERTEX
  8
PNOA-H_AMS_1956-57_33k_ES_PAN_21mic_H50_0320_fot_32B-39499_W_tif
  70
32
  10
593750.702
  20
4638977.240
  30
778.149
  0
VERTEX
  8
PNOA-H_AMS_1956-57_33k_ES_PAN_21mic_H50_0320_fot_32B-39499_W_tif
  70
32
  10
594378.000
  20
4639192.000
  30
779.199
  0
VERTEX
  8
PNOA-H_AMS_1956-57_33k_ES_PAN_21mic_H50_0320_fot_32B-39499_W_tif
  70
32
  10
594379.500
  20
4639192.500
  30
779.299
  0
VERTEX
  8
PNOA-H_AMS_1956-57_33k_ES_PAN_21mic_H50_0320_fot_32B-39499_W_tif
  70
32
  10
595042.834
  20
4639419.135
  30
750.844
  0
VERTEX
  8
PNOA-H_AMS_1956-57_33k_ES_PAN_21mic_H50_0320_fot_32B-39499_W_tif
  70
32
  10
595042.841
  20
4639418.655
  30
0
  0
VERTEX
  8
PNOA-H_AMS_1956-57_33k_ES_PAN_21mic_H50_0320_fot_32B-39499_W_tif
  70
32
  10
595050.497
  20
4638845.550
  30
0
  0
VERTEX
  8
PNOA-H_AMS_1956-57_33k_ES_PAN_21mic_H50_0320_fot_32B-39499_W_tif
  70
32
  10
595081.385
  20
4636532.444
  30
0
  0
SEQEND
  8
PNOA-H_AMS_1956-57_33k_ES_PAN_21mic_H50_0320_fot_32B-39499_W_tif
  0
INSERT
  8
FeatureAttribs
  2
FEATURE
  41
1
  42
1
  43
1
  50
0
  10
589771.563
  20
4633319.374
 66
1
  0
ATTRIB
  8
FeatureAttribs
 70
0
  1
PNOA-H_AMS_1956-57_33k_ES_PAN_21mic_H50_0319_fot_33B-38753_E.tif
  2
NAME
  10
589771.563
  20
4633319.374
 40
33.44101
  0
SEQEND
  0
POLYLINE
  8
PNOA-H_AMS_1956-57_33k_ES_PAN_21mic_H50_0319_fot_33B-38753_E_tif
  70
9
  66
1
  0
VERTEX
  8
PNOA-H_AMS_1956-57_33k_ES_PAN_21mic_H50_0319_fot_33B-38753_E_tif
  70
32
  10
591107.745
  20
4631853.683
  30
1076.663
  0
VERTEX
  8
PNOA-H_AMS_1956-57_33k_ES_PAN_21mic_H50_0319_fot_33B-38753_E_tif
  70
32
  10
588417.090
  20
4631819.747
  30
999.733
  0
VERTEX
  8
PNOA-H_AMS_1956-57_33k_ES_PAN_21mic_H50_0319_fot_33B-38753_E_tif
  70
32
  10
588419.500
  20
4634642.000
  30
969.904
  0
VERTEX
  8
PNOA-H_AMS_1956-57_33k_ES_PAN_21mic_H50_0319_fot_33B-38753_E_tif
  70
32
  10
588422.148
  20
4634642.190
  30
969.802
  0
VERTEX
  8
PNOA-H_AMS_1956-57_33k_ES_PAN_21mic_H50_0319_fot_33B-38753_E_tif
  70
32
  10
590271.500
  20
4634775.000
  30
899.186
  0
VERTEX
  8
PNOA-H_AMS_1956-57_33k_ES_PAN_21mic_H50_0319_fot_33B-38753_E_tif
  70
32
  10
590278.500
  20
4634775.500
  30
900.105
  0
VERTEX
  8
PNOA-H_AMS_1956-57_33k_ES_PAN_21mic_H50_0319_fot_33B-38753_E_tif
  70
32
  10
590817.281
  20
4634813.953
  30
936.028
  0
VERTEX
  8
PNOA-H_AMS_1956-57_33k_ES_PAN_21mic_H50_0319_fot_33B-38753_E_tif
  70
32
  10
590887.556
  20
4634818.968
  30
940.713
  0
VERTEX
  8
PNOA-H_AMS_1956-57_33k_ES_PAN_21mic_H50_0319_fot_33B-38753_E_tif
  70
32
  10
590888.000
  20
4634819.000
  30
940.743
  0
VERTEX
  8
PNOA-H_AMS_1956-57_33k_ES_PAN_21mic_H50_0319_fot_33B-38753_E_tif
  70
32
  10
591140.482
  20
4634676.010
  30
935.025
  0
VERTEX
  8
PNOA-H_AMS_1956-57_33k_ES_PAN_21mic_H50_0319_fot_33B-38753_E_tif
  70
32
  10
591140.500
  20
4634676.000
  30
935.025
  0
VERTEX
  8
PNOA-H_AMS_1956-57_33k_ES_PAN_21mic_H50_0319_fot_33B-38753_E_tif
  70
32
  10
591107.745
  20
4631853.683
  30
1076.663
  0
SEQEND
  8
PNOA-H_AMS_1956-57_33k_ES_PAN_21mic_H50_0319_fot_33B-38753_E_tif
  0
INSERT
  8
FeatureAttribs
  2
FEATURE
  41
1
  42
1
  43
1
  50
0
  10
592413.376
  20
4633291.591
 66
1
  0
ATTRIB
  8
FeatureAttribs
 70
0
  1
PNOA-H_AMS_1956-57_33k_ES_PAN_21mic_H50_0319_fot_33B-38754_E.tif
  2
NAME
  10
592413.376
  20
4633291.591
 40
33.44101
  0
SEQEND
  0
POLYLINE
  8
PNOA-H_AMS_1956-57_33k_ES_PAN_21mic_H50_0319_fot_33B-38754_E_tif
  70
9
  66
1
  0
VERTEX
  8
PNOA-H_AMS_1956-57_33k_ES_PAN_21mic_H50_0319_fot_33B-38754_E_tif
  70
32
  10
591683.325
  20
4631860.942
  30
0
  0
VERTEX
  8
PNOA-H_AMS_1956-57_33k_ES_PAN_21mic_H50_0319_fot_33B-38754_E_tif
  70
32
  10
591107.745
  20
4631853.683
  30
1076.663
  0
VERTEX
  8
PNOA-H_AMS_1956-57_33k_ES_PAN_21mic_H50_0319_fot_33B-38754_E_tif
  70
32
  10
591140.500
  20
4634676.000
  30
935.025
  0
VERTEX
  8
PNOA-H_AMS_1956-57_33k_ES_PAN_21mic_H50_0319_fot_33B-38754_E_tif
  70
32
  10
591170.905
  20
4634676.638
  30
933.284
  0
VERTEX
  8
PNOA-H_AMS_1956-57_33k_ES_PAN_21mic_H50_0319_fot_33B-38754_E_tif
  70
32
  10
592285.000
  20
4634700.000
  30
869.508
  0
VERTEX
  8
PNOA-H_AMS_1956-57_33k_ES_PAN_21mic_H50_0319_fot_33B-38754_E_tif
  70
32
  10
592309.500
  20
4634700.500
  30
869.924
  0
VERTEX
  8
PNOA-H_AMS_1956-57_33k_ES_PAN_21mic_H50_0319_fot_33B-38754_E_tif
  70
32
  10
593717.000
  20
4634729.500
  30
933.444
  0
VERTEX
  8
PNOA-H_AMS_1956-57_33k_ES_PAN_21mic_H50_0319_fot_33B-38754_E_tif
  70
32
  10
593717.000
  20
4634729.471
  30
933.447
  0
VERTEX
  8
PNOA-H_AMS_1956-57_33k_ES_PAN_21mic_H50_0319_fot_33B-38754_E_tif
  70
32
  10
593687.979
  20
4631887.198
  30
1174.379
  0
VERTEX
  8
PNOA-H_AMS_1956-57_33k_ES_PAN_21mic_H50_0319_fot_33B-38754_E_tif
  70
32
  10
593687.878
  20
4631887.197
  30
0
  0
VERTEX
  8
PNOA-H_AMS_1956-57_33k_ES_PAN_21mic_H50_0319_fot_33B-38754_E_tif
  70
32
  10
591683.325
  20
4631860.942
  30
0
  0
SEQEND
  8
PNOA-H_AMS_1956-57_33k_ES_PAN_21mic_H50_0319_fot_33B-38754_E_tif
  0
INSERT
  8
FeatureAttribs
  2
FEATURE
  41
1
  42
1
  43
1
  50
0
  10
594413.363
  20
4633309.848
 66
1
  0
ATTRIB
  8
FeatureAttribs
 70
0
  1
PNOA-H_AMS_1956-57_33k_ES_PAN_21mic_H50_0320_fot_33B-38755_E.tif
  2
NAME
  10
594413.363
  20
4633309.848
 40
33.44101
  0
SEQEND
  0
POLYLINE
  8
PNOA-H_AMS_1956-57_33k_ES_PAN_21mic_H50_0320_fot_33B-38755_E_tif
  70
9
  66
1
  0
VERTEX
  8
PNOA-H_AMS_1956-57_33k_ES_PAN_21mic_H50_0320_fot_33B-38755_E_tif
  70
32
  10
593687.979
  20
4631887.198
  30
1174.379
  0
VERTEX
  8
PNOA-H_AMS_1956-57_33k_ES_PAN_21mic_H50_0320_fot_33B-38755_E_tif
  70
32
  10
593687.878
  20
4631887.197
  30
1173.462
  0
VERTEX
  8
PNOA-H_AMS_1956-57_33k_ES_PAN_21mic_H50_0320_fot_33B-38755_E_tif
  70
32
  10
593716.500
  20
4634705.000
  30
933.249
  0
VERTEX
  8
PNOA-H_AMS_1956-57_33k_ES_PAN_21mic_H50_0320_fot_33B-38755_E_tif
  70
32
  10
593717.000
  20
4634729.471
  30
933.444
  0
VERTEX
  8
PNOA-H_AMS_1956-57_33k_ES_PAN_21mic_H50_0320_fot_33B-38755_E_tif
  70
32
  10
593717.000
  20
4634729.500
  30
933.444
  0
VERTEX
  8
PNOA-H_AMS_1956-57_33k_ES_PAN_21mic_H50_0320_fot_33B-38755_E_tif
  70
32
  10
593721.000
  20
4634732.000
  30
933.023
  0
VERTEX
  8
PNOA-H_AMS_1956-57_33k_ES_PAN_21mic_H50_0320_fot_33B-38755_E_tif
  70
32
  10
593722.000
  20
4634732.500
  30
932.916
  0
VERTEX
  8
PNOA-H_AMS_1956-57_33k_ES_PAN_21mic_H50_0320_fot_33B-38755_E_tif
  70
32
  10
593722.003
  20
4634732.500
  30
932.916
  0
VERTEX
  8
PNOA-H_AMS_1956-57_33k_ES_PAN_21mic_H50_0320_fot_33B-38755_E_tif
  70
32
  10
595106.147
  20
4634677.393
  30
857.268
  0
VERTEX
  8
PNOA-H_AMS_1956-57_33k_ES_PAN_21mic_H50_0320_fot_33B-38755_E_tif
  70
32
  10
595112.261
  20
4634219.347
  30
0
  0
VERTEX
  8
PNOA-H_AMS_1956-57_33k_ES_PAN_21mic_H50_0320_fot_33B-38755_E_tif
  70
32
  10
595143.124
  20
4631906.257
  30
0
  0
VERTEX
  8
PNOA-H_AMS_1956-57_33k_ES_PAN_21mic_H50_0320_fot_33B-38755_E_tif
  70
32
  10
593687.979
  20
4631887.198
  30
1174.379
  0
SEQEND
  8
PNOA-H_AMS_1956-57_33k_ES_PAN_21mic_H50_0320_fot_33B-38755_E_tif
  0
ENDSEC
  0
EOF
