  0
SECTION
  2
HEADER
  9
$ACADVER
  1
AC1009
  9
$LUNITS
  70
2
  9
$LIMMIN
  10
470470.000
  20
4631288.676
  9
$LIMMAX
  10
484471.693
  20
4649812.038
  9
$EXTMIN
  10
470470.000
  20
4631288.676
  9
$EXTMAX
  10
484471.693
  20
4649812.038
  999
Created by Global Mapper
  999
Projection: UTM
  999
Datum: ETRS89
  999
Ground Units: meters
  999
ZONE: 30
  0
ENDSEC
  0
SECTION
  2
TABLES
  0
ENDSEC
  0
SECTION
  2
BLOCKS
  0
BLOCK
  8
FeatureAttribs
  70
0
  2
FEATURE
  3
FEATURE
  10
0.00000000
  20
0.00000000
  0
ATTDEF
  8
FeatureAttribs
  70
0
  1
 
  2
NAME
  3
NAME
  10
0.00000000
  20
0.00000000
  40
1.00000000
  0
ENDBLK
  0
ENDSEC
  0
SECTION
  2
ENTITIES
  0
INSERT
  8
FeatureAttribs
  2
FEATURE
  41
1
  42
1
  43
1
  50
0
  10
484414.725
  20
4648768.277
 66
1
  0
ATTRIB
  8
FeatureAttribs
 70
0
  1
PNOA-H_AMS_1956-57_33k_ES_PAN_21mic_H50_0278_fot_29C-50594_E.tif
  2
NAME
  10
484414.725
  20
4648768.277
 40
23.21987
  0
SEQEND
  0
POLYLINE
  8
PNOA-H_AMS_1956-57_33k_ES_PAN_21mic_H50_0278_fot_29C-50594_E_tif
  70
9
  66
1
  0
VERTEX
  8
PNOA-H_AMS_1956-57_33k_ES_PAN_21mic_H50_0278_fot_29C-50594_E_tif
  70
32
  10
484471.693
  20
4649793.226
  30
0
  0
VERTEX
  8
PNOA-H_AMS_1956-57_33k_ES_PAN_21mic_H50_0278_fot_29C-50594_E_tif
  70
32
  10
484467.202
  20
4647741.901
  30
0
  0
VERTEX
  8
PNOA-H_AMS_1956-57_33k_ES_PAN_21mic_H50_0278_fot_29C-50594_E_tif
  70
32
  10
484467.202
  20
4647741.695
  30
1071.429
  0
VERTEX
  8
PNOA-H_AMS_1956-57_33k_ES_PAN_21mic_H50_0278_fot_29C-50594_E_tif
  70
32
  10
484360.000
  20
4647756.735
  30
1071.84
  0
VERTEX
  8
PNOA-H_AMS_1956-57_33k_ES_PAN_21mic_H50_0278_fot_29C-50594_E_tif
  70
32
  10
484360.000
  20
4647756.965
  30
1071.84
  0
VERTEX
  8
PNOA-H_AMS_1956-57_33k_ES_PAN_21mic_H50_0278_fot_29C-50594_E_tif
  70
32
  10
484360.000
  20
4649690.000
  30
1066.478
  0
VERTEX
  8
PNOA-H_AMS_1956-57_33k_ES_PAN_21mic_H50_0278_fot_29C-50594_E_tif
  70
32
  10
483802.403
  20
4649690.000
  30
1136.967
  0
VERTEX
  8
PNOA-H_AMS_1956-57_33k_ES_PAN_21mic_H50_0278_fot_29C-50594_E_tif
  70
32
  10
483802.253
  20
4649690.000
  30
1136.986
  0
VERTEX
  8
PNOA-H_AMS_1956-57_33k_ES_PAN_21mic_H50_0278_fot_29C-50594_E_tif
  70
32
  10
483801.054
  20
4649794.858
  30
1140.546
  0
VERTEX
  8
PNOA-H_AMS_1956-57_33k_ES_PAN_21mic_H50_0278_fot_29C-50594_E_tif
  70
32
  10
483801.212
  20
4649794.857
  30
1140.561
  0
VERTEX
  8
PNOA-H_AMS_1956-57_33k_ES_PAN_21mic_H50_0278_fot_29C-50594_E_tif
  70
32
  10
484471.693
  20
4649793.226
  30
0
  0
SEQEND
  8
PNOA-H_AMS_1956-57_33k_ES_PAN_21mic_H50_0278_fot_29C-50594_E_tif
  0
INSERT
  8
FeatureAttribs
  2
FEATURE
  41
1
  42
1
  43
1
  50
0
  10
479870.345
  20
4649749.473
 66
1
  0
ATTRIB
  8
FeatureAttribs
 70
0
  1
PNOA-H_AMS_1956-57_33k_ES_PAN_21mic_H50_0277_fot_29C-50592_E.tif
  2
NAME
  10
479870.345
  20
4649749.473
 40
23.21987
  0
SEQEND
  0
POLYLINE
  8
PNOA-H_AMS_1956-57_33k_ES_PAN_21mic_H50_0277_fot_29C-50592_E_tif
  70
9
  66
1
  0
VERTEX
  8
PNOA-H_AMS_1956-57_33k_ES_PAN_21mic_H50_0277_fot_29C-50592_E_tif
  70
32
  10
481228.278
  20
4649690.000
  30
1032.814
  0
VERTEX
  8
PNOA-H_AMS_1956-57_33k_ES_PAN_21mic_H50_0277_fot_29C-50592_E_tif
  70
32
  10
478514.271
  20
4649690.000
  30
979.164
  0
VERTEX
  8
PNOA-H_AMS_1956-57_33k_ES_PAN_21mic_H50_0277_fot_29C-50592_E_tif
  70
32
  10
478512.123
  20
4649808.947
  30
979.328
  0
VERTEX
  8
PNOA-H_AMS_1956-57_33k_ES_PAN_21mic_H50_0277_fot_29C-50592_E_tif
  70
32
  10
481020.956
  20
4649801.622
  30
0
  0
VERTEX
  8
PNOA-H_AMS_1956-57_33k_ES_PAN_21mic_H50_0277_fot_29C-50592_E_tif
  70
32
  10
481226.740
  20
4649801.121
  30
1036.232
  0
VERTEX
  8
PNOA-H_AMS_1956-57_33k_ES_PAN_21mic_H50_0277_fot_29C-50592_E_tif
  70
32
  10
481226.778
  20
4649801.121
  30
1036.233
  0
VERTEX
  8
PNOA-H_AMS_1956-57_33k_ES_PAN_21mic_H50_0277_fot_29C-50592_E_tif
  70
32
  10
481228.318
  20
4649690.000
  30
1032.815
  0
VERTEX
  8
PNOA-H_AMS_1956-57_33k_ES_PAN_21mic_H50_0277_fot_29C-50592_E_tif
  70
32
  10
481228.278
  20
4649690.000
  30
1032.814
  0
SEQEND
  8
PNOA-H_AMS_1956-57_33k_ES_PAN_21mic_H50_0277_fot_29C-50592_E_tif
  0
INSERT
  8
FeatureAttribs
  2
FEATURE
  41
1
  42
1
  43
1
  50
0
  10
477991.576
  20
4649751.019
 66
1
  0
ATTRIB
  8
FeatureAttribs
 70
0
  1
PNOA-H_AMS_1956-57_33k_ES_PAN_21mic_H50_0277_fot_29C-50591_E.tif
  2
NAME
  10
477991.576
  20
4649751.019
 40
23.21987
  0
SEQEND
  0
POLYLINE
  8
PNOA-H_AMS_1956-57_33k_ES_PAN_21mic_H50_0277_fot_29C-50591_E_tif
  70
9
  66
1
  0
VERTEX
  8
PNOA-H_AMS_1956-57_33k_ES_PAN_21mic_H50_0277_fot_29C-50591_E_tif
  70
32
  10
478514.254
  20
4649690.000
  30
978.504
  0
VERTEX
  8
PNOA-H_AMS_1956-57_33k_ES_PAN_21mic_H50_0277_fot_29C-50591_E_tif
  70
32
  10
477470.000
  20
4649690.000
  30
976.224
  0
VERTEX
  8
PNOA-H_AMS_1956-57_33k_ES_PAN_21mic_H50_0277_fot_29C-50591_E_tif
  70
32
  10
477470.000
  20
4649812.038
  30
975.917
  0
VERTEX
  8
PNOA-H_AMS_1956-57_33k_ES_PAN_21mic_H50_0277_fot_29C-50591_E_tif
  70
32
  10
477570.219
  20
4649811.697
  30
0
  0
VERTEX
  8
PNOA-H_AMS_1956-57_33k_ES_PAN_21mic_H50_0277_fot_29C-50591_E_tif
  70
32
  10
478512.105
  20
4649808.947
  30
978.627
  0
VERTEX
  8
PNOA-H_AMS_1956-57_33k_ES_PAN_21mic_H50_0277_fot_29C-50591_E_tif
  70
32
  10
478514.254
  20
4649690.000
  30
978.504
  0
SEQEND
  8
PNOA-H_AMS_1956-57_33k_ES_PAN_21mic_H50_0277_fot_29C-50591_E_tif
  0
INSERT
  8
FeatureAttribs
  2
FEATURE
  41
1
  42
1
  43
1
  50
0
  10
482514.640
  20
4649745.561
 66
1
  0
ATTRIB
  8
FeatureAttribs
 70
0
  1
PNOA-H_AMS_1956-57_33k_ES_PAN_21mic_H50_0277_fot_29C-50593_E.tif
  2
NAME
  10
482514.640
  20
4649745.561
 40
23.21987
  0
SEQEND
  0
POLYLINE
  8
PNOA-H_AMS_1956-57_33k_ES_PAN_21mic_H50_0277_fot_29C-50593_E_tif
  70
9
  66
1
  0
VERTEX
  8
PNOA-H_AMS_1956-57_33k_ES_PAN_21mic_H50_0277_fot_29C-50593_E_tif
  70
32
  10
481228.318
  20
4649690.000
  30
1065.514
  0
VERTEX
  8
PNOA-H_AMS_1956-57_33k_ES_PAN_21mic_H50_0277_fot_29C-50593_E_tif
  70
32
  10
481228.278
  20
4649690.000
  30
1065.513
  0
VERTEX
  8
PNOA-H_AMS_1956-57_33k_ES_PAN_21mic_H50_0277_fot_29C-50593_E_tif
  70
32
  10
481226.740
  20
4649801.121
  30
1067.183
  0
VERTEX
  8
PNOA-H_AMS_1956-57_33k_ES_PAN_21mic_H50_0277_fot_29C-50593_E_tif
  70
32
  10
481226.778
  20
4649801.121
  30
1067.184
  0
VERTEX
  8
PNOA-H_AMS_1956-57_33k_ES_PAN_21mic_H50_0277_fot_29C-50593_E_tif
  70
32
  10
483801.054
  20
4649794.858
  30
1140.864
  0
VERTEX
  8
PNOA-H_AMS_1956-57_33k_ES_PAN_21mic_H50_0277_fot_29C-50593_E_tif
  70
32
  10
483801.212
  20
4649794.857
  30
1140.869
  0
VERTEX
  8
PNOA-H_AMS_1956-57_33k_ES_PAN_21mic_H50_0277_fot_29C-50593_E_tif
  70
32
  10
483802.403
  20
4649690.000
  30
1137.291
  0
VERTEX
  8
PNOA-H_AMS_1956-57_33k_ES_PAN_21mic_H50_0277_fot_29C-50593_E_tif
  70
32
  10
483802.253
  20
4649690.000
  30
1137.287
  0
VERTEX
  8
PNOA-H_AMS_1956-57_33k_ES_PAN_21mic_H50_0277_fot_29C-50593_E_tif
  70
32
  10
481228.318
  20
4649690.000
  30
1065.514
  0
SEQEND
  8
PNOA-H_AMS_1956-57_33k_ES_PAN_21mic_H50_0277_fot_29C-50593_E_tif
  0
INSERT
  8
FeatureAttribs
  2
FEATURE
  41
1
  42
1
  43
1
  50
0
  10
473670.092
  20
4639467.500
 66
1
  0
ATTRIB
  8
FeatureAttribs
 70
0
  1
PNOA-H_AMS_1956-57_33k_ES_PAN_21mic_H50_0315_fot_31B-36861_E.tif
  2
NAME
  10
473670.092
  20
4639467.500
 40
23.21987
  0
SEQEND
  0
POLYLINE
  8
PNOA-H_AMS_1956-57_33k_ES_PAN_21mic_H50_0315_fot_31B-36861_E_tif
  70
9
  66
1
  0
VERTEX
  8
PNOA-H_AMS_1956-57_33k_ES_PAN_21mic_H50_0315_fot_31B-36861_E_tif
  70
32
  10
475111.242
  20
4638679.922
  30
1106.212
  0
VERTEX
  8
PNOA-H_AMS_1956-57_33k_ES_PAN_21mic_H50_0315_fot_31B-36861_E_tif
  70
32
  10
473675.000
  20
4638245.000
  30
1132.186
  0
VERTEX
  8
PNOA-H_AMS_1956-57_33k_ES_PAN_21mic_H50_0315_fot_31B-36861_E_tif
  70
32
  10
473674.477
  20
4638245.144
  30
1132.187
  0
VERTEX
  8
PNOA-H_AMS_1956-57_33k_ES_PAN_21mic_H50_0315_fot_31B-36861_E_tif
  70
32
  10
473671.783
  20
4638245.887
  30
1132.191
  0
VERTEX
  8
PNOA-H_AMS_1956-57_33k_ES_PAN_21mic_H50_0315_fot_31B-36861_E_tif
  70
32
  10
473663.467
  20
4638248.179
  30
1132.204
  0
VERTEX
  8
PNOA-H_AMS_1956-57_33k_ES_PAN_21mic_H50_0315_fot_31B-36861_E_tif
  70
32
  10
472256.500
  20
4638636.000
  30
1134.471
  0
VERTEX
  8
PNOA-H_AMS_1956-57_33k_ES_PAN_21mic_H50_0315_fot_31B-36861_E_tif
  70
32
  10
472231.403
  20
4640690.000
  30
1106.223
  0
VERTEX
  8
PNOA-H_AMS_1956-57_33k_ES_PAN_21mic_H50_0315_fot_31B-36861_E_tif
  70
32
  10
472231.406
  20
4640690.000
  30
1106.223
  0
VERTEX
  8
PNOA-H_AMS_1956-57_33k_ES_PAN_21mic_H50_0315_fot_31B-36861_E_tif
  70
32
  10
475066.433
  20
4640690.000
  30
1082.057
  0
VERTEX
  8
PNOA-H_AMS_1956-57_33k_ES_PAN_21mic_H50_0315_fot_31B-36861_E_tif
  70
32
  10
475111.500
  20
4638680.000
  30
1106.207
  0
VERTEX
  8
PNOA-H_AMS_1956-57_33k_ES_PAN_21mic_H50_0315_fot_31B-36861_E_tif
  70
32
  10
475111.242
  20
4638679.922
  30
1106.212
  0
SEQEND
  8
PNOA-H_AMS_1956-57_33k_ES_PAN_21mic_H50_0315_fot_31B-36861_E_tif
  0
INSERT
  8
FeatureAttribs
  2
FEATURE
  41
1
  42
1
  43
1
  50
0
  10
471378.246
  20
4639455.250
 66
1
  0
ATTRIB
  8
FeatureAttribs
 70
0
  1
PNOA-H_AMS_1956-57_33k_ES_PAN_21mic_H50_0315_fot_31B-36860_E.tif
  2
NAME
  10
471378.246
  20
4639455.250
 40
23.21987
  0
SEQEND
  0
POLYLINE
  8
PNOA-H_AMS_1956-57_33k_ES_PAN_21mic_H50_0315_fot_31B-36860_E_tif
  70
9
  66
1
  0
VERTEX
  8
PNOA-H_AMS_1956-57_33k_ES_PAN_21mic_H50_0315_fot_31B-36860_E_tif
  70
32
  10
472256.282
  20
4638635.922
  30
1134.483
  0
VERTEX
  8
PNOA-H_AMS_1956-57_33k_ES_PAN_21mic_H50_0315_fot_31B-36860_E_tif
  70
32
  10
471094.500
  20
4638220.500
  30
1200.846
  0
VERTEX
  8
PNOA-H_AMS_1956-57_33k_ES_PAN_21mic_H50_0315_fot_31B-36860_E_tif
  70
32
  10
471093.865
  20
4638220.631
  30
1200.827
  0
VERTEX
  8
PNOA-H_AMS_1956-57_33k_ES_PAN_21mic_H50_0315_fot_31B-36860_E_tif
  70
32
  10
471070.475
  20
4638225.442
  30
1200.13
  0
VERTEX
  8
PNOA-H_AMS_1956-57_33k_ES_PAN_21mic_H50_0315_fot_31B-36860_E_tif
  70
32
  10
471007.000
  20
4638238.500
  30
1198.238
  0
VERTEX
  8
PNOA-H_AMS_1956-57_33k_ES_PAN_21mic_H50_0315_fot_31B-36860_E_tif
  70
32
  10
470510.000
  20
4638345.358
  30
1195.522
  0
VERTEX
  8
PNOA-H_AMS_1956-57_33k_ES_PAN_21mic_H50_0315_fot_31B-36860_E_tif
  70
32
  10
470510.000
  20
4638345.748
  30
1195.526
  0
VERTEX
  8
PNOA-H_AMS_1956-57_33k_ES_PAN_21mic_H50_0315_fot_31B-36860_E_tif
  70
32
  10
470510.000
  20
4640690.000
  30
1220.641
  0
VERTEX
  8
PNOA-H_AMS_1956-57_33k_ES_PAN_21mic_H50_0315_fot_31B-36860_E_tif
  70
32
  10
472231.403
  20
4640690.000
  30
1106.24
  0
VERTEX
  8
PNOA-H_AMS_1956-57_33k_ES_PAN_21mic_H50_0315_fot_31B-36860_E_tif
  70
32
  10
472231.406
  20
4640690.000
  30
1106.239
  0
VERTEX
  8
PNOA-H_AMS_1956-57_33k_ES_PAN_21mic_H50_0315_fot_31B-36860_E_tif
  70
32
  10
472256.500
  20
4638636.000
  30
1134.471
  0
VERTEX
  8
PNOA-H_AMS_1956-57_33k_ES_PAN_21mic_H50_0315_fot_31B-36860_E_tif
  70
32
  10
472256.282
  20
4638635.922
  30
1134.483
  0
SEQEND
  8
PNOA-H_AMS_1956-57_33k_ES_PAN_21mic_H50_0315_fot_31B-36860_E_tif
  0
INSERT
  8
FeatureAttribs
  2
FEATURE
  41
1
  42
1
  43
1
  50
0
  10
476371.571
  20
4639498.750
 66
1
  0
ATTRIB
  8
FeatureAttribs
 70
0
  1
PNOA-H_AMS_1956-57_33k_ES_PAN_21mic_H50_0315_fot_31B-36862_E.tif
  2
NAME
  10
476371.571
  20
4639498.750
 40
23.21987
  0
SEQEND
  0
POLYLINE
  8
PNOA-H_AMS_1956-57_33k_ES_PAN_21mic_H50_0315_fot_31B-36862_E_tif
  70
9
  66
1
  0
VERTEX
  8
PNOA-H_AMS_1956-57_33k_ES_PAN_21mic_H50_0315_fot_31B-36862_E_tif
  70
32
  10
476266.000
  20
4638307.500
  30
1096.387
  0
VERTEX
  8
PNOA-H_AMS_1956-57_33k_ES_PAN_21mic_H50_0315_fot_31B-36862_E_tif
  70
32
  10
476264.500
  20
4638307.500
  30
1096.51
  0
VERTEX
  8
PNOA-H_AMS_1956-57_33k_ES_PAN_21mic_H50_0315_fot_31B-36862_E_tif
  70
32
  10
475399.750
  20
4638586.875
  30
1103.783
  0
VERTEX
  8
PNOA-H_AMS_1956-57_33k_ES_PAN_21mic_H50_0315_fot_31B-36862_E_tif
  70
32
  10
475111.500
  20
4638680.000
  30
1106.207
  0
VERTEX
  8
PNOA-H_AMS_1956-57_33k_ES_PAN_21mic_H50_0315_fot_31B-36862_E_tif
  70
32
  10
475066.433
  20
4640690.000
  30
1082.057
  0
VERTEX
  8
PNOA-H_AMS_1956-57_33k_ES_PAN_21mic_H50_0315_fot_31B-36862_E_tif
  70
32
  10
477650.000
  20
4640690.000
  30
1059.859
  0
VERTEX
  8
PNOA-H_AMS_1956-57_33k_ES_PAN_21mic_H50_0315_fot_31B-36862_E_tif
  70
32
  10
477650.000
  20
4638648.222
  30
1115.765
  0
VERTEX
  8
PNOA-H_AMS_1956-57_33k_ES_PAN_21mic_H50_0315_fot_31B-36862_E_tif
  70
32
  10
477650.000
  20
4638647.731
  30
1115.778
  0
VERTEX
  8
PNOA-H_AMS_1956-57_33k_ES_PAN_21mic_H50_0315_fot_31B-36862_E_tif
  70
32
  10
476267.500
  20
4638307.500
  30
1096.263
  0
VERTEX
  8
PNOA-H_AMS_1956-57_33k_ES_PAN_21mic_H50_0315_fot_31B-36862_E_tif
  70
32
  10
476266.000
  20
4638307.500
  30
1096.387
  0
SEQEND
  8
PNOA-H_AMS_1956-57_33k_ES_PAN_21mic_H50_0315_fot_31B-36862_E_tif
  0
INSERT
  8
FeatureAttribs
  2
FEATURE
  41
1
  42
1
  43
1
  50
0
  10
476973.362
  20
4636203.611
 66
1
  0
ATTRIB
  8
FeatureAttribs
 70
0
  1
PNOA-H_AMS_1956-57_33k_ES_PAN_21mic_H50_0315_fot_32B-39543_W.tif
  2
NAME
  10
476973.362
  20
4636203.611
 40
23.21987
  0
SEQEND
  0
POLYLINE
  8
PNOA-H_AMS_1956-57_33k_ES_PAN_21mic_H50_0315_fot_32B-39543_W_tif
  70
9
  66
1
  0
VERTEX
  8
PNOA-H_AMS_1956-57_33k_ES_PAN_21mic_H50_0315_fot_32B-39543_W_tif
  70
32
  10
477650.000
  20
4638647.731
  30
1128.183
  0
VERTEX
  8
PNOA-H_AMS_1956-57_33k_ES_PAN_21mic_H50_0315_fot_32B-39543_W_tif
  70
32
  10
477650.000
  20
4636040.000
  30
1101.451
  0
VERTEX
  8
PNOA-H_AMS_1956-57_33k_ES_PAN_21mic_H50_0315_fot_32B-39543_W_tif
  70
32
  10
478931.246
  20
4636040.000
  30
1096.669
  0
VERTEX
  8
PNOA-H_AMS_1956-57_33k_ES_PAN_21mic_H50_0315_fot_32B-39543_W_tif
  70
32
  10
478931.320
  20
4636040.000
  30
1096.668
  0
VERTEX
  8
PNOA-H_AMS_1956-57_33k_ES_PAN_21mic_H50_0315_fot_32B-39543_W_tif
  70
32
  10
478961.500
  20
4634217.500
  30
1088.611
  0
VERTEX
  8
PNOA-H_AMS_1956-57_33k_ES_PAN_21mic_H50_0315_fot_32B-39543_W_tif
  70
32
  10
478961.500
  20
4634209.500
  30
1088.238
  0
VERTEX
  8
PNOA-H_AMS_1956-57_33k_ES_PAN_21mic_H50_0315_fot_32B-39543_W_tif
  70
32
  10
478961.163
  20
4634209.332
  30
1088.245
  0
VERTEX
  8
PNOA-H_AMS_1956-57_33k_ES_PAN_21mic_H50_0315_fot_32B-39543_W_tif
  70
32
  10
478960.500
  20
4634209.000
  30
1088.261
  0
VERTEX
  8
PNOA-H_AMS_1956-57_33k_ES_PAN_21mic_H50_0315_fot_32B-39543_W_tif
  70
32
  10
477647.000
  20
4633759.000
  30
1065.848
  0
VERTEX
  8
PNOA-H_AMS_1956-57_33k_ES_PAN_21mic_H50_0315_fot_32B-39543_W_tif
  70
32
  10
477645.965
  20
4633759.159
  30
1065.862
  0
VERTEX
  8
PNOA-H_AMS_1956-57_33k_ES_PAN_21mic_H50_0315_fot_32B-39543_W_tif
  70
32
  10
477643.915
  20
4633759.475
  30
1065.889
  0
VERTEX
  8
PNOA-H_AMS_1956-57_33k_ES_PAN_21mic_H50_0315_fot_32B-39543_W_tif
  70
32
  10
477640.500
  20
4633760.000
  30
1065.935
  0
VERTEX
  8
PNOA-H_AMS_1956-57_33k_ES_PAN_21mic_H50_0315_fot_32B-39543_W_tif
  70
32
  10
476630.944
  20
4634062.828
  30
1114.392
  0
VERTEX
  8
PNOA-H_AMS_1956-57_33k_ES_PAN_21mic_H50_0315_fot_32B-39543_W_tif
  70
32
  10
476327.000
  20
4634154.000
  30
1128.98
  0
VERTEX
  8
PNOA-H_AMS_1956-57_33k_ES_PAN_21mic_H50_0315_fot_32B-39543_W_tif
  70
32
  10
476326.782
  20
4634168.741
  30
1128.87
  0
VERTEX
  8
PNOA-H_AMS_1956-57_33k_ES_PAN_21mic_H50_0315_fot_32B-39543_W_tif
  70
32
  10
476266.000
  20
4638283.500
  30
1098.132
  0
VERTEX
  8
PNOA-H_AMS_1956-57_33k_ES_PAN_21mic_H50_0315_fot_32B-39543_W_tif
  70
32
  10
476266.000
  20
4638307.500
  30
1096.387
  0
VERTEX
  8
PNOA-H_AMS_1956-57_33k_ES_PAN_21mic_H50_0315_fot_32B-39543_W_tif
  70
32
  10
476267.500
  20
4638308.000
  30
1096.241
  0
VERTEX
  8
PNOA-H_AMS_1956-57_33k_ES_PAN_21mic_H50_0315_fot_32B-39543_W_tif
  70
32
  10
477641.000
  20
4638646.000
  30
1128.406
  0
VERTEX
  8
PNOA-H_AMS_1956-57_33k_ES_PAN_21mic_H50_0315_fot_32B-39543_W_tif
  70
32
  10
477643.000
  20
4638646.500
  30
1128.386
  0
VERTEX
  8
PNOA-H_AMS_1956-57_33k_ES_PAN_21mic_H50_0315_fot_32B-39543_W_tif
  70
32
  10
477650.000
  20
4638648.222
  30
1128.188
  0
VERTEX
  8
PNOA-H_AMS_1956-57_33k_ES_PAN_21mic_H50_0315_fot_32B-39543_W_tif
  70
32
  10
477650.000
  20
4638647.731
  30
1128.183
  0
SEQEND
  8
PNOA-H_AMS_1956-57_33k_ES_PAN_21mic_H50_0315_fot_32B-39543_W_tif
  0
INSERT
  8
FeatureAttribs
  2
FEATURE
  41
1
  42
1
  43
1
  50
0
  10
470816.525
  20
4636143.324
 66
1
  0
ATTRIB
  8
FeatureAttribs
 70
0
  1
PNOA-H_AMS_1956-57_33k_ES_PAN_21mic_H50_0315_fot_32B-39546_W.tif
  2
NAME
  10
470816.525
  20
4636143.324
 40
23.21987
  0
SEQEND
  0
POLYLINE
  8
PNOA-H_AMS_1956-57_33k_ES_PAN_21mic_H50_0315_fot_32B-39546_W_tif
  70
9
  66
1
  0
VERTEX
  8
PNOA-H_AMS_1956-57_33k_ES_PAN_21mic_H50_0315_fot_32B-39546_W_tif
  70
32
  10
470929.484
  20
4634005.265
  30
1039.031
  0
VERTEX
  8
PNOA-H_AMS_1956-57_33k_ES_PAN_21mic_H50_0315_fot_32B-39546_W_tif
  70
32
  10
470490.000
  20
4633940.901
  30
1030.747
  0
VERTEX
  8
PNOA-H_AMS_1956-57_33k_ES_PAN_21mic_H50_0315_fot_32B-39546_W_tif
  70
32
  10
470490.000
  20
4633941.045
  30
1030.75
  0
VERTEX
  8
PNOA-H_AMS_1956-57_33k_ES_PAN_21mic_H50_0315_fot_32B-39546_W_tif
  70
32
  10
470490.000
  20
4636060.000
  30
1087.795
  0
VERTEX
  8
PNOA-H_AMS_1956-57_33k_ES_PAN_21mic_H50_0315_fot_32B-39546_W_tif
  70
32
  10
470510.000
  20
4636060.000
  30
1087.795
  0
VERTEX
  8
PNOA-H_AMS_1956-57_33k_ES_PAN_21mic_H50_0315_fot_32B-39546_W_tif
  70
32
  10
470510.000
  20
4638345.358
  30
1196.913
  0
VERTEX
  8
PNOA-H_AMS_1956-57_33k_ES_PAN_21mic_H50_0315_fot_32B-39546_W_tif
  70
32
  10
470510.000
  20
4638345.748
  30
1196.931
  0
VERTEX
  8
PNOA-H_AMS_1956-57_33k_ES_PAN_21mic_H50_0315_fot_32B-39546_W_tif
  70
32
  10
471070.475
  20
4638225.442
  30
1200.719
  0
VERTEX
  8
PNOA-H_AMS_1956-57_33k_ES_PAN_21mic_H50_0315_fot_32B-39546_W_tif
  70
32
  10
471093.500
  20
4638220.500
  30
1200.875
  0
VERTEX
  8
PNOA-H_AMS_1956-57_33k_ES_PAN_21mic_H50_0315_fot_32B-39546_W_tif
  70
32
  10
471153.000
  20
4634038.000
  30
1043.244
  0
VERTEX
  8
PNOA-H_AMS_1956-57_33k_ES_PAN_21mic_H50_0315_fot_32B-39546_W_tif
  70
32
  10
470929.484
  20
4634005.265
  30
1039.031
  0
SEQEND
  8
PNOA-H_AMS_1956-57_33k_ES_PAN_21mic_H50_0315_fot_32B-39546_W_tif
  0
INSERT
  8
FeatureAttribs
  2
FEATURE
  41
1
  42
1
  43
1
  50
0
  10
475003.420
  20
4636203.500
 66
1
  0
ATTRIB
  8
FeatureAttribs
 70
0
  1
PNOA-H_AMS_1956-57_33k_ES_PAN_21mic_H50_0315_fot_32B-39544_W.tif
  2
NAME
  10
475003.420
  20
4636203.500
 40
23.21987
  0
SEQEND
  0
POLYLINE
  8
PNOA-H_AMS_1956-57_33k_ES_PAN_21mic_H50_0315_fot_32B-39544_W_tif
  70
9
  66
1
  0
VERTEX
  8
PNOA-H_AMS_1956-57_33k_ES_PAN_21mic_H50_0315_fot_32B-39544_W_tif
  70
32
  10
476326.500
  20
4634153.500
  30
1129.022
  0
VERTEX
  8
PNOA-H_AMS_1956-57_33k_ES_PAN_21mic_H50_0315_fot_32B-39544_W_tif
  70
32
  10
474750.000
  20
4633727.000
  30
1102.881
  0
VERTEX
  8
PNOA-H_AMS_1956-57_33k_ES_PAN_21mic_H50_0315_fot_32B-39544_W_tif
  70
32
  10
474749.239
  20
4633727.246
  30
1102.769
  0
VERTEX
  8
PNOA-H_AMS_1956-57_33k_ES_PAN_21mic_H50_0315_fot_32B-39544_W_tif
  70
32
  10
474739.402
  20
4633730.429
  30
1101.321
  0
VERTEX
  8
PNOA-H_AMS_1956-57_33k_ES_PAN_21mic_H50_0315_fot_32B-39544_W_tif
  70
32
  10
474733.000
  20
4633732.500
  30
1100.379
  0
VERTEX
  8
PNOA-H_AMS_1956-57_33k_ES_PAN_21mic_H50_0315_fot_32B-39544_W_tif
  70
32
  10
473746.500
  20
4634104.000
  30
1055.804
  0
VERTEX
  8
PNOA-H_AMS_1956-57_33k_ES_PAN_21mic_H50_0315_fot_32B-39544_W_tif
  70
32
  10
473674.000
  20
4638245.000
  30
1132.249
  0
VERTEX
  8
PNOA-H_AMS_1956-57_33k_ES_PAN_21mic_H50_0315_fot_32B-39544_W_tif
  70
32
  10
473674.477
  20
4638245.144
  30
1132.24
  0
VERTEX
  8
PNOA-H_AMS_1956-57_33k_ES_PAN_21mic_H50_0315_fot_32B-39544_W_tif
  70
32
  10
475109.500
  20
4638679.500
  30
1106.134
  0
VERTEX
  8
PNOA-H_AMS_1956-57_33k_ES_PAN_21mic_H50_0315_fot_32B-39544_W_tif
  70
32
  10
475111.000
  20
4638680.000
  30
1106.185
  0
VERTEX
  8
PNOA-H_AMS_1956-57_33k_ES_PAN_21mic_H50_0315_fot_32B-39544_W_tif
  70
32
  10
475111.242
  20
4638679.922
  30
1106.183
  0
VERTEX
  8
PNOA-H_AMS_1956-57_33k_ES_PAN_21mic_H50_0315_fot_32B-39544_W_tif
  70
32
  10
475399.750
  20
4638586.875
  30
1103.736
  0
VERTEX
  8
PNOA-H_AMS_1956-57_33k_ES_PAN_21mic_H50_0315_fot_32B-39544_W_tif
  70
32
  10
476266.000
  20
4638307.500
  30
1096.387
  0
VERTEX
  8
PNOA-H_AMS_1956-57_33k_ES_PAN_21mic_H50_0315_fot_32B-39544_W_tif
  70
32
  10
476327.000
  20
4634180.500
  30
1127.06
  0
VERTEX
  8
PNOA-H_AMS_1956-57_33k_ES_PAN_21mic_H50_0315_fot_32B-39544_W_tif
  70
32
  10
476326.782
  20
4634168.741
  30
1127.914
  0
VERTEX
  8
PNOA-H_AMS_1956-57_33k_ES_PAN_21mic_H50_0315_fot_32B-39544_W_tif
  70
32
  10
476326.509
  20
4634153.997
  30
1128.986
  0
VERTEX
  8
PNOA-H_AMS_1956-57_33k_ES_PAN_21mic_H50_0315_fot_32B-39544_W_tif
  70
32
  10
476326.500
  20
4634153.500
  30
1129.022
  0
SEQEND
  8
PNOA-H_AMS_1956-57_33k_ES_PAN_21mic_H50_0315_fot_32B-39544_W_tif
  0
INSERT
  8
FeatureAttribs
  2
FEATURE
  41
1
  42
1
  43
1
  50
0
  10
472416.413
  20
4636182.250
 66
1
  0
ATTRIB
  8
FeatureAttribs
 70
0
  1
PNOA-H_AMS_1956-57_33k_ES_PAN_21mic_H50_0315_fot_32B-39545_W.tif
  2
NAME
  10
472416.413
  20
4636182.250
 40
23.21987
  0
SEQEND
  0
POLYLINE
  8
PNOA-H_AMS_1956-57_33k_ES_PAN_21mic_H50_0315_fot_32B-39545_W_tif
  70
9
  66
1
  0
VERTEX
  8
PNOA-H_AMS_1956-57_33k_ES_PAN_21mic_H50_0315_fot_32B-39545_W_tif
  70
32
  10
471878.180
  20
4633728.637
  30
1051.82
  0
VERTEX
  8
PNOA-H_AMS_1956-57_33k_ES_PAN_21mic_H50_0315_fot_32B-39545_W_tif
  70
32
  10
471877.500
  20
4633728.500
  30
1051.819
  0
VERTEX
  8
PNOA-H_AMS_1956-57_33k_ES_PAN_21mic_H50_0315_fot_32B-39545_W_tif
  70
32
  10
471153.127
  20
4634037.946
  30
1043.245
  0
VERTEX
  8
PNOA-H_AMS_1956-57_33k_ES_PAN_21mic_H50_0315_fot_32B-39545_W_tif
  70
32
  10
471153.000
  20
4634038.000
  30
1043.244
  0
VERTEX
  8
PNOA-H_AMS_1956-57_33k_ES_PAN_21mic_H50_0315_fot_32B-39545_W_tif
  70
32
  10
471093.500
  20
4638220.500
  30
1200.875
  0
VERTEX
  8
PNOA-H_AMS_1956-57_33k_ES_PAN_21mic_H50_0315_fot_32B-39545_W_tif
  70
32
  10
471093.865
  20
4638220.631
  30
1200.854
  0
VERTEX
  8
PNOA-H_AMS_1956-57_33k_ES_PAN_21mic_H50_0315_fot_32B-39545_W_tif
  70
32
  10
472256.000
  20
4638636.000
  30
1134.46
  0
VERTEX
  8
PNOA-H_AMS_1956-57_33k_ES_PAN_21mic_H50_0315_fot_32B-39545_W_tif
  70
32
  10
472256.282
  20
4638635.922
  30
1134.461
  0
VERTEX
  8
PNOA-H_AMS_1956-57_33k_ES_PAN_21mic_H50_0315_fot_32B-39545_W_tif
  70
32
  10
473546.000
  20
4638280.000
  30
1138.115
  0
VERTEX
  8
PNOA-H_AMS_1956-57_33k_ES_PAN_21mic_H50_0315_fot_32B-39545_W_tif
  70
32
  10
473548.000
  20
4638279.500
  30
1138.136
  0
VERTEX
  8
PNOA-H_AMS_1956-57_33k_ES_PAN_21mic_H50_0315_fot_32B-39545_W_tif
  70
32
  10
473663.467
  20
4638248.179
  30
1132.739
  0
VERTEX
  8
PNOA-H_AMS_1956-57_33k_ES_PAN_21mic_H50_0315_fot_32B-39545_W_tif
  70
32
  10
473671.500
  20
4638246.000
  30
1132.363
  0
VERTEX
  8
PNOA-H_AMS_1956-57_33k_ES_PAN_21mic_H50_0315_fot_32B-39545_W_tif
  70
32
  10
473671.783
  20
4638245.887
  30
1132.35
  0
VERTEX
  8
PNOA-H_AMS_1956-57_33k_ES_PAN_21mic_H50_0315_fot_32B-39545_W_tif
  70
32
  10
473674.000
  20
4638245.000
  30
1132.249
  0
VERTEX
  8
PNOA-H_AMS_1956-57_33k_ES_PAN_21mic_H50_0315_fot_32B-39545_W_tif
  70
32
  10
473674.500
  20
4638241.000
  30
1132.327
  0
VERTEX
  8
PNOA-H_AMS_1956-57_33k_ES_PAN_21mic_H50_0315_fot_32B-39545_W_tif
  70
32
  10
473746.500
  20
4634104.000
  30
1055.804
  0
VERTEX
  8
PNOA-H_AMS_1956-57_33k_ES_PAN_21mic_H50_0315_fot_32B-39545_W_tif
  70
32
  10
472409.070
  20
4633835.297
  30
1052.952
  0
VERTEX
  8
PNOA-H_AMS_1956-57_33k_ES_PAN_21mic_H50_0315_fot_32B-39545_W_tif
  70
32
  10
471878.180
  20
4633728.637
  30
1051.82
  0
SEQEND
  8
PNOA-H_AMS_1956-57_33k_ES_PAN_21mic_H50_0315_fot_32B-39545_W_tif
  0
INSERT
  8
FeatureAttribs
  2
FEATURE
  41
1
  42
1
  43
1
  50
0
  10
473323.431
  20
4632710.220
 66
1
  0
ATTRIB
  8
FeatureAttribs
 70
0
  1
PNOA-H_AMS_1956-57_33k_ES_PAN_21mic_H50_0315_fot_33B-38711_E.tif
  2
NAME
  10
473323.431
  20
4632710.220
 40
23.21987
  0
SEQEND
  0
POLYLINE
  8
PNOA-H_AMS_1956-57_33k_ES_PAN_21mic_H50_0315_fot_33B-38711_E_tif
  70
9
  66
1
  0
VERTEX
  8
PNOA-H_AMS_1956-57_33k_ES_PAN_21mic_H50_0315_fot_33B-38711_E_tif
  70
32
  10
473744.000
  20
4634104.000
  30
1055.031
  0
VERTEX
  8
PNOA-H_AMS_1956-57_33k_ES_PAN_21mic_H50_0315_fot_33B-38711_E_tif
  70
32
  10
473746.500
  20
4634104.000
  30
1055.811
  0
VERTEX
  8
PNOA-H_AMS_1956-57_33k_ES_PAN_21mic_H50_0315_fot_33B-38711_E_tif
  70
32
  10
473748.000
  20
4634104.000
  30
1056.279
  0
VERTEX
  8
PNOA-H_AMS_1956-57_33k_ES_PAN_21mic_H50_0315_fot_33B-38711_E_tif
  70
32
  10
473780.000
  20
4634092.000
  30
1070.732
  0
VERTEX
  8
PNOA-H_AMS_1956-57_33k_ES_PAN_21mic_H50_0315_fot_33B-38711_E_tif
  70
32
  10
474739.402
  20
4633730.429
  30
1102.332
  0
VERTEX
  8
PNOA-H_AMS_1956-57_33k_ES_PAN_21mic_H50_0315_fot_33B-38711_E_tif
  70
32
  10
474748.500
  20
4633727.000
  30
1102.632
  0
VERTEX
  8
PNOA-H_AMS_1956-57_33k_ES_PAN_21mic_H50_0315_fot_33B-38711_E_tif
  70
32
  10
474771.034
  20
4631316.440
  30
1036.455
  0
VERTEX
  8
PNOA-H_AMS_1956-57_33k_ES_PAN_21mic_H50_0315_fot_33B-38711_E_tif
  70
32
  10
474770.992
  20
4631316.440
  30
0
  0
VERTEX
  8
PNOA-H_AMS_1956-57_33k_ES_PAN_21mic_H50_0315_fot_33B-38711_E_tif
  70
32
  10
474052.055
  20
4631318.881
  30
0
  0
VERTEX
  8
PNOA-H_AMS_1956-57_33k_ES_PAN_21mic_H50_0315_fot_33B-38711_E_tif
  70
32
  10
471902.926
  20
4631327.221
  30
994.387
  0
VERTEX
  8
PNOA-H_AMS_1956-57_33k_ES_PAN_21mic_H50_0315_fot_33B-38711_E_tif
  70
32
  10
471878.500
  20
4633728.500
  30
1051.373
  0
VERTEX
  8
PNOA-H_AMS_1956-57_33k_ES_PAN_21mic_H50_0315_fot_33B-38711_E_tif
  70
32
  10
472409.070
  20
4633835.297
  30
1052.229
  0
VERTEX
  8
PNOA-H_AMS_1956-57_33k_ES_PAN_21mic_H50_0315_fot_33B-38711_E_tif
  70
32
  10
473741.500
  20
4634103.500
  30
1054.378
  0
VERTEX
  8
PNOA-H_AMS_1956-57_33k_ES_PAN_21mic_H50_0315_fot_33B-38711_E_tif
  70
32
  10
473744.000
  20
4634104.000
  30
1055.031
  0
SEQEND
  8
PNOA-H_AMS_1956-57_33k_ES_PAN_21mic_H50_0315_fot_33B-38711_E_tif
  0
INSERT
  8
FeatureAttribs
  2
FEATURE
  41
1
  42
1
  43
1
  50
0
  10
471189.569
  20
4632682.610
 66
1
  0
ATTRIB
  8
FeatureAttribs
 70
0
  1
PNOA-H_AMS_1956-57_33k_ES_PAN_21mic_H50_0315_fot_33B-38710_E.tif
  2
NAME
  10
471189.569
  20
4632682.610
 40
23.21987
  0
SEQEND
  0
POLYLINE
  8
PNOA-H_AMS_1956-57_33k_ES_PAN_21mic_H50_0315_fot_33B-38710_E_tif
  70
9
  66
1
  0
VERTEX
  8
PNOA-H_AMS_1956-57_33k_ES_PAN_21mic_H50_0315_fot_33B-38710_E_tif
  70
32
  10
471878.500
  20
4633728.500
  30
1051.373
  0
VERTEX
  8
PNOA-H_AMS_1956-57_33k_ES_PAN_21mic_H50_0315_fot_33B-38710_E_tif
  70
32
  10
471902.926
  20
4631327.221
  30
994.387
  0
VERTEX
  8
PNOA-H_AMS_1956-57_33k_ES_PAN_21mic_H50_0315_fot_33B-38710_E_tif
  70
32
  10
470592.324
  20
4631332.306
  30
0
  0
VERTEX
  8
PNOA-H_AMS_1956-57_33k_ES_PAN_21mic_H50_0315_fot_33B-38710_E_tif
  70
32
  10
470470.000
  20
4631332.840
  30
1021.225
  0
VERTEX
  8
PNOA-H_AMS_1956-57_33k_ES_PAN_21mic_H50_0315_fot_33B-38710_E_tif
  70
32
  10
470470.000
  20
4631440.000
  30
1022.207
  0
VERTEX
  8
PNOA-H_AMS_1956-57_33k_ES_PAN_21mic_H50_0315_fot_33B-38710_E_tif
  70
32
  10
470490.000
  20
4631440.000
  30
1022.207
  0
VERTEX
  8
PNOA-H_AMS_1956-57_33k_ES_PAN_21mic_H50_0315_fot_33B-38710_E_tif
  70
32
  10
470490.000
  20
4633940.901
  30
1049.397
  0
VERTEX
  8
PNOA-H_AMS_1956-57_33k_ES_PAN_21mic_H50_0315_fot_33B-38710_E_tif
  70
32
  10
470490.000
  20
4633941.045
  30
1049.399
  0
VERTEX
  8
PNOA-H_AMS_1956-57_33k_ES_PAN_21mic_H50_0315_fot_33B-38710_E_tif
  70
32
  10
470929.484
  20
4634005.265
  30
1045.361
  0
VERTEX
  8
PNOA-H_AMS_1956-57_33k_ES_PAN_21mic_H50_0315_fot_33B-38710_E_tif
  70
32
  10
471153.127
  20
4634037.946
  30
1043.307
  0
VERTEX
  8
PNOA-H_AMS_1956-57_33k_ES_PAN_21mic_H50_0315_fot_33B-38710_E_tif
  70
32
  10
471153.500
  20
4634038.000
  30
1043.303
  0
VERTEX
  8
PNOA-H_AMS_1956-57_33k_ES_PAN_21mic_H50_0315_fot_33B-38710_E_tif
  70
32
  10
471878.180
  20
4633728.637
  30
1051.37
  0
VERTEX
  8
PNOA-H_AMS_1956-57_33k_ES_PAN_21mic_H50_0315_fot_33B-38710_E_tif
  70
32
  10
471878.500
  20
4633728.500
  30
1051.373
  0
SEQEND
  8
PNOA-H_AMS_1956-57_33k_ES_PAN_21mic_H50_0315_fot_33B-38710_E_tif
  0
INSERT
  8
FeatureAttribs
  2
FEATURE
  41
1
  42
1
  43
1
  50
0
  10
476208.647
  20
4632730.324
 66
1
  0
ATTRIB
  8
FeatureAttribs
 70
0
  1
PNOA-H_AMS_1956-57_33k_ES_PAN_21mic_H50_0315_fot_33B-38712_E.tif
  2
NAME
  10
476208.647
  20
4632730.324
 40
23.21987
  0
SEQEND
  0
POLYLINE
  8
PNOA-H_AMS_1956-57_33k_ES_PAN_21mic_H50_0315_fot_33B-38712_E_tif
  70
9
  66
1
  0
VERTEX
  8
PNOA-H_AMS_1956-57_33k_ES_PAN_21mic_H50_0315_fot_33B-38712_E_tif
  70
32
  10
477645.500
  20
4633759.000
  30
1065.878
  0
VERTEX
  8
PNOA-H_AMS_1956-57_33k_ES_PAN_21mic_H50_0315_fot_33B-38712_E_tif
  70
32
  10
477679.008
  20
4631306.648
  30
1077.466
  0
VERTEX
  8
PNOA-H_AMS_1956-57_33k_ES_PAN_21mic_H50_0315_fot_33B-38712_E_tif
  70
32
  10
477678.749
  20
4631306.649
  30
0
  0
VERTEX
  8
PNOA-H_AMS_1956-57_33k_ES_PAN_21mic_H50_0315_fot_33B-38712_E_tif
  70
32
  10
477511.784
  20
4631307.135
  30
0
  0
VERTEX
  8
PNOA-H_AMS_1956-57_33k_ES_PAN_21mic_H50_0315_fot_33B-38712_E_tif
  70
32
  10
474771.034
  20
4631316.440
  30
1036.455
  0
VERTEX
  8
PNOA-H_AMS_1956-57_33k_ES_PAN_21mic_H50_0315_fot_33B-38712_E_tif
  70
32
  10
474770.992
  20
4631316.440
  30
1036.238
  0
VERTEX
  8
PNOA-H_AMS_1956-57_33k_ES_PAN_21mic_H50_0315_fot_33B-38712_E_tif
  70
32
  10
474748.500
  20
4633716.000
  30
1101.797
  0
VERTEX
  8
PNOA-H_AMS_1956-57_33k_ES_PAN_21mic_H50_0315_fot_33B-38712_E_tif
  70
32
  10
474748.500
  20
4633727.000
  30
1102.632
  0
VERTEX
  8
PNOA-H_AMS_1956-57_33k_ES_PAN_21mic_H50_0315_fot_33B-38712_E_tif
  70
32
  10
474749.239
  20
4633727.246
  30
1102.765
  0
VERTEX
  8
PNOA-H_AMS_1956-57_33k_ES_PAN_21mic_H50_0315_fot_33B-38712_E_tif
  70
32
  10
474751.500
  20
4633728.000
  30
1103.173
  0
VERTEX
  8
PNOA-H_AMS_1956-57_33k_ES_PAN_21mic_H50_0315_fot_33B-38712_E_tif
  70
32
  10
476326.500
  20
4634154.000
  30
1128.991
  0
VERTEX
  8
PNOA-H_AMS_1956-57_33k_ES_PAN_21mic_H50_0315_fot_33B-38712_E_tif
  70
32
  10
476326.509
  20
4634153.997
  30
1128.991
  0
VERTEX
  8
PNOA-H_AMS_1956-57_33k_ES_PAN_21mic_H50_0315_fot_33B-38712_E_tif
  70
32
  10
476630.944
  20
4634062.828
  30
1114.424
  0
VERTEX
  8
PNOA-H_AMS_1956-57_33k_ES_PAN_21mic_H50_0315_fot_33B-38712_E_tif
  70
32
  10
477643.915
  20
4633759.475
  30
1065.954
  0
VERTEX
  8
PNOA-H_AMS_1956-57_33k_ES_PAN_21mic_H50_0315_fot_33B-38712_E_tif
  70
32
  10
477645.500
  20
4633759.000
  30
1065.878
  0
SEQEND
  8
PNOA-H_AMS_1956-57_33k_ES_PAN_21mic_H50_0315_fot_33B-38712_E_tif
  0
INSERT
  8
FeatureAttribs
  2
FEATURE
  41
1
  42
1
  43
1
  50
0
  10
481802.034
  20
4632776.334
 66
1
  0
ATTRIB
  8
FeatureAttribs
 70
0
  1
PNOA-H_AMS_1956-57_33k_ES_PAN_21mic_H50_0315_fot_33B-38714_E.tif
  2
NAME
  10
481802.034
  20
4632776.334
 40
23.21987
  0
SEQEND
  0
POLYLINE
  8
PNOA-H_AMS_1956-57_33k_ES_PAN_21mic_H50_0315_fot_33B-38714_E_tif
  70
9
  66
1
  0
VERTEX
  8
PNOA-H_AMS_1956-57_33k_ES_PAN_21mic_H50_0315_fot_33B-38714_E_tif
  70
32
  10
483122.500
  20
4633883.000
  30
1077.21
  0
VERTEX
  8
PNOA-H_AMS_1956-57_33k_ES_PAN_21mic_H50_0315_fot_33B-38714_E_tif
  70
32
  10
483197.327
  20
4631291.668
  30
1111.474
  0
VERTEX
  8
PNOA-H_AMS_1956-57_33k_ES_PAN_21mic_H50_0315_fot_33B-38714_E_tif
  70
32
  10
483197.250
  20
4631291.668
  30
0
  0
VERTEX
  8
PNOA-H_AMS_1956-57_33k_ES_PAN_21mic_H50_0315_fot_33B-38714_E_tif
  70
32
  10
480971.512
  20
4631297.066
  30
0
  0
VERTEX
  8
PNOA-H_AMS_1956-57_33k_ES_PAN_21mic_H50_0315_fot_33B-38714_E_tif
  70
32
  10
480484.035
  20
4631298.485
  30
0
  0
VERTEX
  8
PNOA-H_AMS_1956-57_33k_ES_PAN_21mic_H50_0315_fot_33B-38714_E_tif
  70
32
  10
480483.871
  20
4631298.485
  30
1117.21
  0
VERTEX
  8
PNOA-H_AMS_1956-57_33k_ES_PAN_21mic_H50_0315_fot_33B-38714_E_tif
  70
32
  10
480425.000
  20
4633838.000
  30
1133.779
  0
VERTEX
  8
PNOA-H_AMS_1956-57_33k_ES_PAN_21mic_H50_0315_fot_33B-38714_E_tif
  70
32
  10
480425.422
  20
4633838.147
  30
1133.781
  0
VERTEX
  8
PNOA-H_AMS_1956-57_33k_ES_PAN_21mic_H50_0315_fot_33B-38714_E_tif
  70
32
  10
481641.500
  20
4634260.500
  30
1140.48
  0
VERTEX
  8
PNOA-H_AMS_1956-57_33k_ES_PAN_21mic_H50_0315_fot_33B-38714_E_tif
  70
32
  10
481643.000
  20
4634261.000
  30
1140.281
  0
VERTEX
  8
PNOA-H_AMS_1956-57_33k_ES_PAN_21mic_H50_0315_fot_33B-38714_E_tif
  70
32
  10
481643.943
  20
4634260.807
  30
1140.031
  0
VERTEX
  8
PNOA-H_AMS_1956-57_33k_ES_PAN_21mic_H50_0315_fot_33B-38714_E_tif
  70
32
  10
481650.537
  20
4634259.454
  30
1138.28
  0
VERTEX
  8
PNOA-H_AMS_1956-57_33k_ES_PAN_21mic_H50_0315_fot_33B-38714_E_tif
  70
32
  10
481662.500
  20
4634257.000
  30
1135.103
  0
VERTEX
  8
PNOA-H_AMS_1956-57_33k_ES_PAN_21mic_H50_0315_fot_33B-38714_E_tif
  70
32
  10
483121.750
  20
4633883.192
  30
1077.24
  0
VERTEX
  8
PNOA-H_AMS_1956-57_33k_ES_PAN_21mic_H50_0315_fot_33B-38714_E_tif
  70
32
  10
483122.500
  20
4633883.000
  30
1077.21
  0
SEQEND
  8
PNOA-H_AMS_1956-57_33k_ES_PAN_21mic_H50_0315_fot_33B-38714_E_tif
  0
INSERT
  8
FeatureAttribs
  2
FEATURE
  41
1
  42
1
  43
1
  50
0
  10
479054.653
  20
4632753.992
 66
1
  0
ATTRIB
  8
FeatureAttribs
 70
0
  1
PNOA-H_AMS_1956-57_33k_ES_PAN_21mic_H50_0315_fot_33B-38713_E.tif
  2
NAME
  10
479054.653
  20
4632753.992
 40
23.21987
  0
SEQEND
  0
POLYLINE
  8
PNOA-H_AMS_1956-57_33k_ES_PAN_21mic_H50_0315_fot_33B-38713_E_tif
  70
9
  66
1
  0
VERTEX
  8
PNOA-H_AMS_1956-57_33k_ES_PAN_21mic_H50_0315_fot_33B-38713_E_tif
  70
32
  10
480425.000
  20
4633838.000
  30
1133.779
  0
VERTEX
  8
PNOA-H_AMS_1956-57_33k_ES_PAN_21mic_H50_0315_fot_33B-38713_E_tif
  70
32
  10
480484.035
  20
4631298.485
  30
1120.978
  0
VERTEX
  8
PNOA-H_AMS_1956-57_33k_ES_PAN_21mic_H50_0315_fot_33B-38713_E_tif
  70
32
  10
480483.871
  20
4631298.485
  30
1117.21
  0
VERTEX
  8
PNOA-H_AMS_1956-57_33k_ES_PAN_21mic_H50_0315_fot_33B-38713_E_tif
  70
32
  10
477679.008
  20
4631306.648
  30
0
  0
VERTEX
  8
PNOA-H_AMS_1956-57_33k_ES_PAN_21mic_H50_0315_fot_33B-38713_E_tif
  70
32
  10
477678.749
  20
4631306.649
  30
1033.804
  0
VERTEX
  8
PNOA-H_AMS_1956-57_33k_ES_PAN_21mic_H50_0315_fot_33B-38713_E_tif
  70
32
  10
477645.500
  20
4633756.500
  30
1065.984
  0
VERTEX
  8
PNOA-H_AMS_1956-57_33k_ES_PAN_21mic_H50_0315_fot_33B-38713_E_tif
  70
32
  10
477645.500
  20
4633759.000
  30
1065.878
  0
VERTEX
  8
PNOA-H_AMS_1956-57_33k_ES_PAN_21mic_H50_0315_fot_33B-38713_E_tif
  70
32
  10
477645.965
  20
4633759.159
  30
1065.886
  0
VERTEX
  8
PNOA-H_AMS_1956-57_33k_ES_PAN_21mic_H50_0315_fot_33B-38713_E_tif
  70
32
  10
478960.500
  20
4634209.500
  30
1088.287
  0
VERTEX
  8
PNOA-H_AMS_1956-57_33k_ES_PAN_21mic_H50_0315_fot_33B-38713_E_tif
  70
32
  10
478961.163
  20
4634209.332
  30
1088.308
  0
VERTEX
  8
PNOA-H_AMS_1956-57_33k_ES_PAN_21mic_H50_0315_fot_33B-38713_E_tif
  70
32
  10
480425.000
  20
4633838.000
  30
1133.779
  0
SEQEND
  8
PNOA-H_AMS_1956-57_33k_ES_PAN_21mic_H50_0315_fot_33B-38713_E_tif
  0
INSERT
  8
FeatureAttribs
  2
FEATURE
  41
1
  42
1
  43
1
  50
0
  10
480293.579
  20
4634939.000
 66
1
  0
ATTRIB
  8
FeatureAttribs
 70
0
  1
PNOA-H_AMS_1956-57_33k_ES_PAN_21mic_H50_0315_fot_32B-39542_W.tif
  2
NAME
  10
480293.579
  20
4634939.000
 40
23.21987
  0
SEQEND
  0
POLYLINE
  8
PNOA-H_AMS_1956-57_33k_ES_PAN_21mic_H50_0315_fot_32B-39542_W_tif
  70
9
  66
1
  0
VERTEX
  8
PNOA-H_AMS_1956-57_33k_ES_PAN_21mic_H50_0315_fot_32B-39542_W_tif
  70
32
  10
481643.943
  20
4634260.807
  30
1139.977
  0
VERTEX
  8
PNOA-H_AMS_1956-57_33k_ES_PAN_21mic_H50_0315_fot_32B-39542_W_tif
  70
32
  10
480426.000
  20
4633838.000
  30
1133.825
  0
VERTEX
  8
PNOA-H_AMS_1956-57_33k_ES_PAN_21mic_H50_0315_fot_32B-39542_W_tif
  70
32
  10
480425.422
  20
4633838.147
  30
1133.807
  0
VERTEX
  8
PNOA-H_AMS_1956-57_33k_ES_PAN_21mic_H50_0315_fot_32B-39542_W_tif
  70
32
  10
478961.500
  20
4634209.500
  30
1088.238
  0
VERTEX
  8
PNOA-H_AMS_1956-57_33k_ES_PAN_21mic_H50_0315_fot_32B-39542_W_tif
  70
32
  10
478931.246
  20
4636040.000
  30
1096.48
  0
VERTEX
  8
PNOA-H_AMS_1956-57_33k_ES_PAN_21mic_H50_0315_fot_32B-39542_W_tif
  70
32
  10
478931.320
  20
4636040.000
  30
1096.481
  0
VERTEX
  8
PNOA-H_AMS_1956-57_33k_ES_PAN_21mic_H50_0315_fot_32B-39542_W_tif
  70
32
  10
481626.697
  20
4636040.000
  30
1126.39
  0
VERTEX
  8
PNOA-H_AMS_1956-57_33k_ES_PAN_21mic_H50_0315_fot_32B-39542_W_tif
  70
32
  10
481644.500
  20
4634261.000
  30
1139.98
  0
VERTEX
  8
PNOA-H_AMS_1956-57_33k_ES_PAN_21mic_H50_0315_fot_32B-39542_W_tif
  70
32
  10
481643.943
  20
4634260.807
  30
1139.977
  0
SEQEND
  8
PNOA-H_AMS_1956-57_33k_ES_PAN_21mic_H50_0315_fot_32B-39542_W_tif
  0
INSERT
  8
FeatureAttribs
  2
FEATURE
  41
1
  42
1
  43
1
  50
0
  10
482993.441
  20
4634961.500
 66
1
  0
ATTRIB
  8
FeatureAttribs
 70
0
  1
PNOA-H_AMS_1956-57_33k_ES_PAN_21mic_H50_0315_fot_32B-39541_W.tif
  2
NAME
  10
482993.441
  20
4634961.500
 40
23.21987
  0
SEQEND
  0
POLYLINE
  8
PNOA-H_AMS_1956-57_33k_ES_PAN_21mic_H50_0315_fot_32B-39541_W_tif
  70
9
  66
1
  0
VERTEX
  8
PNOA-H_AMS_1956-57_33k_ES_PAN_21mic_H50_0315_fot_32B-39541_W_tif
  70
32
  10
484363.500
  20
4634321.000
  30
1100.712
  0
VERTEX
  8
PNOA-H_AMS_1956-57_33k_ES_PAN_21mic_H50_0315_fot_32B-39541_W_tif
  70
32
  10
483877.000
  20
4634149.000
  30
1085.494
  0
VERTEX
  8
PNOA-H_AMS_1956-57_33k_ES_PAN_21mic_H50_0315_fot_32B-39541_W_tif
  70
32
  10
483875.500
  20
4634149.000
  30
1085.637
  0
VERTEX
  8
PNOA-H_AMS_1956-57_33k_ES_PAN_21mic_H50_0315_fot_32B-39541_W_tif
  70
32
  10
483127.000
  20
4633884.000
  30
1077.647
  0
VERTEX
  8
PNOA-H_AMS_1956-57_33k_ES_PAN_21mic_H50_0315_fot_32B-39541_W_tif
  70
32
  10
483123.967
  20
4633883.533
  30
1077.391
  0
VERTEX
  8
PNOA-H_AMS_1956-57_33k_ES_PAN_21mic_H50_0315_fot_32B-39541_W_tif
  70
32
  10
483121.750
  20
4633883.192
  30
1077.204
  0
VERTEX
  8
PNOA-H_AMS_1956-57_33k_ES_PAN_21mic_H50_0315_fot_32B-39541_W_tif
  70
32
  10
483120.500
  20
4633883.000
  30
1077.098
  0
VERTEX
  8
PNOA-H_AMS_1956-57_33k_ES_PAN_21mic_H50_0315_fot_32B-39541_W_tif
  70
32
  10
481650.537
  20
4634259.454
  30
1139.723
  0
VERTEX
  8
PNOA-H_AMS_1956-57_33k_ES_PAN_21mic_H50_0315_fot_32B-39541_W_tif
  70
32
  10
481644.500
  20
4634261.000
  30
1139.98
  0
VERTEX
  8
PNOA-H_AMS_1956-57_33k_ES_PAN_21mic_H50_0315_fot_32B-39541_W_tif
  70
32
  10
481626.697
  20
4636040.000
  30
1126.39
  0
VERTEX
  8
PNOA-H_AMS_1956-57_33k_ES_PAN_21mic_H50_0315_fot_32B-39541_W_tif
  70
32
  10
484325.484
  20
4636040.000
  30
1104.704
  0
VERTEX
  8
PNOA-H_AMS_1956-57_33k_ES_PAN_21mic_H50_0315_fot_32B-39541_W_tif
  70
32
  10
484325.638
  20
4636040.000
  30
1104.703
  0
VERTEX
  8
PNOA-H_AMS_1956-57_33k_ES_PAN_21mic_H50_0315_fot_32B-39541_W_tif
  70
32
  10
484363.500
  20
4634321.000
  30
1100.712
  0
SEQEND
  8
PNOA-H_AMS_1956-57_33k_ES_PAN_21mic_H50_0315_fot_32B-39541_W_tif
  0
INSERT
  8
FeatureAttribs
  2
FEATURE
  41
1
  42
1
  43
1
  50
0
  10
483794.011
  20
4632804.838
 66
1
  0
ATTRIB
  8
FeatureAttribs
 70
0
  1
PNOA-H_AMS_1956-57_33k_ES_PAN_21mic_H50_0316_fot_33B-38715_E.tif
  2
NAME
  10
483794.011
  20
4632804.838
 40
23.21987
  0
SEQEND
  0
POLYLINE
  8
PNOA-H_AMS_1956-57_33k_ES_PAN_21mic_H50_0316_fot_33B-38715_E_tif
  70
9
  66
1
  0
VERTEX
  8
PNOA-H_AMS_1956-57_33k_ES_PAN_21mic_H50_0316_fot_33B-38715_E_tif
  70
32
  10
484436.288
  20
4633601.715
  30
0
  0
VERTEX
  8
PNOA-H_AMS_1956-57_33k_ES_PAN_21mic_H50_0316_fot_33B-38715_E_tif
  70
32
  10
484431.239
  20
4631288.676
  30
0
  0
VERTEX
  8
PNOA-H_AMS_1956-57_33k_ES_PAN_21mic_H50_0316_fot_33B-38715_E_tif
  70
32
  10
483197.327
  20
4631291.668
  30
1111.474
  0
VERTEX
  8
PNOA-H_AMS_1956-57_33k_ES_PAN_21mic_H50_0316_fot_33B-38715_E_tif
  70
32
  10
483197.250
  20
4631291.668
  30
1111.243
  0
VERTEX
  8
PNOA-H_AMS_1956-57_33k_ES_PAN_21mic_H50_0316_fot_33B-38715_E_tif
  70
32
  10
483122.500
  20
4633875.500
  30
1076.665
  0
VERTEX
  8
PNOA-H_AMS_1956-57_33k_ES_PAN_21mic_H50_0316_fot_33B-38715_E_tif
  70
32
  10
483122.500
  20
4633883.000
  30
1077.21
  0
VERTEX
  8
PNOA-H_AMS_1956-57_33k_ES_PAN_21mic_H50_0316_fot_33B-38715_E_tif
  70
32
  10
483123.967
  20
4633883.533
  30
1077.375
  0
VERTEX
  8
PNOA-H_AMS_1956-57_33k_ES_PAN_21mic_H50_0316_fot_33B-38715_E_tif
  70
32
  10
483128.000
  20
4633885.000
  30
1077.831
  0
VERTEX
  8
PNOA-H_AMS_1956-57_33k_ES_PAN_21mic_H50_0316_fot_33B-38715_E_tif
  70
32
  10
484362.000
  20
4634321.000
  30
1100.629
  0
VERTEX
  8
PNOA-H_AMS_1956-57_33k_ES_PAN_21mic_H50_0316_fot_33B-38715_E_tif
  70
32
  10
484363.500
  20
4634321.000
  30
1100.711
  0
VERTEX
  8
PNOA-H_AMS_1956-57_33k_ES_PAN_21mic_H50_0316_fot_33B-38715_E_tif
  70
32
  10
484365.500
  20
4634321.000
  30
1100.82
  0
VERTEX
  8
PNOA-H_AMS_1956-57_33k_ES_PAN_21mic_H50_0316_fot_33B-38715_E_tif
  70
32
  10
484423.500
  20
4634306.500
  30
1105.14
  0
VERTEX
  8
PNOA-H_AMS_1956-57_33k_ES_PAN_21mic_H50_0316_fot_33B-38715_E_tif
  70
32
  10
484437.820
  20
4634302.903
  30
1105.302
  0
VERTEX
  8
PNOA-H_AMS_1956-57_33k_ES_PAN_21mic_H50_0316_fot_33B-38715_E_tif
  70
32
  10
484437.818
  20
4634302.359
  30
0
  0
VERTEX
  8
PNOA-H_AMS_1956-57_33k_ES_PAN_21mic_H50_0316_fot_33B-38715_E_tif
  70
32
  10
484436.288
  20
4633601.715
  30
0
  0
SEQEND
  8
PNOA-H_AMS_1956-57_33k_ES_PAN_21mic_H50_0316_fot_33B-38715_E_tif
  0
INSERT
  8
FeatureAttribs
  2
FEATURE
  41
1
  42
1
  43
1
  50
0
  10
484391.211
  20
4636410.539
 66
1
  0
ATTRIB
  8
FeatureAttribs
 70
0
  1
PNOA-H_AMS_1956-57_33k_ES_PAN_21mic_H50_0316_fot_32B-39540_W.tif
  2
NAME
  10
484391.211
  20
4636410.539
 40
23.21987
  0
SEQEND
  0
POLYLINE
  8
PNOA-H_AMS_1956-57_33k_ES_PAN_21mic_H50_0316_fot_32B-39540_W_tif
  70
9
  66
1
  0
VERTEX
  8
PNOA-H_AMS_1956-57_33k_ES_PAN_21mic_H50_0316_fot_32B-39540_W_tif
  70
32
  10
484437.820
  20
4634302.903
  30
0
  0
VERTEX
  8
PNOA-H_AMS_1956-57_33k_ES_PAN_21mic_H50_0316_fot_32B-39540_W_tif
  70
32
  10
484437.818
  20
4634302.359
  30
1101.739
  0
VERTEX
  8
PNOA-H_AMS_1956-57_33k_ES_PAN_21mic_H50_0316_fot_32B-39540_W_tif
  70
32
  10
484363.500
  20
4634321.000
  30
1100.712
  0
VERTEX
  8
PNOA-H_AMS_1956-57_33k_ES_PAN_21mic_H50_0316_fot_32B-39540_W_tif
  70
32
  10
484325.484
  20
4636040.000
  30
1105.979
  0
VERTEX
  8
PNOA-H_AMS_1956-57_33k_ES_PAN_21mic_H50_0316_fot_32B-39540_W_tif
  70
32
  10
484325.638
  20
4636040.000
  30
1106.039
  0
VERTEX
  8
PNOA-H_AMS_1956-57_33k_ES_PAN_21mic_H50_0316_fot_32B-39540_W_tif
  70
32
  10
484340.000
  20
4636040.000
  30
1111.611
  0
VERTEX
  8
PNOA-H_AMS_1956-57_33k_ES_PAN_21mic_H50_0316_fot_32B-39540_W_tif
  70
32
  10
484340.000
  20
4638505.819
  30
1111.647
  0
VERTEX
  8
PNOA-H_AMS_1956-57_33k_ES_PAN_21mic_H50_0316_fot_32B-39540_W_tif
  70
32
  10
484340.000
  20
4638506.320
  30
1111.647
  0
VERTEX
  8
PNOA-H_AMS_1956-57_33k_ES_PAN_21mic_H50_0316_fot_32B-39540_W_tif
  70
32
  10
484447.029
  20
4638518.720
  30
1113.727
  0
VERTEX
  8
PNOA-H_AMS_1956-57_33k_ES_PAN_21mic_H50_0316_fot_32B-39540_W_tif
  70
32
  10
484447.028
  20
4638518.217
  30
0
  0
VERTEX
  8
PNOA-H_AMS_1956-57_33k_ES_PAN_21mic_H50_0316_fot_32B-39540_W_tif
  70
32
  10
484446.394
  20
4638227.819
  30
0
  0
VERTEX
  8
PNOA-H_AMS_1956-57_33k_ES_PAN_21mic_H50_0316_fot_32B-39540_W_tif
  70
32
  10
484441.340
  20
4635914.763
  30
0
  0
VERTEX
  8
PNOA-H_AMS_1956-57_33k_ES_PAN_21mic_H50_0316_fot_32B-39540_W_tif
  70
32
  10
484437.820
  20
4634302.903
  30
0
  0
SEQEND
  8
PNOA-H_AMS_1956-57_33k_ES_PAN_21mic_H50_0316_fot_32B-39540_W_tif
  0
INSERT
  8
FeatureAttribs
  2
FEATURE
  41
1
  42
1
  43
1
  50
0
  10
484411.051
  20
4645411.557
 66
1
  0
ATTRIB
  8
FeatureAttribs
 70
0
  1
PNOA-H_AMS_1956-57_33k_ES_PAN_21mic_H50_0315_fot_30D-50561_W.tif
  2
NAME
  10
484411.051
  20
4645411.557
 40
23.21987
  0
SEQEND
  0
POLYLINE
  8
PNOA-H_AMS_1956-57_33k_ES_PAN_21mic_H50_0315_fot_30D-50561_W_tif
  70
9
  66
1
  0
VERTEX
  8
PNOA-H_AMS_1956-57_33k_ES_PAN_21mic_H50_0315_fot_30D-50561_W_tif
  70
32
  10
484457.007
  20
4643082.595
  30
1203.973
  0
VERTEX
  8
PNOA-H_AMS_1956-57_33k_ES_PAN_21mic_H50_0315_fot_30D-50561_W_tif
  70
32
  10
484350.000
  20
4643066.150
  30
1200.613
  0
VERTEX
  8
PNOA-H_AMS_1956-57_33k_ES_PAN_21mic_H50_0315_fot_30D-50561_W_tif
  70
32
  10
484350.000
  20
4643066.627
  30
1200.611
  0
VERTEX
  8
PNOA-H_AMS_1956-57_33k_ES_PAN_21mic_H50_0315_fot_30D-50561_W_tif
  70
32
  10
484350.000
  20
4645270.000
  30
1190.749
  0
VERTEX
  8
PNOA-H_AMS_1956-57_33k_ES_PAN_21mic_H50_0315_fot_30D-50561_W_tif
  70
32
  10
484360.000
  20
4645270.000
  30
1190.749
  0
VERTEX
  8
PNOA-H_AMS_1956-57_33k_ES_PAN_21mic_H50_0315_fot_30D-50561_W_tif
  70
32
  10
484360.000
  20
4647756.735
  30
1072.054
  0
VERTEX
  8
PNOA-H_AMS_1956-57_33k_ES_PAN_21mic_H50_0315_fot_30D-50561_W_tif
  70
32
  10
484360.000
  20
4647756.965
  30
1072.043
  0
VERTEX
  8
PNOA-H_AMS_1956-57_33k_ES_PAN_21mic_H50_0315_fot_30D-50561_W_tif
  70
32
  10
484467.202
  20
4647741.901
  30
1071.613
  0
VERTEX
  8
PNOA-H_AMS_1956-57_33k_ES_PAN_21mic_H50_0315_fot_30D-50561_W_tif
  70
32
  10
484467.202
  20
4647741.695
  30
1071.623
  0
VERTEX
  8
PNOA-H_AMS_1956-57_33k_ES_PAN_21mic_H50_0315_fot_30D-50561_W_tif
  70
32
  10
484466.629
  20
4647480.128
  30
0
  0
VERTEX
  8
PNOA-H_AMS_1956-57_33k_ES_PAN_21mic_H50_0315_fot_30D-50561_W_tif
  70
32
  10
484461.567
  20
4645167.038
  30
0
  0
VERTEX
  8
PNOA-H_AMS_1956-57_33k_ES_PAN_21mic_H50_0315_fot_30D-50561_W_tif
  70
32
  10
484457.008
  20
4643083.063
  30
0
  0
VERTEX
  8
PNOA-H_AMS_1956-57_33k_ES_PAN_21mic_H50_0315_fot_30D-50561_W_tif
  70
32
  10
484457.007
  20
4643082.595
  30
1203.973
  0
SEQEND
  8
PNOA-H_AMS_1956-57_33k_ES_PAN_21mic_H50_0315_fot_30D-50561_W_tif
  0
INSERT
  8
FeatureAttribs
  2
FEATURE
  41
1
  42
1
  43
1
  50
0
  10
484401.002
  20
4640794.441
 66
1
  0
ATTRIB
  8
FeatureAttribs
 70
0
  1
PNOA-H_AMS_1956-57_33k_ES_PAN_21mic_H50_0316_fot_31B-36865_E.tif
  2
NAME
  10
484401.002
  20
4640794.441
 40
23.21987
  0
SEQEND
  0
POLYLINE
  8
PNOA-H_AMS_1956-57_33k_ES_PAN_21mic_H50_0316_fot_31B-36865_E_tif
  70
9
  66
1
  0
VERTEX
  8
PNOA-H_AMS_1956-57_33k_ES_PAN_21mic_H50_0316_fot_31B-36865_E_tif
  70
32
  10
484447.028
  20
4638518.217
  30
1110.904
  0
VERTEX
  8
PNOA-H_AMS_1956-57_33k_ES_PAN_21mic_H50_0316_fot_31B-36865_E_tif
  70
32
  10
484340.000
  20
4638505.819
  30
1110.62
  0
VERTEX
  8
PNOA-H_AMS_1956-57_33k_ES_PAN_21mic_H50_0316_fot_31B-36865_E_tif
  70
32
  10
484340.000
  20
4638506.320
  30
1110.634
  0
VERTEX
  8
PNOA-H_AMS_1956-57_33k_ES_PAN_21mic_H50_0316_fot_31B-36865_E_tif
  70
32
  10
484340.000
  20
4640650.000
  30
1171.06
  0
VERTEX
  8
PNOA-H_AMS_1956-57_33k_ES_PAN_21mic_H50_0316_fot_31B-36865_E_tif
  70
32
  10
484350.000
  20
4640650.000
  30
1171.06
  0
VERTEX
  8
PNOA-H_AMS_1956-57_33k_ES_PAN_21mic_H50_0316_fot_31B-36865_E_tif
  70
32
  10
484350.000
  20
4643066.150
  30
1182.744
  0
VERTEX
  8
PNOA-H_AMS_1956-57_33k_ES_PAN_21mic_H50_0316_fot_31B-36865_E_tif
  70
32
  10
484350.000
  20
4643066.627
  30
1182.746
  0
VERTEX
  8
PNOA-H_AMS_1956-57_33k_ES_PAN_21mic_H50_0316_fot_31B-36865_E_tif
  70
32
  10
484457.008
  20
4643083.063
  30
1187.322
  0
VERTEX
  8
PNOA-H_AMS_1956-57_33k_ES_PAN_21mic_H50_0316_fot_31B-36865_E_tif
  70
32
  10
484457.007
  20
4643082.595
  30
0
  0
VERTEX
  8
PNOA-H_AMS_1956-57_33k_ES_PAN_21mic_H50_0316_fot_31B-36865_E_tif
  70
32
  10
484456.507
  20
4642853.957
  30
0
  0
VERTEX
  8
PNOA-H_AMS_1956-57_33k_ES_PAN_21mic_H50_0316_fot_31B-36865_E_tif
  70
32
  10
484451.449
  20
4640540.884
  30
0
  0
VERTEX
  8
PNOA-H_AMS_1956-57_33k_ES_PAN_21mic_H50_0316_fot_31B-36865_E_tif
  70
32
  10
484447.029
  20
4638518.720
  30
0
  0
VERTEX
  8
PNOA-H_AMS_1956-57_33k_ES_PAN_21mic_H50_0316_fot_31B-36865_E_tif
  70
32
  10
484447.028
  20
4638518.217
  30
1110.904
  0
SEQEND
  8
PNOA-H_AMS_1956-57_33k_ES_PAN_21mic_H50_0316_fot_31B-36865_E_tif
  0
ENDSEC
  0
EOF
