  0
SECTION
  2
HEADER
  9
$ACADVER
  1
AC1009
  9
$LUNITS
  70
2
  9
$LIMMIN
  10
429075.334
  20
4631402.768
  9
$LIMMAX
  10
456865.787
  20
4650129.089
  9
$EXTMIN
  10
429075.334
  20
4631402.768
  9
$EXTMAX
  10
456865.787
  20
4650129.089
  999
Created by Global Mapper
  999
Projection: UTM
  999
Datum: ETRS89
  999
Ground Units: meters
  999
ZONE: 30
  0
ENDSEC
  0
SECTION
  2
TABLES
  0
ENDSEC
  0
SECTION
  2
BLOCKS
  0
BLOCK
  8
FeatureAttribs
  70
0
  2
FEATURE
  3
FEATURE
  10
0.00000000
  20
0.00000000
  0
ATTDEF
  8
FeatureAttribs
  70
0
  1
 
  2
NAME
  3
NAME
  10
0.00000000
  20
0.00000000
  40
1.00000000
  0
ENDBLK
  0
ENDSEC
  0
SECTION
  2
ENTITIES
  0
INSERT
  8
FeatureAttribs
  2
FEATURE
  41
1
  42
1
  43
1
  50
0
  10
442281.469
  20
4641996.740
 66
1
  0
ATTRIB
  8
FeatureAttribs
 70
0
  1
PNOA-H_AMS_1956-57_33k_ES_PAN_2
  2
NAME
  10
442281.469
  20
4641996.740
 40
33.51096
  0
SEQEND
  0
POLYLINE
  8
Unknown_Area_Type
  70
1
  66
1
  0
VERTEX
  8
Unknown_Area_Type
  10
441020.000
  20
4643473.500
  0
VERTEX
  8
Unknown_Area_Type
  10
443655.000
  20
4643270.500
  0
VERTEX
  8
Unknown_Area_Type
  10
442803.000
  20
4639316.500
  0
VERTEX
  8
Unknown_Area_Type
  10
440734.500
  20
4642680.500
  0
VERTEX
  8
Unknown_Area_Type
  10
440736.500
  20
4643300.000
  0
VERTEX
  8
Unknown_Area_Type
  10
441019.000
  20
4643473.000
  0
VERTEX
  8
Unknown_Area_Type
  10
441020.000
  20
4643473.500
  0
SEQEND
  8
Unknown_Area_Type
  0
INSERT
  8
FeatureAttribs
  2
FEATURE
  41
1
  42
1
  43
1
  50
0
  10
442281.469
  20
4641996.740
 66
1
  0
ATTRIB
  8
FeatureAttribs
 70
0
  1
PNOA-H_AMS_1956-57_33k_ES_PAN_2
  2
NAME
  10
442281.469
  20
4641996.740
 40
33.51096
  0
SEQEND
  0
POLYLINE
  8
Unknown_Area_Type
  70
1
  66
1
  0
VERTEX
  8
Unknown_Area_Type
  10
441020.000
  20
4643473.500
  0
VERTEX
  8
Unknown_Area_Type
  10
441019.000
  20
4643473.000
  0
VERTEX
  8
Unknown_Area_Type
  10
440736.500
  20
4643300.000
  0
VERTEX
  8
Unknown_Area_Type
  10
440734.500
  20
4642680.500
  0
VERTEX
  8
Unknown_Area_Type
  10
442803.000
  20
4639316.500
  0
VERTEX
  8
Unknown_Area_Type
  10
443655.000
  20
4643270.500
  0
VERTEX
  8
Unknown_Area_Type
  10
441020.000
  20
4643473.500
  0
SEQEND
  8
Unknown_Area_Type
  0
INSERT
  8
FeatureAttribs
  2
FEATURE
  41
1
  42
1
  43
1
  50
0
  10
439443.320
  20
4641988.135
 66
1
  0
ATTRIB
  8
FeatureAttribs
 70
0
  1
PNOA-H_AMS_1956-57_33k_ES_PAN_2
  2
NAME
  10
439443.320
  20
4641988.135
 40
33.51096
  0
SEQEND
  0
POLYLINE
  8
Unknown_Area_Type
  70
1
  66
1
  0
VERTEX
  8
Unknown_Area_Type
  10
440123.500
  20
4640008.000
  0
VERTEX
  8
Unknown_Area_Type
  10
439972.000
  20
4639343.500
  0
VERTEX
  8
Unknown_Area_Type
  10
439971.500
  20
4639341.500
  0
VERTEX
  8
Unknown_Area_Type
  10
439970.500
  20
4639341.500
  0
VERTEX
  8
Unknown_Area_Type
  10
439968.500
  20
4639344.500
  0
VERTEX
  8
Unknown_Area_Type
  10
437898.500
  20
4642578.500
  0
VERTEX
  8
Unknown_Area_Type
  10
437904.500
  20
4643446.500
  0
VERTEX
  8
Unknown_Area_Type
  10
440736.500
  20
4643300.000
  0
VERTEX
  8
Unknown_Area_Type
  10
440734.500
  20
4642679.000
  0
VERTEX
  8
Unknown_Area_Type
  10
440124.000
  20
4640010.500
  0
VERTEX
  8
Unknown_Area_Type
  10
440123.500
  20
4640008.000
  0
SEQEND
  8
Unknown_Area_Type
  0
INSERT
  8
FeatureAttribs
  2
FEATURE
  41
1
  42
1
  43
1
  50
0
  10
439443.320
  20
4641988.135
 66
1
  0
ATTRIB
  8
FeatureAttribs
 70
0
  1
PNOA-H_AMS_1956-57_33k_ES_PAN_2
  2
NAME
  10
439443.320
  20
4641988.135
 40
33.51096
  0
SEQEND
  0
POLYLINE
  8
Unknown_Area_Type
  70
1
  66
1
  0
VERTEX
  8
Unknown_Area_Type
  10
440123.500
  20
4640008.000
  0
VERTEX
  8
Unknown_Area_Type
  10
440124.000
  20
4640010.500
  0
VERTEX
  8
Unknown_Area_Type
  10
440734.500
  20
4642679.000
  0
VERTEX
  8
Unknown_Area_Type
  10
440736.500
  20
4643300.000
  0
VERTEX
  8
Unknown_Area_Type
  10
437904.500
  20
4643446.500
  0
VERTEX
  8
Unknown_Area_Type
  10
437898.500
  20
4642578.500
  0
VERTEX
  8
Unknown_Area_Type
  10
439968.500
  20
4639344.500
  0
VERTEX
  8
Unknown_Area_Type
  10
439970.500
  20
4639341.500
  0
VERTEX
  8
Unknown_Area_Type
  10
439971.500
  20
4639341.500
  0
VERTEX
  8
Unknown_Area_Type
  10
439972.000
  20
4639343.500
  0
VERTEX
  8
Unknown_Area_Type
  10
440123.500
  20
4640008.000
  0
SEQEND
  8
Unknown_Area_Type
  0
INSERT
  8
FeatureAttribs
  2
FEATURE
  41
1
  42
1
  43
1
  50
0
  10
445504.100
  20
4641505.963
 66
1
  0
ATTRIB
  8
FeatureAttribs
 70
0
  1
PNOA-H_AMS_1956-57_33k_ES_PAN_2
  2
NAME
  10
445504.100
  20
4641505.963
 40
33.51096
  0
SEQEND
  0
POLYLINE
  8
Unknown_Area_Type
  70
1
  66
1
  0
VERTEX
  8
Unknown_Area_Type
  10
446531.500
  20
4640008.000
  0
VERTEX
  8
Unknown_Area_Type
  10
446482.500
  20
4638753.500
  0
VERTEX
  8
Unknown_Area_Type
  10
445657.500
  20
4638746.500
  0
VERTEX
  8
Unknown_Area_Type
  10
445615.000
  20
4638747.000
  0
VERTEX
  8
Unknown_Area_Type
  10
443662.000
  20
4643271.500
  0
VERTEX
  8
Unknown_Area_Type
  10
443662.000
  20
4643273.500
  0
VERTEX
  8
Unknown_Area_Type
  10
443665.000
  20
4643275.500
  0
VERTEX
  8
Unknown_Area_Type
  10
443943.500
  20
4643444.500
  0
VERTEX
  8
Unknown_Area_Type
  10
446663.000
  20
4643362.000
  0
VERTEX
  8
Unknown_Area_Type
  10
446531.500
  20
4640011.500
  0
VERTEX
  8
Unknown_Area_Type
  10
446531.500
  20
4640008.000
  0
SEQEND
  8
Unknown_Area_Type
  0
INSERT
  8
FeatureAttribs
  2
FEATURE
  41
1
  42
1
  43
1
  50
0
  10
445504.100
  20
4641505.963
 66
1
  0
ATTRIB
  8
FeatureAttribs
 70
0
  1
PNOA-H_AMS_1956-57_33k_ES_PAN_2
  2
NAME
  10
445504.100
  20
4641505.963
 40
33.51096
  0
SEQEND
  0
POLYLINE
  8
Unknown_Area_Type
  70
1
  66
1
  0
VERTEX
  8
Unknown_Area_Type
  10
446531.500
  20
4640008.000
  0
VERTEX
  8
Unknown_Area_Type
  10
446531.500
  20
4640011.500
  0
VERTEX
  8
Unknown_Area_Type
  10
446663.000
  20
4643362.000
  0
VERTEX
  8
Unknown_Area_Type
  10
443943.500
  20
4643444.500
  0
VERTEX
  8
Unknown_Area_Type
  10
443665.000
  20
4643275.500
  0
VERTEX
  8
Unknown_Area_Type
  10
443662.000
  20
4643273.500
  0
VERTEX
  8
Unknown_Area_Type
  10
443662.000
  20
4643271.500
  0
VERTEX
  8
Unknown_Area_Type
  10
445615.000
  20
4638747.000
  0
VERTEX
  8
Unknown_Area_Type
  10
445657.500
  20
4638746.500
  0
VERTEX
  8
Unknown_Area_Type
  10
446482.500
  20
4638753.500
  0
VERTEX
  8
Unknown_Area_Type
  10
446531.500
  20
4640008.000
  0
SEQEND
  8
Unknown_Area_Type
  0
INSERT
  8
FeatureAttribs
  2
FEATURE
  41
1
  42
1
  43
1
  50
0
  10
456127.931
  20
4640560.771
 66
1
  0
ATTRIB
  8
FeatureAttribs
 70
0
  1
PNOA-H_AMS_1956-57_33k_ES_PAN_2
  2
NAME
  10
456127.931
  20
4640560.771
 40
33.51096
  0
SEQEND
  0
POLYLINE
  8
Unknown_Area_Type
  70
1
  66
1
  0
VERTEX
  8
Unknown_Area_Type
  10
456822.850
  20
4642848.791
  0
VERTEX
  8
Unknown_Area_Type
  10
456809.525
  20
4640655.032
  0
VERTEX
  8
Unknown_Area_Type
  10
456795.480
  20
4638341.958
  0
VERTEX
  8
Unknown_Area_Type
  10
456795.365
  20
4638322.926
  0
VERTEX
  8
Unknown_Area_Type
  10
455339.500
  20
4638436.000
  0
VERTEX
  8
Unknown_Area_Type
  10
455547.000
  20
4642834.500
  0
VERTEX
  8
Unknown_Area_Type
  10
455560.500
  20
4642835.500
  0
VERTEX
  8
Unknown_Area_Type
  10
456822.850
  20
4642848.791
  0
SEQEND
  8
Unknown_Area_Type
  0
INSERT
  8
FeatureAttribs
  2
FEATURE
  41
1
  42
1
  43
1
  50
0
  10
456127.931
  20
4640560.771
 66
1
  0
ATTRIB
  8
FeatureAttribs
 70
0
  1
PNOA-H_AMS_1956-57_33k_ES_PAN_2
  2
NAME
  10
456127.931
  20
4640560.771
 40
33.51096
  0
SEQEND
  0
POLYLINE
  8
Unknown_Area_Type
  70
1
  66
1
  0
VERTEX
  8
Unknown_Area_Type
  10
456822.850
  20
4642848.791
  0
VERTEX
  8
Unknown_Area_Type
  10
455560.500
  20
4642835.500
  0
VERTEX
  8
Unknown_Area_Type
  10
455547.000
  20
4642834.500
  0
VERTEX
  8
Unknown_Area_Type
  10
455339.500
  20
4638436.000
  0
VERTEX
  8
Unknown_Area_Type
  10
456795.365
  20
4638322.926
  0
VERTEX
  8
Unknown_Area_Type
  10
456795.480
  20
4638341.958
  0
VERTEX
  8
Unknown_Area_Type
  10
456809.525
  20
4640655.032
  0
VERTEX
  8
Unknown_Area_Type
  10
456822.850
  20
4642848.791
  0
SEQEND
  8
Unknown_Area_Type
  0
INSERT
  8
FeatureAttribs
  2
FEATURE
  41
1
  42
1
  43
1
  50
0
  10
448049.602
  20
4641008.748
 66
1
  0
ATTRIB
  8
FeatureAttribs
 70
0
  1
PNOA-H_AMS_1956-57_33k_ES_PAN_2
  2
NAME
  10
448049.602
  20
4641008.748
 40
33.51096
  0
SEQEND
  0
POLYLINE
  8
Unknown_Area_Type
  70
1
  66
1
  0
VERTEX
  8
Unknown_Area_Type
  10
448146.000
  20
4643408.000
  0
VERTEX
  8
Unknown_Area_Type
  10
449626.000
  20
4643389.500
  0
VERTEX
  8
Unknown_Area_Type
  10
449420.000
  20
4638577.000
  0
VERTEX
  8
Unknown_Area_Type
  10
446697.000
  20
4638621.500
  0
VERTEX
  8
Unknown_Area_Type
  10
446482.500
  20
4638753.500
  0
VERTEX
  8
Unknown_Area_Type
  10
446662.500
  20
4643361.000
  0
VERTEX
  8
Unknown_Area_Type
  10
446666.500
  20
4643364.500
  0
VERTEX
  8
Unknown_Area_Type
  10
446765.000
  20
4643425.500
  0
VERTEX
  8
Unknown_Area_Type
  10
448133.500
  20
4643408.000
  0
VERTEX
  8
Unknown_Area_Type
  10
448146.000
  20
4643408.000
  0
SEQEND
  8
Unknown_Area_Type
  0
INSERT
  8
FeatureAttribs
  2
FEATURE
  41
1
  42
1
  43
1
  50
0
  10
448049.602
  20
4641008.748
 66
1
  0
ATTRIB
  8
FeatureAttribs
 70
0
  1
PNOA-H_AMS_1956-57_33k_ES_PAN_2
  2
NAME
  10
448049.602
  20
4641008.748
 40
33.51096
  0
SEQEND
  0
POLYLINE
  8
Unknown_Area_Type
  70
1
  66
1
  0
VERTEX
  8
Unknown_Area_Type
  10
448146.000
  20
4643408.000
  0
VERTEX
  8
Unknown_Area_Type
  10
448133.500
  20
4643408.000
  0
VERTEX
  8
Unknown_Area_Type
  10
446765.000
  20
4643425.500
  0
VERTEX
  8
Unknown_Area_Type
  10
446666.500
  20
4643364.500
  0
VERTEX
  8
Unknown_Area_Type
  10
446662.500
  20
4643361.000
  0
VERTEX
  8
Unknown_Area_Type
  10
446482.500
  20
4638753.500
  0
VERTEX
  8
Unknown_Area_Type
  10
446697.000
  20
4638621.500
  0
VERTEX
  8
Unknown_Area_Type
  10
449420.000
  20
4638577.000
  0
VERTEX
  8
Unknown_Area_Type
  10
449626.000
  20
4643389.500
  0
VERTEX
  8
Unknown_Area_Type
  10
448146.000
  20
4643408.000
  0
SEQEND
  8
Unknown_Area_Type
  0
INSERT
  8
FeatureAttribs
  2
FEATURE
  41
1
  42
1
  43
1
  50
0
  10
453964.984
  20
4640838.649
 66
1
  0
ATTRIB
  8
FeatureAttribs
 70
0
  1
PNOA-H_AMS_1956-57_33k_ES_PAN_2
  2
NAME
  10
453964.984
  20
4640838.649
 40
33.51096
  0
SEQEND
  0
POLYLINE
  8
Unknown_Area_Type
  70
1
  66
1
  0
VERTEX
  8
Unknown_Area_Type
  10
452593.500
  20
4643332.500
  0
VERTEX
  8
Unknown_Area_Type
  10
454459.500
  20
4643337.500
  0
VERTEX
  8
Unknown_Area_Type
  10
454664.000
  20
4643338.000
  0
VERTEX
  8
Unknown_Area_Type
  10
454806.000
  20
4643338.000
  0
VERTEX
  8
Unknown_Area_Type
  10
455547.500
  20
4642835.000
  0
VERTEX
  8
Unknown_Area_Type
  10
455340.000
  20
4638437.000
  0
VERTEX
  8
Unknown_Area_Type
  10
455333.500
  20
4638432.500
  0
VERTEX
  8
Unknown_Area_Type
  10
455109.000
  20
4638316.000
  0
VERTEX
  8
Unknown_Area_Type
  10
452401.500
  20
4638471.500
  0
VERTEX
  8
Unknown_Area_Type
  10
452593.500
  20
4643332.500
  0
SEQEND
  8
Unknown_Area_Type
  0
INSERT
  8
FeatureAttribs
  2
FEATURE
  41
1
  42
1
  43
1
  50
0
  10
453964.984
  20
4640838.649
 66
1
  0
ATTRIB
  8
FeatureAttribs
 70
0
  1
PNOA-H_AMS_1956-57_33k_ES_PAN_2
  2
NAME
  10
453964.984
  20
4640838.649
 40
33.51096
  0
SEQEND
  0
POLYLINE
  8
Unknown_Area_Type
  70
1
  66
1
  0
VERTEX
  8
Unknown_Area_Type
  10
452593.500
  20
4643332.500
  0
VERTEX
  8
Unknown_Area_Type
  10
452401.500
  20
4638471.500
  0
VERTEX
  8
Unknown_Area_Type
  10
455109.000
  20
4638316.000
  0
VERTEX
  8
Unknown_Area_Type
  10
455333.500
  20
4638432.500
  0
VERTEX
  8
Unknown_Area_Type
  10
455340.000
  20
4638437.000
  0
VERTEX
  8
Unknown_Area_Type
  10
455547.500
  20
4642835.000
  0
VERTEX
  8
Unknown_Area_Type
  10
454806.000
  20
4643338.000
  0
VERTEX
  8
Unknown_Area_Type
  10
454664.000
  20
4643338.000
  0
VERTEX
  8
Unknown_Area_Type
  10
454459.500
  20
4643337.500
  0
VERTEX
  8
Unknown_Area_Type
  10
452593.500
  20
4643332.500
  0
SEQEND
  8
Unknown_Area_Type
  0
INSERT
  8
FeatureAttribs
  2
FEATURE
  41
1
  42
1
  43
1
  50
0
  10
451011.765
  20
4640923.886
 66
1
  0
ATTRIB
  8
FeatureAttribs
 70
0
  1
PNOA-H_AMS_1956-57_33k_ES_PAN_2
  2
NAME
  10
451011.765
  20
4640923.886
 40
33.51096
  0
SEQEND
  0
POLYLINE
  8
Unknown_Area_Type
  70
1
  66
1
  0
VERTEX
  8
Unknown_Area_Type
  10
449631.500
  20
4643393.000
  0
VERTEX
  8
Unknown_Area_Type
  10
452533.000
  20
4643370.000
  0
VERTEX
  8
Unknown_Area_Type
  10
452593.500
  20
4643333.000
  0
VERTEX
  8
Unknown_Area_Type
  10
452402.000
  20
4638474.000
  0
VERTEX
  8
Unknown_Area_Type
  10
452401.500
  20
4638471.000
  0
VERTEX
  8
Unknown_Area_Type
  10
452347.000
  20
4638441.000
  0
VERTEX
  8
Unknown_Area_Type
  10
452343.000
  20
4638439.000
  0
VERTEX
  8
Unknown_Area_Type
  10
452319.500
  20
4638439.000
  0
VERTEX
  8
Unknown_Area_Type
  10
449544.000
  20
4638499.000
  0
VERTEX
  8
Unknown_Area_Type
  10
449420.000
  20
4638576.500
  0
VERTEX
  8
Unknown_Area_Type
  10
449625.500
  20
4643387.500
  0
VERTEX
  8
Unknown_Area_Type
  10
449626.000
  20
4643389.500
  0
VERTEX
  8
Unknown_Area_Type
  10
449630.500
  20
4643392.500
  0
VERTEX
  8
Unknown_Area_Type
  10
449631.500
  20
4643393.000
  0
SEQEND
  8
Unknown_Area_Type
  0
INSERT
  8
FeatureAttribs
  2
FEATURE
  41
1
  42
1
  43
1
  50
0
  10
451011.765
  20
4640923.886
 66
1
  0
ATTRIB
  8
FeatureAttribs
 70
0
  1
PNOA-H_AMS_1956-57_33k_ES_PAN_2
  2
NAME
  10
451011.765
  20
4640923.886
 40
33.51096
  0
SEQEND
  0
POLYLINE
  8
Unknown_Area_Type
  70
1
  66
1
  0
VERTEX
  8
Unknown_Area_Type
  10
449631.500
  20
4643393.000
  0
VERTEX
  8
Unknown_Area_Type
  10
449630.500
  20
4643392.500
  0
VERTEX
  8
Unknown_Area_Type
  10
449626.000
  20
4643389.500
  0
VERTEX
  8
Unknown_Area_Type
  10
449625.500
  20
4643387.500
  0
VERTEX
  8
Unknown_Area_Type
  10
449420.000
  20
4638576.500
  0
VERTEX
  8
Unknown_Area_Type
  10
449544.000
  20
4638499.000
  0
VERTEX
  8
Unknown_Area_Type
  10
452319.500
  20
4638439.000
  0
VERTEX
  8
Unknown_Area_Type
  10
452343.000
  20
4638439.000
  0
VERTEX
  8
Unknown_Area_Type
  10
452347.000
  20
4638441.000
  0
VERTEX
  8
Unknown_Area_Type
  10
452401.500
  20
4638471.000
  0
VERTEX
  8
Unknown_Area_Type
  10
452402.000
  20
4638474.000
  0
VERTEX
  8
Unknown_Area_Type
  10
452593.500
  20
4643333.000
  0
VERTEX
  8
Unknown_Area_Type
  10
452533.000
  20
4643370.000
  0
VERTEX
  8
Unknown_Area_Type
  10
449631.500
  20
4643393.000
  0
SEQEND
  8
Unknown_Area_Type
  0
INSERT
  8
FeatureAttribs
  2
FEATURE
  41
1
  42
1
  43
1
  50
0
  10
455830.708
  20
4649984.779
 66
1
  0
ATTRIB
  8
FeatureAttribs
 70
0
  1
PNOA-H_AMS_1956-57_33k_ES_PAN_2
  2
NAME
  10
455830.708
  20
4649984.779
 40
33.51096
  0
SEQEND
  0
POLYLINE
  8
Unknown_Area_Type
  70
1
  66
1
  0
VERTEX
  8
Unknown_Area_Type
  10
456526.170
  20
4649909.559
  0
VERTEX
  8
Unknown_Area_Type
  10
455153.243
  20
4649918.244
  0
VERTEX
  8
Unknown_Area_Type
  10
455094.029
  20
4650060.000
  0
VERTEX
  8
Unknown_Area_Type
  10
456545.763
  20
4650060.000
  0
VERTEX
  8
Unknown_Area_Type
  10
456526.170
  20
4649909.559
  0
SEQEND
  8
Unknown_Area_Type
  0
INSERT
  8
FeatureAttribs
  2
FEATURE
  41
1
  42
1
  43
1
  50
0
  10
455951.763
  20
4649134.510
 66
1
  0
ATTRIB
  8
FeatureAttribs
 70
0
  1
PNOA-H_AMS_1956-57_33k_ES_PAN_2
  2
NAME
  10
455951.763
  20
4649134.510
 40
33.51096
  0
SEQEND
  0
POLYLINE
  8
Unknown_Area_Type
  70
1
  66
1
  0
VERTEX
  8
Unknown_Area_Type
  10
456526.170
  20
4649909.559
  0
VERTEX
  8
Unknown_Area_Type
  10
456272.000
  20
4647958.000
  0
VERTEX
  8
Unknown_Area_Type
  10
456271.000
  20
4647955.000
  0
VERTEX
  8
Unknown_Area_Type
  10
456010.500
  20
4647866.000
  0
VERTEX
  8
Unknown_Area_Type
  10
455153.243
  20
4649918.244
  0
VERTEX
  8
Unknown_Area_Type
  10
456526.170
  20
4649909.559
  0
SEQEND
  8
Unknown_Area_Type
  0
INSERT
  8
FeatureAttribs
  2
FEATURE
  41
1
  42
1
  43
1
  50
0
  10
455951.763
  20
4649134.510
 66
1
  0
ATTRIB
  8
FeatureAttribs
 70
0
  1
PNOA-H_AMS_1956-57_33k_ES_PAN_2
  2
NAME
  10
455951.763
  20
4649134.510
 40
33.51096
  0
SEQEND
  0
POLYLINE
  8
Unknown_Area_Type
  70
1
  66
1
  0
VERTEX
  8
Unknown_Area_Type
  10
456526.170
  20
4649909.559
  0
VERTEX
  8
Unknown_Area_Type
  10
455153.243
  20
4649918.244
  0
VERTEX
  8
Unknown_Area_Type
  10
456010.500
  20
4647866.000
  0
VERTEX
  8
Unknown_Area_Type
  10
456271.000
  20
4647955.000
  0
VERTEX
  8
Unknown_Area_Type
  10
456272.000
  20
4647958.000
  0
VERTEX
  8
Unknown_Area_Type
  10
456526.170
  20
4649909.559
  0
SEQEND
  8
Unknown_Area_Type
  0
INSERT
  8
FeatureAttribs
  2
FEATURE
  41
1
  42
1
  43
1
  50
0
  10
429259.211
  20
4650129.080
 66
1
  0
ATTRIB
  8
FeatureAttribs
 70
0
  1
PNOA-H_AMS_1956-57_33k_ES_PAN_2
  2
NAME
  10
429259.211
  20
4650129.080
 40
33.51096
  0
SEQEND
  0
POLYLINE
  8
Unknown_Area_Type
  70
1
  66
1
  0
VERTEX
  8
Unknown_Area_Type
  10
429259.669
  20
4650129.089
  0
VERTEX
  8
Unknown_Area_Type
  10
429259.669
  20
4650129.071
  0
VERTEX
  8
Unknown_Area_Type
  10
429257.837
  20
4650129.089
  0
VERTEX
  8
Unknown_Area_Type
  10
429259.669
  20
4650129.089
  0
SEQEND
  8
Unknown_Area_Type
  0
INSERT
  8
FeatureAttribs
  2
FEATURE
  41
1
  42
1
  43
1
  50
0
  10
429881.904
  20
4650125.040
 66
1
  0
ATTRIB
  8
FeatureAttribs
 70
0
  1
PNOA-H_AMS_1956-57_33k_ES_PAN_2
  2
NAME
  10
429881.904
  20
4650125.040
 40
33.51096
  0
SEQEND
  0
POLYLINE
  8
Unknown_Area_Type
  70
1
  66
1
  0
VERTEX
  8
Unknown_Area_Type
  10
430089.950
  20
4650129.089
  0
VERTEX
  8
Unknown_Area_Type
  10
430089.959
  20
4650120.990
  0
VERTEX
  8
Unknown_Area_Type
  10
429259.669
  20
4650129.071
  0
VERTEX
  8
Unknown_Area_Type
  10
429259.669
  20
4650129.089
  0
VERTEX
  8
Unknown_Area_Type
  10
430089.950
  20
4650129.089
  0
SEQEND
  8
Unknown_Area_Type
  0
INSERT
  8
FeatureAttribs
  2
FEATURE
  41
1
  42
1
  43
1
  50
0
  10
429161.673
  20
4648960.295
 66
1
  0
ATTRIB
  8
FeatureAttribs
 70
0
  1
PNOA-H_AMS_1956-57_33k_ES_PAN_2
  2
NAME
  10
429161.673
  20
4648960.295
 40
33.51096
  0
SEQEND
  0
POLYLINE
  8
Unknown_Area_Type
  70
1
  66
1
  0
VERTEX
  8
Unknown_Area_Type
  10
429236.982
  20
4647854.499
  0
VERTEX
  8
Unknown_Area_Type
  10
429102.500
  20
4647793.000
  0
VERTEX
  8
Unknown_Area_Type
  10
429096.000
  20
4647791.500
  0
VERTEX
  8
Unknown_Area_Type
  10
429075.334
  20
4647796.777
  0
VERTEX
  8
Unknown_Area_Type
  10
429075.334
  20
4650129.089
  0
VERTEX
  8
Unknown_Area_Type
  10
429257.837
  20
4650129.089
  0
VERTEX
  8
Unknown_Area_Type
  10
429259.669
  20
4650129.071
  0
VERTEX
  8
Unknown_Area_Type
  10
429236.982
  20
4647854.499
  0
SEQEND
  8
Unknown_Area_Type
  0
INSERT
  8
FeatureAttribs
  2
FEATURE
  41
1
  42
1
  43
1
  50
0
  10
429656.310
  20
4649079.791
 66
1
  0
ATTRIB
  8
FeatureAttribs
 70
0
  1
PNOA-H_AMS_1956-57_33k_ES_PAN_2
  2
NAME
  10
429656.310
  20
4649079.791
 40
33.51096
  0
SEQEND
  0
POLYLINE
  8
Unknown_Area_Type
  70
1
  66
1
  0
VERTEX
  8
Unknown_Area_Type
  10
430089.959
  20
4650120.990
  0
VERTEX
  8
Unknown_Area_Type
  10
430092.000
  20
4648245.000
  0
VERTEX
  8
Unknown_Area_Type
  10
429993.500
  20
4648200.000
  0
VERTEX
  8
Unknown_Area_Type
  10
429992.500
  20
4648200.000
  0
VERTEX
  8
Unknown_Area_Type
  10
429236.982
  20
4647854.499
  0
VERTEX
  8
Unknown_Area_Type
  10
429259.669
  20
4650129.071
  0
VERTEX
  8
Unknown_Area_Type
  10
430089.959
  20
4650120.990
  0
SEQEND
  8
Unknown_Area_Type
  0
INSERT
  8
FeatureAttribs
  2
FEATURE
  41
1
  42
1
  43
1
  50
0
  10
429656.310
  20
4649079.791
 66
1
  0
ATTRIB
  8
FeatureAttribs
 70
0
  1
PNOA-H_AMS_1956-57_33k_ES_PAN_2
  2
NAME
  10
429656.310
  20
4649079.791
 40
33.51096
  0
SEQEND
  0
POLYLINE
  8
Unknown_Area_Type
  70
1
  66
1
  0
VERTEX
  8
Unknown_Area_Type
  10
430089.959
  20
4650120.990
  0
VERTEX
  8
Unknown_Area_Type
  10
429259.669
  20
4650129.071
  0
VERTEX
  8
Unknown_Area_Type
  10
429236.982
  20
4647854.499
  0
VERTEX
  8
Unknown_Area_Type
  10
429992.500
  20
4648200.000
  0
VERTEX
  8
Unknown_Area_Type
  10
429993.500
  20
4648200.000
  0
VERTEX
  8
Unknown_Area_Type
  10
430092.000
  20
4648245.000
  0
VERTEX
  8
Unknown_Area_Type
  10
430089.959
  20
4650120.990
  0
SEQEND
  8
Unknown_Area_Type
  0
INSERT
  8
FeatureAttribs
  2
FEATURE
  41
1
  42
1
  43
1
  50
0
  10
452445.726
  20
4649993.651
 66
1
  0
ATTRIB
  8
FeatureAttribs
 70
0
  1
PNOA-H_AMS_1956-57_33k_ES_PAN_2
  2
NAME
  10
452445.726
  20
4649993.651
 40
33.51096
  0
SEQEND
  0
POLYLINE
  8
Unknown_Area_Type
  70
1
  66
1
  0
VERTEX
  8
Unknown_Area_Type
  10
453721.289
  20
4649927.302
  0
VERTEX
  8
Unknown_Area_Type
  10
453415.008
  20
4649929.240
  0
VERTEX
  8
Unknown_Area_Type
  10
451162.023
  20
4649944.589
  0
VERTEX
  8
Unknown_Area_Type
  10
451162.496
  20
4650060.000
  0
VERTEX
  8
Unknown_Area_Type
  10
453737.167
  20
4650060.000
  0
VERTEX
  8
Unknown_Area_Type
  10
453721.289
  20
4649927.302
  0
SEQEND
  8
Unknown_Area_Type
  0
INSERT
  8
FeatureAttribs
  2
FEATURE
  41
1
  42
1
  43
1
  50
0
  10
452400.553
  20
4648955.820
 66
1
  0
ATTRIB
  8
FeatureAttribs
 70
0
  1
PNOA-H_AMS_1956-57_33k_ES_PAN_2
  2
NAME
  10
452400.553
  20
4648955.820
 40
33.51096
  0
SEQEND
  0
POLYLINE
  8
Unknown_Area_Type
  70
1
  66
1
  0
VERTEX
  8
Unknown_Area_Type
  10
453721.289
  20
4649927.302
  0
VERTEX
  8
Unknown_Area_Type
  10
453499.000
  20
4648069.500
  0
VERTEX
  8
Unknown_Area_Type
  10
452493.000
  20
4647744.500
  0
VERTEX
  8
Unknown_Area_Type
  10
451155.000
  20
4648231.000
  0
VERTEX
  8
Unknown_Area_Type
  10
451162.023
  20
4649944.589
  0
VERTEX
  8
Unknown_Area_Type
  10
453415.008
  20
4649929.240
  0
VERTEX
  8
Unknown_Area_Type
  10
453721.289
  20
4649927.302
  0
SEQEND
  8
Unknown_Area_Type
  0
INSERT
  8
FeatureAttribs
  2
FEATURE
  41
1
  42
1
  43
1
  50
0
  10
452400.553
  20
4648955.820
 66
1
  0
ATTRIB
  8
FeatureAttribs
 70
0
  1
PNOA-H_AMS_1956-57_33k_ES_PAN_2
  2
NAME
  10
452400.553
  20
4648955.820
 40
33.51096
  0
SEQEND
  0
POLYLINE
  8
Unknown_Area_Type
  70
1
  66
1
  0
VERTEX
  8
Unknown_Area_Type
  10
453721.289
  20
4649927.302
  0
VERTEX
  8
Unknown_Area_Type
  10
453415.008
  20
4649929.240
  0
VERTEX
  8
Unknown_Area_Type
  10
451162.023
  20
4649944.589
  0
VERTEX
  8
Unknown_Area_Type
  10
451155.000
  20
4648231.000
  0
VERTEX
  8
Unknown_Area_Type
  10
452493.000
  20
4647744.500
  0
VERTEX
  8
Unknown_Area_Type
  10
453499.000
  20
4648069.500
  0
VERTEX
  8
Unknown_Area_Type
  10
453721.289
  20
4649927.302
  0
SEQEND
  8
Unknown_Area_Type
  0
INSERT
  8
FeatureAttribs
  2
FEATURE
  41
1
  42
1
  43
1
  50
0
  10
429109.669
  20
4638523.186
 66
1
  0
ATTRIB
  8
FeatureAttribs
 70
0
  1
PNOA-H_AMS_1956-57_33k_ES_PAN_2
  2
NAME
  10
429109.669
  20
4638523.186
 40
33.51096
  0
SEQEND
  0
POLYLINE
  8
Unknown_Area_Type
  70
1
  66
1
  0
VERTEX
  8
Unknown_Area_Type
  10
429149.416
  20
4639066.669
  0
VERTEX
  8
Unknown_Area_Type
  10
429144.406
  20
4638563.531
  0
VERTEX
  8
Unknown_Area_Type
  10
429138.456
  20
4637965.778
  0
VERTEX
  8
Unknown_Area_Type
  10
429075.334
  20
4637923.691
  0
VERTEX
  8
Unknown_Area_Type
  10
429075.334
  20
4639122.680
  0
VERTEX
  8
Unknown_Area_Type
  10
429149.416
  20
4639066.669
  0
SEQEND
  8
Unknown_Area_Type
  0
INSERT
  8
FeatureAttribs
  2
FEATURE
  41
1
  42
1
  43
1
  50
0
  10
429300.466
  20
4638515.567
 66
1
  0
ATTRIB
  8
FeatureAttribs
 70
0
  1
PNOA-H_AMS_1956-57_33k_ES_PAN_2
  2
NAME
  10
429300.466
  20
4638515.567
 40
33.51096
  0
SEQEND
  0
POLYLINE
  8
Unknown_Area_Type
  70
1
  66
1
  0
VERTEX
  8
Unknown_Area_Type
  10
429149.416
  20
4639066.669
  0
VERTEX
  8
Unknown_Area_Type
  10
429518.000
  20
4638788.000
  0
VERTEX
  8
Unknown_Area_Type
  10
429459.000
  20
4638179.500
  0
VERTEX
  8
Unknown_Area_Type
  10
429138.456
  20
4637965.778
  0
VERTEX
  8
Unknown_Area_Type
  10
429144.406
  20
4638563.531
  0
VERTEX
  8
Unknown_Area_Type
  10
429149.416
  20
4639066.669
  0
SEQEND
  8
Unknown_Area_Type
  0
INSERT
  8
FeatureAttribs
  2
FEATURE
  41
1
  42
1
  43
1
  50
0
  10
429300.466
  20
4638515.567
 66
1
  0
ATTRIB
  8
FeatureAttribs
 70
0
  1
PNOA-H_AMS_1956-57_33k_ES_PAN_2
  2
NAME
  10
429300.466
  20
4638515.567
 40
33.51096
  0
SEQEND
  0
POLYLINE
  8
Unknown_Area_Type
  70
1
  66
1
  0
VERTEX
  8
Unknown_Area_Type
  10
429149.416
  20
4639066.669
  0
VERTEX
  8
Unknown_Area_Type
  10
429144.406
  20
4638563.531
  0
VERTEX
  8
Unknown_Area_Type
  10
429138.456
  20
4637965.778
  0
VERTEX
  8
Unknown_Area_Type
  10
429459.000
  20
4638179.500
  0
VERTEX
  8
Unknown_Area_Type
  10
429518.000
  20
4638788.000
  0
VERTEX
  8
Unknown_Area_Type
  10
429149.416
  20
4639066.669
  0
SEQEND
  8
Unknown_Area_Type
  0
INSERT
  8
FeatureAttribs
  2
FEATURE
  41
1
  42
1
  43
1
  50
0
  10
449683.813
  20
4650027.294
 66
1
  0
ATTRIB
  8
FeatureAttribs
 70
0
  1
PNOA-H_AMS_1956-57_33k_ES_PAN_2
  2
NAME
  10
449683.813
  20
4650027.294
 40
33.51096
  0
SEQEND
  0
POLYLINE
  8
Unknown_Area_Type
  70
1
  66
1
  0
VERTEX
  8
Unknown_Area_Type
  10
451162.023
  20
4649944.589
  0
VERTEX
  8
Unknown_Area_Type
  10
449964.255
  20
4649952.749
  0
VERTEX
  8
Unknown_Area_Type
  10
448205.272
  20
4649965.588
  0
VERTEX
  8
Unknown_Area_Type
  10
448205.253
  20
4650110.000
  0
VERTEX
  8
Unknown_Area_Type
  10
450070.000
  20
4650110.000
  0
VERTEX
  8
Unknown_Area_Type
  10
450070.000
  20
4650060.000
  0
VERTEX
  8
Unknown_Area_Type
  10
451162.496
  20
4650060.000
  0
VERTEX
  8
Unknown_Area_Type
  10
451162.023
  20
4649944.589
  0
SEQEND
  8
Unknown_Area_Type
  0
INSERT
  8
FeatureAttribs
  2
FEATURE
  41
1
  42
1
  43
1
  50
0
  10
449671.427
  20
4648964.927
 66
1
  0
ATTRIB
  8
FeatureAttribs
 70
0
  1
PNOA-H_AMS_1956-57_33k_ES_PAN_2
  2
NAME
  10
449671.427
  20
4648964.927
 40
33.51096
  0
SEQEND
  0
POLYLINE
  8
Unknown_Area_Type
  70
1
  66
1
  0
VERTEX
  8
Unknown_Area_Type
  10
451162.023
  20
4649944.589
  0
VERTEX
  8
Unknown_Area_Type
  10
451155.000
  20
4648231.000
  0
VERTEX
  8
Unknown_Area_Type
  10
449525.500
  20
4647742.000
  0
VERTEX
  8
Unknown_Area_Type
  10
449519.000
  20
4647743.500
  0
VERTEX
  8
Unknown_Area_Type
  10
448205.500
  20
4648220.500
  0
VERTEX
  8
Unknown_Area_Type
  10
448205.272
  20
4649965.588
  0
VERTEX
  8
Unknown_Area_Type
  10
449964.255
  20
4649952.749
  0
VERTEX
  8
Unknown_Area_Type
  10
451162.023
  20
4649944.589
  0
SEQEND
  8
Unknown_Area_Type
  0
INSERT
  8
FeatureAttribs
  2
FEATURE
  41
1
  42
1
  43
1
  50
0
  10
449671.427
  20
4648964.927
 66
1
  0
ATTRIB
  8
FeatureAttribs
 70
0
  1
PNOA-H_AMS_1956-57_33k_ES_PAN_2
  2
NAME
  10
449671.427
  20
4648964.927
 40
33.51096
  0
SEQEND
  0
POLYLINE
  8
Unknown_Area_Type
  70
1
  66
1
  0
VERTEX
  8
Unknown_Area_Type
  10
451162.023
  20
4649944.589
  0
VERTEX
  8
Unknown_Area_Type
  10
449964.255
  20
4649952.749
  0
VERTEX
  8
Unknown_Area_Type
  10
448205.272
  20
4649965.588
  0
VERTEX
  8
Unknown_Area_Type
  10
448205.500
  20
4648220.500
  0
VERTEX
  8
Unknown_Area_Type
  10
449519.000
  20
4647743.500
  0
VERTEX
  8
Unknown_Area_Type
  10
449525.500
  20
4647742.000
  0
VERTEX
  8
Unknown_Area_Type
  10
451155.000
  20
4648231.000
  0
VERTEX
  8
Unknown_Area_Type
  10
451162.023
  20
4649944.589
  0
SEQEND
  8
Unknown_Area_Type
  0
INSERT
  8
FeatureAttribs
  2
FEATURE
  41
1
  42
1
  43
1
  50
0
  10
443688.926
  20
4650058.616
 66
1
  0
ATTRIB
  8
FeatureAttribs
 70
0
  1
PNOA-H_AMS_1956-57_33k_ES_PAN_2
  2
NAME
  10
443688.926
  20
4650058.616
 40
33.51096
  0
SEQEND
  0
POLYLINE
  8
Unknown_Area_Type
  70
1
  66
1
  0
VERTEX
  8
Unknown_Area_Type
  10
443170.000
  20
4650129.089
  0
VERTEX
  8
Unknown_Area_Type
  10
443170.000
  20
4650110.000
  0
VERTEX
  8
Unknown_Area_Type
  10
445201.662
  20
4650110.000
  0
VERTEX
  8
Unknown_Area_Type
  10
445202.857
  20
4649988.142
  0
VERTEX
  8
Unknown_Area_Type
  10
443062.740
  20
4650004.805
  0
VERTEX
  8
Unknown_Area_Type
  10
442176.518
  20
4650012.137
  0
VERTEX
  8
Unknown_Area_Type
  10
442174.422
  20
4650129.089
  0
VERTEX
  8
Unknown_Area_Type
  10
443170.000
  20
4650129.089
  0
SEQEND
  8
Unknown_Area_Type
  0
INSERT
  8
FeatureAttribs
  2
FEATURE
  41
1
  42
1
  43
1
  50
0
  10
443693.509
  20
4648932.855
 66
1
  0
ATTRIB
  8
FeatureAttribs
 70
0
  1
PNOA-H_AMS_1956-57_33k_ES_PAN_2
  2
NAME
  10
443693.509
  20
4648932.855
 40
33.51096
  0
SEQEND
  0
POLYLINE
  8
Unknown_Area_Type
  70
1
  66
1
  0
VERTEX
  8
Unknown_Area_Type
  10
445202.857
  20
4649988.142
  0
VERTEX
  8
Unknown_Area_Type
  10
445221.000
  20
4648138.500
  0
VERTEX
  8
Unknown_Area_Type
  10
443751.500
  20
4647645.500
  0
VERTEX
  8
Unknown_Area_Type
  10
442211.500
  20
4648060.000
  0
VERTEX
  8
Unknown_Area_Type
  10
442176.518
  20
4650012.137
  0
VERTEX
  8
Unknown_Area_Type
  10
443062.740
  20
4650004.805
  0
VERTEX
  8
Unknown_Area_Type
  10
445202.857
  20
4649988.142
  0
SEQEND
  8
Unknown_Area_Type
  0
INSERT
  8
FeatureAttribs
  2
FEATURE
  41
1
  42
1
  43
1
  50
0
  10
443693.509
  20
4648932.855
 66
1
  0
ATTRIB
  8
FeatureAttribs
 70
0
  1
PNOA-H_AMS_1956-57_33k_ES_PAN_2
  2
NAME
  10
443693.509
  20
4648932.855
 40
33.51096
  0
SEQEND
  0
POLYLINE
  8
Unknown_Area_Type
  70
1
  66
1
  0
VERTEX
  8
Unknown_Area_Type
  10
445202.857
  20
4649988.142
  0
VERTEX
  8
Unknown_Area_Type
  10
443062.740
  20
4650004.805
  0
VERTEX
  8
Unknown_Area_Type
  10
442176.518
  20
4650012.137
  0
VERTEX
  8
Unknown_Area_Type
  10
442211.500
  20
4648060.000
  0
VERTEX
  8
Unknown_Area_Type
  10
443751.500
  20
4647645.500
  0
VERTEX
  8
Unknown_Area_Type
  10
445221.000
  20
4648138.500
  0
VERTEX
  8
Unknown_Area_Type
  10
445202.857
  20
4649988.142
  0
SEQEND
  8
Unknown_Area_Type
  0
INSERT
  8
FeatureAttribs
  2
FEATURE
  41
1
  42
1
  43
1
  50
0
  10
432601.590
  20
4640122.028
 66
1
  0
ATTRIB
  8
FeatureAttribs
 70
0
  1
PNOA-H_AMS_1956-57_33k_ES_PAN_2
  2
NAME
  10
432601.590
  20
4640122.028
 40
33.51096
  0
SEQEND
  0
POLYLINE
  8
Unknown_Area_Type
  70
1
  66
1
  0
VERTEX
  8
Unknown_Area_Type
  10
433810.000
  20
4640124.000
  0
VERTEX
  8
Unknown_Area_Type
  10
434204.500
  20
4639655.000
  0
VERTEX
  8
Unknown_Area_Type
  10
434214.500
  20
4639339.500
  0
VERTEX
  8
Unknown_Area_Type
  10
432390.500
  20
4638764.500
  0
VERTEX
  8
Unknown_Area_Type
  10
431289.000
  20
4639502.500
  0
VERTEX
  8
Unknown_Area_Type
  10
431283.000
  20
4639657.500
  0
VERTEX
  8
Unknown_Area_Type
  10
432115.500
  20
4642140.500
  0
VERTEX
  8
Unknown_Area_Type
  10
433809.500
  20
4640125.000
  0
VERTEX
  8
Unknown_Area_Type
  10
433810.000
  20
4640124.000
  0
SEQEND
  8
Unknown_Area_Type
  0
INSERT
  8
FeatureAttribs
  2
FEATURE
  41
1
  42
1
  43
1
  50
0
  10
432601.590
  20
4640122.028
 66
1
  0
ATTRIB
  8
FeatureAttribs
 70
0
  1
PNOA-H_AMS_1956-57_33k_ES_PAN_2
  2
NAME
  10
432601.590
  20
4640122.028
 40
33.51096
  0
SEQEND
  0
POLYLINE
  8
Unknown_Area_Type
  70
1
  66
1
  0
VERTEX
  8
Unknown_Area_Type
  10
433810.000
  20
4640124.000
  0
VERTEX
  8
Unknown_Area_Type
  10
433809.500
  20
4640125.000
  0
VERTEX
  8
Unknown_Area_Type
  10
432115.500
  20
4642140.500
  0
VERTEX
  8
Unknown_Area_Type
  10
431283.000
  20
4639657.500
  0
VERTEX
  8
Unknown_Area_Type
  10
431289.000
  20
4639502.500
  0
VERTEX
  8
Unknown_Area_Type
  10
432390.500
  20
4638764.500
  0
VERTEX
  8
Unknown_Area_Type
  10
434214.500
  20
4639339.500
  0
VERTEX
  8
Unknown_Area_Type
  10
434204.500
  20
4639655.000
  0
VERTEX
  8
Unknown_Area_Type
  10
433810.000
  20
4640124.000
  0
SEQEND
  8
Unknown_Area_Type
  0
INSERT
  8
FeatureAttribs
  2
FEATURE
  41
1
  42
1
  43
1
  50
0
  10
437636.422
  20
4650083.290
 66
1
  0
ATTRIB
  8
FeatureAttribs
 70
0
  1
PNOA-H_AMS_1956-57_33k_ES_PAN_2
  2
NAME
  10
437636.422
  20
4650083.290
 40
33.51096
  0
SEQEND
  0
POLYLINE
  8
Unknown_Area_Type
  70
1
  66
1
  0
VERTEX
  8
Unknown_Area_Type
  10
439140.503
  20
4650129.089
  0
VERTEX
  8
Unknown_Area_Type
  10
439139.641
  20
4650037.490
  0
VERTEX
  8
Unknown_Area_Type
  10
436161.212
  20
4650063.579
  0
VERTEX
  8
Unknown_Area_Type
  10
436132.685
  20
4650063.843
  0
VERTEX
  8
Unknown_Area_Type
  10
436132.980
  20
4650129.089
  0
VERTEX
  8
Unknown_Area_Type
  10
439140.503
  20
4650129.089
  0
SEQEND
  8
Unknown_Area_Type
  0
INSERT
  8
FeatureAttribs
  2
FEATURE
  41
1
  42
1
  43
1
  50
0
  10
437658.771
  20
4648953.817
 66
1
  0
ATTRIB
  8
FeatureAttribs
 70
0
  1
PNOA-H_AMS_1956-57_33k_ES_PAN_2
  2
NAME
  10
437658.771
  20
4648953.817
 40
33.51096
  0
SEQEND
  0
POLYLINE
  8
Unknown_Area_Type
  70
1
  66
1
  0
VERTEX
  8
Unknown_Area_Type
  10
439139.641
  20
4650037.490
  0
VERTEX
  8
Unknown_Area_Type
  10
439122.500
  20
4648217.500
  0
VERTEX
  8
Unknown_Area_Type
  10
439122.500
  20
4648200.000
  0
VERTEX
  8
Unknown_Area_Type
  10
439121.000
  20
4648013.500
  0
VERTEX
  8
Unknown_Area_Type
  10
438175.500
  20
4647626.000
  0
VERTEX
  8
Unknown_Area_Type
  10
436124.000
  20
4648145.500
  0
VERTEX
  8
Unknown_Area_Type
  10
436132.685
  20
4650063.843
  0
VERTEX
  8
Unknown_Area_Type
  10
436161.212
  20
4650063.579
  0
VERTEX
  8
Unknown_Area_Type
  10
439139.641
  20
4650037.490
  0
SEQEND
  8
Unknown_Area_Type
  0
INSERT
  8
FeatureAttribs
  2
FEATURE
  41
1
  42
1
  43
1
  50
0
  10
437658.771
  20
4648953.817
 66
1
  0
ATTRIB
  8
FeatureAttribs
 70
0
  1
PNOA-H_AMS_1956-57_33k_ES_PAN_2
  2
NAME
  10
437658.771
  20
4648953.817
 40
33.51096
  0
SEQEND
  0
POLYLINE
  8
Unknown_Area_Type
  70
1
  66
1
  0
VERTEX
  8
Unknown_Area_Type
  10
439139.641
  20
4650037.490
  0
VERTEX
  8
Unknown_Area_Type
  10
436161.212
  20
4650063.579
  0
VERTEX
  8
Unknown_Area_Type
  10
436132.685
  20
4650063.843
  0
VERTEX
  8
Unknown_Area_Type
  10
436124.000
  20
4648145.500
  0
VERTEX
  8
Unknown_Area_Type
  10
438175.500
  20
4647626.000
  0
VERTEX
  8
Unknown_Area_Type
  10
439121.000
  20
4648013.500
  0
VERTEX
  8
Unknown_Area_Type
  10
439122.500
  20
4648200.000
  0
VERTEX
  8
Unknown_Area_Type
  10
439122.500
  20
4648217.500
  0
VERTEX
  8
Unknown_Area_Type
  10
439139.641
  20
4650037.490
  0
SEQEND
  8
Unknown_Area_Type
  0
INSERT
  8
FeatureAttribs
  2
FEATURE
  41
1
  42
1
  43
1
  50
0
  10
446703.818
  20
4650037.794
 66
1
  0
ATTRIB
  8
FeatureAttribs
 70
0
  1
PNOA-H_AMS_1956-57_33k_ES_PAN_2
  2
NAME
  10
446703.818
  20
4650037.794
 40
33.51096
  0
SEQEND
  0
POLYLINE
  8
Unknown_Area_Type
  70
1
  66
1
  0
VERTEX
  8
Unknown_Area_Type
  10
448205.272
  20
4649965.588
  0
VERTEX
  8
Unknown_Area_Type
  10
446513.499
  20
4649977.937
  0
VERTEX
  8
Unknown_Area_Type
  10
445202.860
  20
4649988.142
  0
VERTEX
  8
Unknown_Area_Type
  10
445201.664
  20
4650110.000
  0
VERTEX
  8
Unknown_Area_Type
  10
448205.253
  20
4650110.000
  0
VERTEX
  8
Unknown_Area_Type
  10
448205.272
  20
4649965.588
  0
SEQEND
  8
Unknown_Area_Type
  0
INSERT
  8
FeatureAttribs
  2
FEATURE
  41
1
  42
1
  43
1
  50
0
  10
446691.525
  20
4648954.648
 66
1
  0
ATTRIB
  8
FeatureAttribs
 70
0
  1
PNOA-H_AMS_1956-57_33k_ES_PAN_2
  2
NAME
  10
446691.525
  20
4648954.648
 40
33.51096
  0
SEQEND
  0
POLYLINE
  8
Unknown_Area_Type
  70
1
  66
1
  0
VERTEX
  8
Unknown_Area_Type
  10
448205.272
  20
4649965.588
  0
VERTEX
  8
Unknown_Area_Type
  10
448205.500
  20
4648221.000
  0
VERTEX
  8
Unknown_Area_Type
  10
446591.000
  20
4647697.500
  0
VERTEX
  8
Unknown_Area_Type
  10
445221.000
  20
4648138.500
  0
VERTEX
  8
Unknown_Area_Type
  10
445202.860
  20
4649988.142
  0
VERTEX
  8
Unknown_Area_Type
  10
446513.499
  20
4649977.937
  0
VERTEX
  8
Unknown_Area_Type
  10
448205.272
  20
4649965.588
  0
SEQEND
  8
Unknown_Area_Type
  0
INSERT
  8
FeatureAttribs
  2
FEATURE
  41
1
  42
1
  43
1
  50
0
  10
446691.525
  20
4648954.648
 66
1
  0
ATTRIB
  8
FeatureAttribs
 70
0
  1
PNOA-H_AMS_1956-57_33k_ES_PAN_2
  2
NAME
  10
446691.525
  20
4648954.648
 40
33.51096
  0
SEQEND
  0
POLYLINE
  8
Unknown_Area_Type
  70
1
  66
1
  0
VERTEX
  8
Unknown_Area_Type
  10
448205.272
  20
4649965.588
  0
VERTEX
  8
Unknown_Area_Type
  10
446513.499
  20
4649977.937
  0
VERTEX
  8
Unknown_Area_Type
  10
445202.860
  20
4649988.142
  0
VERTEX
  8
Unknown_Area_Type
  10
445221.000
  20
4648138.500
  0
VERTEX
  8
Unknown_Area_Type
  10
446591.000
  20
4647697.500
  0
VERTEX
  8
Unknown_Area_Type
  10
448205.500
  20
4648221.000
  0
VERTEX
  8
Unknown_Area_Type
  10
448205.272
  20
4649965.588
  0
SEQEND
  8
Unknown_Area_Type
  0
INSERT
  8
FeatureAttribs
  2
FEATURE
  41
1
  42
1
  43
1
  50
0
  10
435512.558
  20
4640096.981
 66
1
  0
ATTRIB
  8
FeatureAttribs
 70
0
  1
PNOA-H_AMS_1956-57_33k_ES_PAN_2
  2
NAME
  10
435512.558
  20
4640096.981
 40
33.51096
  0
SEQEND
  0
POLYLINE
  8
Unknown_Area_Type
  70
1
  66
1
  0
VERTEX
  8
Unknown_Area_Type
  10
436779.000
  20
4640008.000
  0
VERTEX
  8
Unknown_Area_Type
  10
437106.000
  20
4639584.500
  0
VERTEX
  8
Unknown_Area_Type
  10
437119.000
  20
4639149.000
  0
VERTEX
  8
Unknown_Area_Type
  10
437119.000
  20
4639135.500
  0
VERTEX
  8
Unknown_Area_Type
  10
437117.500
  20
4639135.000
  0
VERTEX
  8
Unknown_Area_Type
  10
435221.000
  20
4638712.500
  0
VERTEX
  8
Unknown_Area_Type
  10
434214.500
  20
4639339.500
  0
VERTEX
  8
Unknown_Area_Type
  10
434204.500
  20
4639656.500
  0
VERTEX
  8
Unknown_Area_Type
  10
435022.500
  20
4642285.000
  0
VERTEX
  8
Unknown_Area_Type
  10
436778.500
  20
4640009.000
  0
VERTEX
  8
Unknown_Area_Type
  10
436779.000
  20
4640008.000
  0
SEQEND
  8
Unknown_Area_Type
  0
INSERT
  8
FeatureAttribs
  2
FEATURE
  41
1
  42
1
  43
1
  50
0
  10
435512.558
  20
4640096.981
 66
1
  0
ATTRIB
  8
FeatureAttribs
 70
0
  1
PNOA-H_AMS_1956-57_33k_ES_PAN_2
  2
NAME
  10
435512.558
  20
4640096.981
 40
33.51096
  0
SEQEND
  0
POLYLINE
  8
Unknown_Area_Type
  70
1
  66
1
  0
VERTEX
  8
Unknown_Area_Type
  10
436779.000
  20
4640008.000
  0
VERTEX
  8
Unknown_Area_Type
  10
436778.500
  20
4640009.000
  0
VERTEX
  8
Unknown_Area_Type
  10
435022.500
  20
4642285.000
  0
VERTEX
  8
Unknown_Area_Type
  10
434204.500
  20
4639656.500
  0
VERTEX
  8
Unknown_Area_Type
  10
434214.500
  20
4639339.500
  0
VERTEX
  8
Unknown_Area_Type
  10
435221.000
  20
4638712.500
  0
VERTEX
  8
Unknown_Area_Type
  10
437117.500
  20
4639135.000
  0
VERTEX
  8
Unknown_Area_Type
  10
437119.000
  20
4639135.500
  0
VERTEX
  8
Unknown_Area_Type
  10
437119.000
  20
4639149.000
  0
VERTEX
  8
Unknown_Area_Type
  10
437106.000
  20
4639584.500
  0
VERTEX
  8
Unknown_Area_Type
  10
436779.000
  20
4640008.000
  0
SEQEND
  8
Unknown_Area_Type
  0
INSERT
  8
FeatureAttribs
  2
FEATURE
  41
1
  42
1
  43
1
  50
0
  10
432140.236
  20
4650110.450
 66
1
  0
ATTRIB
  8
FeatureAttribs
 70
0
  1
PNOA-H_AMS_1956-57_33k_ES_PAN_2
  2
NAME
  10
432140.236
  20
4650110.450
 40
33.51096
  0
SEQEND
  0
POLYLINE
  8
Unknown_Area_Type
  70
1
  66
1
  0
VERTEX
  8
Unknown_Area_Type
  10
433107.561
  20
4650129.089
  0
VERTEX
  8
Unknown_Area_Type
  10
433107.754
  20
4650091.811
  0
VERTEX
  8
Unknown_Area_Type
  10
432710.442
  20
4650095.485
  0
VERTEX
  8
Unknown_Area_Type
  10
430089.959
  20
4650120.990
  0
VERTEX
  8
Unknown_Area_Type
  10
430089.951
  20
4650129.089
  0
VERTEX
  8
Unknown_Area_Type
  10
433107.561
  20
4650129.089
  0
SEQEND
  8
Unknown_Area_Type
  0
INSERT
  8
FeatureAttribs
  2
FEATURE
  41
1
  42
1
  43
1
  50
0
  10
431620.432
  20
4649040.945
 66
1
  0
ATTRIB
  8
FeatureAttribs
 70
0
  1
PNOA-H_AMS_1956-57_33k_ES_PAN_2
  2
NAME
  10
431620.432
  20
4649040.945
 40
33.51096
  0
SEQEND
  0
POLYLINE
  8
Unknown_Area_Type
  70
1
  66
1
  0
VERTEX
  8
Unknown_Area_Type
  10
433107.754
  20
4650091.811
  0
VERTEX
  8
Unknown_Area_Type
  10
433117.500
  20
4648209.000
  0
VERTEX
  8
Unknown_Area_Type
  10
432064.500
  20
4647739.500
  0
VERTEX
  8
Unknown_Area_Type
  10
430092.000
  20
4648245.500
  0
VERTEX
  8
Unknown_Area_Type
  10
430089.959
  20
4650120.990
  0
VERTEX
  8
Unknown_Area_Type
  10
432710.442
  20
4650095.485
  0
VERTEX
  8
Unknown_Area_Type
  10
433107.754
  20
4650091.811
  0
SEQEND
  8
Unknown_Area_Type
  0
INSERT
  8
FeatureAttribs
  2
FEATURE
  41
1
  42
1
  43
1
  50
0
  10
431620.432
  20
4649040.945
 66
1
  0
ATTRIB
  8
FeatureAttribs
 70
0
  1
PNOA-H_AMS_1956-57_33k_ES_PAN_2
  2
NAME
  10
431620.432
  20
4649040.945
 40
33.51096
  0
SEQEND
  0
POLYLINE
  8
Unknown_Area_Type
  70
1
  66
1
  0
VERTEX
  8
Unknown_Area_Type
  10
433107.754
  20
4650091.811
  0
VERTEX
  8
Unknown_Area_Type
  10
432710.442
  20
4650095.485
  0
VERTEX
  8
Unknown_Area_Type
  10
430089.959
  20
4650120.990
  0
VERTEX
  8
Unknown_Area_Type
  10
430092.000
  20
4648245.500
  0
VERTEX
  8
Unknown_Area_Type
  10
432064.500
  20
4647739.500
  0
VERTEX
  8
Unknown_Area_Type
  10
433117.500
  20
4648209.000
  0
VERTEX
  8
Unknown_Area_Type
  10
433107.754
  20
4650091.811
  0
SEQEND
  8
Unknown_Area_Type
  0
INSERT
  8
FeatureAttribs
  2
FEATURE
  41
1
  42
1
  43
1
  50
0
  10
441228.290
  20
4640048.880
 66
1
  0
ATTRIB
  8
FeatureAttribs
 70
0
  1
PNOA-H_AMS_1956-57_33k_ES_PAN_2
  2
NAME
  10
441228.290
  20
4640048.880
 40
33.51096
  0
SEQEND
  0
POLYLINE
  8
Unknown_Area_Type
  70
1
  66
1
  0
VERTEX
  8
Unknown_Area_Type
  10
442377.500
  20
4640008.000
  0
VERTEX
  8
Unknown_Area_Type
  10
442802.500
  20
4639317.500
  0
VERTEX
  8
Unknown_Area_Type
  10
442806.000
  20
4638844.500
  0
VERTEX
  8
Unknown_Area_Type
  10
440946.000
  20
4638494.000
  0
VERTEX
  8
Unknown_Area_Type
  10
439977.500
  20
4638992.500
  0
VERTEX
  8
Unknown_Area_Type
  10
439971.000
  20
4639341.500
  0
VERTEX
  8
Unknown_Area_Type
  10
440734.500
  20
4642680.500
  0
VERTEX
  8
Unknown_Area_Type
  10
442377.000
  20
4640009.500
  0
VERTEX
  8
Unknown_Area_Type
  10
442377.500
  20
4640008.000
  0
SEQEND
  8
Unknown_Area_Type
  0
INSERT
  8
FeatureAttribs
  2
FEATURE
  41
1
  42
1
  43
1
  50
0
  10
441228.290
  20
4640048.880
 66
1
  0
ATTRIB
  8
FeatureAttribs
 70
0
  1
PNOA-H_AMS_1956-57_33k_ES_PAN_2
  2
NAME
  10
441228.290
  20
4640048.880
 40
33.51096
  0
SEQEND
  0
POLYLINE
  8
Unknown_Area_Type
  70
1
  66
1
  0
VERTEX
  8
Unknown_Area_Type
  10
442377.500
  20
4640008.000
  0
VERTEX
  8
Unknown_Area_Type
  10
442377.000
  20
4640009.500
  0
VERTEX
  8
Unknown_Area_Type
  10
440734.500
  20
4642680.500
  0
VERTEX
  8
Unknown_Area_Type
  10
439971.000
  20
4639341.500
  0
VERTEX
  8
Unknown_Area_Type
  10
439977.500
  20
4638992.500
  0
VERTEX
  8
Unknown_Area_Type
  10
440946.000
  20
4638494.000
  0
VERTEX
  8
Unknown_Area_Type
  10
442806.000
  20
4638844.500
  0
VERTEX
  8
Unknown_Area_Type
  10
442802.500
  20
4639317.500
  0
VERTEX
  8
Unknown_Area_Type
  10
442377.500
  20
4640008.000
  0
SEQEND
  8
Unknown_Area_Type
  0
INSERT
  8
FeatureAttribs
  2
FEATURE
  41
1
  42
1
  43
1
  50
0
  10
440657.812
  20
4650070.613
 66
1
  0
ATTRIB
  8
FeatureAttribs
 70
0
  1
PNOA-H_AMS_1956-57_33k_ES_PAN_2
  2
NAME
  10
440657.812
  20
4650070.613
 40
33.51096
  0
SEQEND
  0
POLYLINE
  8
Unknown_Area_Type
  70
1
  66
1
  0
VERTEX
  8
Unknown_Area_Type
  10
442174.418
  20
4650129.089
  0
VERTEX
  8
Unknown_Area_Type
  10
442176.514
  20
4650012.137
  0
VERTEX
  8
Unknown_Area_Type
  10
439611.977
  20
4650033.352
  0
VERTEX
  8
Unknown_Area_Type
  10
439139.850
  20
4650037.488
  0
VERTEX
  8
Unknown_Area_Type
  10
439140.703
  20
4650129.089
  0
VERTEX
  8
Unknown_Area_Type
  10
442174.418
  20
4650129.089
  0
SEQEND
  8
Unknown_Area_Type
  0
INSERT
  8
FeatureAttribs
  2
FEATURE
  41
1
  42
1
  43
1
  50
0
  10
440665.944
  20
4648905.504
 66
1
  0
ATTRIB
  8
FeatureAttribs
 70
0
  1
PNOA-H_AMS_1956-57_33k_ES_PAN_2
  2
NAME
  10
440665.944
  20
4648905.504
 40
33.51096
  0
SEQEND
  0
POLYLINE
  8
Unknown_Area_Type
  70
1
  66
1
  0
VERTEX
  8
Unknown_Area_Type
  10
442176.514
  20
4650012.137
  0
VERTEX
  8
Unknown_Area_Type
  10
442211.500
  20
4648060.000
  0
VERTEX
  8
Unknown_Area_Type
  10
440989.500
  20
4647571.000
  0
VERTEX
  8
Unknown_Area_Type
  10
439121.000
  20
4648013.500
  0
VERTEX
  8
Unknown_Area_Type
  10
439139.850
  20
4650037.488
  0
VERTEX
  8
Unknown_Area_Type
  10
439611.977
  20
4650033.352
  0
VERTEX
  8
Unknown_Area_Type
  10
442176.514
  20
4650012.137
  0
SEQEND
  8
Unknown_Area_Type
  0
INSERT
  8
FeatureAttribs
  2
FEATURE
  41
1
  42
1
  43
1
  50
0
  10
440665.944
  20
4648905.504
 66
1
  0
ATTRIB
  8
FeatureAttribs
 70
0
  1
PNOA-H_AMS_1956-57_33k_ES_PAN_2
  2
NAME
  10
440665.944
  20
4648905.504
 40
33.51096
  0
SEQEND
  0
POLYLINE
  8
Unknown_Area_Type
  70
1
  66
1
  0
VERTEX
  8
Unknown_Area_Type
  10
442176.514
  20
4650012.137
  0
VERTEX
  8
Unknown_Area_Type
  10
439611.977
  20
4650033.352
  0
VERTEX
  8
Unknown_Area_Type
  10
439139.850
  20
4650037.488
  0
VERTEX
  8
Unknown_Area_Type
  10
439121.000
  20
4648013.500
  0
VERTEX
  8
Unknown_Area_Type
  10
440989.500
  20
4647571.000
  0
VERTEX
  8
Unknown_Area_Type
  10
442211.500
  20
4648060.000
  0
VERTEX
  8
Unknown_Area_Type
  10
442176.514
  20
4650012.137
  0
SEQEND
  8
Unknown_Area_Type
  0
INSERT
  8
FeatureAttribs
  2
FEATURE
  41
1
  42
1
  43
1
  50
0
  10
438361.170
  20
4640092.489
 66
1
  0
ATTRIB
  8
FeatureAttribs
 70
0
  1
PNOA-H_AMS_1956-57_33k_ES_PAN_2
  2
NAME
  10
438361.170
  20
4640092.489
 40
33.51096
  0
SEQEND
  0
POLYLINE
  8
Unknown_Area_Type
  70
1
  66
1
  0
VERTEX
  8
Unknown_Area_Type
  10
439954.000
  20
4639367.500
  0
VERTEX
  8
Unknown_Area_Type
  10
439970.500
  20
4639342.500
  0
VERTEX
  8
Unknown_Area_Type
  10
439971.500
  20
4639335.500
  0
VERTEX
  8
Unknown_Area_Type
  10
439977.500
  20
4638992.500
  0
VERTEX
  8
Unknown_Area_Type
  10
438065.000
  20
4638586.000
  0
VERTEX
  8
Unknown_Area_Type
  10
438060.000
  20
4638587.500
  0
VERTEX
  8
Unknown_Area_Type
  10
437119.000
  20
4639135.500
  0
VERTEX
  8
Unknown_Area_Type
  10
437106.000
  20
4639585.500
  0
VERTEX
  8
Unknown_Area_Type
  10
437898.500
  20
4642578.500
  0
VERTEX
  8
Unknown_Area_Type
  10
439953.500
  20
4639369.000
  0
VERTEX
  8
Unknown_Area_Type
  10
439954.000
  20
4639367.500
  0
SEQEND
  8
Unknown_Area_Type
  0
INSERT
  8
FeatureAttribs
  2
FEATURE
  41
1
  42
1
  43
1
  50
0
  10
438361.170
  20
4640092.489
 66
1
  0
ATTRIB
  8
FeatureAttribs
 70
0
  1
PNOA-H_AMS_1956-57_33k_ES_PAN_2
  2
NAME
  10
438361.170
  20
4640092.489
 40
33.51096
  0
SEQEND
  0
POLYLINE
  8
Unknown_Area_Type
  70
1
  66
1
  0
VERTEX
  8
Unknown_Area_Type
  10
439954.000
  20
4639367.500
  0
VERTEX
  8
Unknown_Area_Type
  10
439953.500
  20
4639369.000
  0
VERTEX
  8
Unknown_Area_Type
  10
437898.500
  20
4642578.500
  0
VERTEX
  8
Unknown_Area_Type
  10
437106.000
  20
4639585.500
  0
VERTEX
  8
Unknown_Area_Type
  10
437119.000
  20
4639135.500
  0
VERTEX
  8
Unknown_Area_Type
  10
438060.000
  20
4638587.500
  0
VERTEX
  8
Unknown_Area_Type
  10
438065.000
  20
4638586.000
  0
VERTEX
  8
Unknown_Area_Type
  10
439977.500
  20
4638992.500
  0
VERTEX
  8
Unknown_Area_Type
  10
439971.500
  20
4639335.500
  0
VERTEX
  8
Unknown_Area_Type
  10
439970.500
  20
4639342.500
  0
VERTEX
  8
Unknown_Area_Type
  10
439954.000
  20
4639367.500
  0
SEQEND
  8
Unknown_Area_Type
  0
INSERT
  8
FeatureAttribs
  2
FEATURE
  41
1
  42
1
  43
1
  50
0
  10
444003.129
  20
4640155.305
 66
1
  0
ATTRIB
  8
FeatureAttribs
 70
0
  1
PNOA-H_AMS_1956-57_33k_ES_PAN_2
  2
NAME
  10
444003.129
  20
4640155.305
 40
33.51096
  0
SEQEND
  0
POLYLINE
  8
Unknown_Area_Type
  70
1
  66
1
  0
VERTEX
  8
Unknown_Area_Type
  10
444050.000
  20
4642373.000
  0
VERTEX
  8
Unknown_Area_Type
  10
445615.500
  20
4638747.000
  0
VERTEX
  8
Unknown_Area_Type
  10
445598.000
  20
4638742.500
  0
VERTEX
  8
Unknown_Area_Type
  10
443805.500
  20
4638373.000
  0
VERTEX
  8
Unknown_Area_Type
  10
442806.000
  20
4638844.500
  0
VERTEX
  8
Unknown_Area_Type
  10
442802.500
  20
4639316.500
  0
VERTEX
  8
Unknown_Area_Type
  10
443655.000
  20
4643270.500
  0
VERTEX
  8
Unknown_Area_Type
  10
443662.000
  20
4643273.000
  0
VERTEX
  8
Unknown_Area_Type
  10
443664.000
  20
4643268.500
  0
VERTEX
  8
Unknown_Area_Type
  10
444050.000
  20
4642374.000
  0
VERTEX
  8
Unknown_Area_Type
  10
444050.000
  20
4642373.000
  0
SEQEND
  8
Unknown_Area_Type
  0
INSERT
  8
FeatureAttribs
  2
FEATURE
  41
1
  42
1
  43
1
  50
0
  10
444003.129
  20
4640155.305
 66
1
  0
ATTRIB
  8
FeatureAttribs
 70
0
  1
PNOA-H_AMS_1956-57_33k_ES_PAN_2
  2
NAME
  10
444003.129
  20
4640155.305
 40
33.51096
  0
SEQEND
  0
POLYLINE
  8
Unknown_Area_Type
  70
1
  66
1
  0
VERTEX
  8
Unknown_Area_Type
  10
444050.000
  20
4642373.000
  0
VERTEX
  8
Unknown_Area_Type
  10
444050.000
  20
4642374.000
  0
VERTEX
  8
Unknown_Area_Type
  10
443664.000
  20
4643268.500
  0
VERTEX
  8
Unknown_Area_Type
  10
443662.000
  20
4643273.000
  0
VERTEX
  8
Unknown_Area_Type
  10
443655.000
  20
4643270.500
  0
VERTEX
  8
Unknown_Area_Type
  10
442802.500
  20
4639316.500
  0
VERTEX
  8
Unknown_Area_Type
  10
442806.000
  20
4638844.500
  0
VERTEX
  8
Unknown_Area_Type
  10
443805.500
  20
4638373.000
  0
VERTEX
  8
Unknown_Area_Type
  10
445598.000
  20
4638742.500
  0
VERTEX
  8
Unknown_Area_Type
  10
445615.500
  20
4638747.000
  0
VERTEX
  8
Unknown_Area_Type
  10
444050.000
  20
4642373.000
  0
SEQEND
  8
Unknown_Area_Type
  0
INSERT
  8
FeatureAttribs
  2
FEATURE
  41
1
  42
1
  43
1
  50
0
  10
430805.451
  20
4638220.860
 66
1
  0
ATTRIB
  8
FeatureAttribs
 70
0
  1
PNOA-H_AMS_1956-57_33k_ES_PAN_2
  2
NAME
  10
430805.451
  20
4638220.860
 40
33.51096
  0
SEQEND
  0
POLYLINE
  8
Unknown_Area_Type
  70
1
  66
1
  0
VERTEX
  8
Unknown_Area_Type
  10
429518.000
  20
4638787.500
  0
VERTEX
  8
Unknown_Area_Type
  10
431288.500
  20
4639503.000
  0
VERTEX
  8
Unknown_Area_Type
  10
431761.000
  20
4639186.000
  0
VERTEX
  8
Unknown_Area_Type
  10
431762.000
  20
4639185.500
  0
VERTEX
  8
Unknown_Area_Type
  10
432390.000
  20
4638764.500
  0
VERTEX
  8
Unknown_Area_Type
  10
432340.500
  20
4638311.500
  0
VERTEX
  8
Unknown_Area_Type
  10
430175.000
  20
4636562.500
  0
VERTEX
  8
Unknown_Area_Type
  10
429459.000
  20
4638178.000
  0
VERTEX
  8
Unknown_Area_Type
  10
429518.000
  20
4638787.500
  0
SEQEND
  8
Unknown_Area_Type
  0
INSERT
  8
FeatureAttribs
  2
FEATURE
  41
1
  42
1
  43
1
  50
0
  10
430805.451
  20
4638220.860
 66
1
  0
ATTRIB
  8
FeatureAttribs
 70
0
  1
PNOA-H_AMS_1956-57_33k_ES_PAN_2
  2
NAME
  10
430805.451
  20
4638220.860
 40
33.51096
  0
SEQEND
  0
POLYLINE
  8
Unknown_Area_Type
  70
1
  66
1
  0
VERTEX
  8
Unknown_Area_Type
  10
429518.000
  20
4638787.500
  0
VERTEX
  8
Unknown_Area_Type
  10
429459.000
  20
4638178.000
  0
VERTEX
  8
Unknown_Area_Type
  10
430175.000
  20
4636562.500
  0
VERTEX
  8
Unknown_Area_Type
  10
432340.500
  20
4638311.500
  0
VERTEX
  8
Unknown_Area_Type
  10
432390.000
  20
4638764.500
  0
VERTEX
  8
Unknown_Area_Type
  10
431762.000
  20
4639185.500
  0
VERTEX
  8
Unknown_Area_Type
  10
431761.000
  20
4639186.000
  0
VERTEX
  8
Unknown_Area_Type
  10
431288.500
  20
4639503.000
  0
VERTEX
  8
Unknown_Area_Type
  10
429518.000
  20
4638787.500
  0
SEQEND
  8
Unknown_Area_Type
  0
INSERT
  8
FeatureAttribs
  2
FEATURE
  41
1
  42
1
  43
1
  50
0
  10
453721.411
  20
4636173.930
 66
1
  0
ATTRIB
  8
FeatureAttribs
 70
0
  1
PNOA-H_AMS_1956-57_33k_ES_PAN_2
  2
NAME
  10
453721.411
  20
4636173.930
 40
33.51096
  0
SEQEND
  0
POLYLINE
  8
Unknown_Area_Type
  70
1
  66
1
  0
VERTEX
  8
Unknown_Area_Type
  10
452342.000
  20
4638439.000
  0
VERTEX
  8
Unknown_Area_Type
  10
452400.500
  20
4638471.000
  0
VERTEX
  8
Unknown_Area_Type
  10
452401.500
  20
4638471.500
  0
VERTEX
  8
Unknown_Area_Type
  10
455108.500
  20
4638316.000
  0
VERTEX
  8
Unknown_Area_Type
  10
455139.500
  20
4634123.500
  0
VERTEX
  8
Unknown_Area_Type
  10
454591.500
  20
4633801.500
  0
VERTEX
  8
Unknown_Area_Type
  10
454589.500
  20
4633800.500
  0
VERTEX
  8
Unknown_Area_Type
  10
454584.000
  20
4633801.000
  0
VERTEX
  8
Unknown_Area_Type
  10
452275.500
  20
4634171.500
  0
VERTEX
  8
Unknown_Area_Type
  10
452342.000
  20
4638439.000
  0
SEQEND
  8
Unknown_Area_Type
  0
INSERT
  8
FeatureAttribs
  2
FEATURE
  41
1
  42
1
  43
1
  50
0
  10
453721.411
  20
4636173.930
 66
1
  0
ATTRIB
  8
FeatureAttribs
 70
0
  1
PNOA-H_AMS_1956-57_33k_ES_PAN_2
  2
NAME
  10
453721.411
  20
4636173.930
 40
33.51096
  0
SEQEND
  0
POLYLINE
  8
Unknown_Area_Type
  70
1
  66
1
  0
VERTEX
  8
Unknown_Area_Type
  10
452342.000
  20
4638439.000
  0
VERTEX
  8
Unknown_Area_Type
  10
452275.500
  20
4634171.500
  0
VERTEX
  8
Unknown_Area_Type
  10
454584.000
  20
4633801.000
  0
VERTEX
  8
Unknown_Area_Type
  10
454589.500
  20
4633800.500
  0
VERTEX
  8
Unknown_Area_Type
  10
454591.500
  20
4633801.500
  0
VERTEX
  8
Unknown_Area_Type
  10
455139.500
  20
4634123.500
  0
VERTEX
  8
Unknown_Area_Type
  10
455108.500
  20
4638316.000
  0
VERTEX
  8
Unknown_Area_Type
  10
452401.500
  20
4638471.500
  0
VERTEX
  8
Unknown_Area_Type
  10
452400.500
  20
4638471.000
  0
VERTEX
  8
Unknown_Area_Type
  10
452342.000
  20
4638439.000
  0
SEQEND
  8
Unknown_Area_Type
  0
INSERT
  8
FeatureAttribs
  2
FEATURE
  41
1
  42
1
  43
1
  50
0
  10
455956.679
  20
4636215.157
 66
1
  0
ATTRIB
  8
FeatureAttribs
 70
0
  1
PNOA-H_AMS_1956-57_33k_ES_PAN_2
  2
NAME
  10
455956.679
  20
4636215.157
 40
33.51096
  0
SEQEND
  0
POLYLINE
  8
Unknown_Area_Type
  70
1
  66
1
  0
VERTEX
  8
Unknown_Area_Type
  10
456795.365
  20
4638322.864
  0
VERTEX
  8
Unknown_Area_Type
  10
456781.442
  20
4636028.893
  0
VERTEX
  8
Unknown_Area_Type
  10
456768.699
  20
4633928.469
  0
VERTEX
  8
Unknown_Area_Type
  10
455139.500
  20
4634124.000
  0
VERTEX
  8
Unknown_Area_Type
  10
455108.500
  20
4638316.000
  0
VERTEX
  8
Unknown_Area_Type
  10
455339.000
  20
4638436.000
  0
VERTEX
  8
Unknown_Area_Type
  10
456795.365
  20
4638322.864
  0
SEQEND
  8
Unknown_Area_Type
  0
INSERT
  8
FeatureAttribs
  2
FEATURE
  41
1
  42
1
  43
1
  50
0
  10
455956.679
  20
4636215.157
 66
1
  0
ATTRIB
  8
FeatureAttribs
 70
0
  1
PNOA-H_AMS_1956-57_33k_ES_PAN_2
  2
NAME
  10
455956.679
  20
4636215.157
 40
33.51096
  0
SEQEND
  0
POLYLINE
  8
Unknown_Area_Type
  70
1
  66
1
  0
VERTEX
  8
Unknown_Area_Type
  10
456795.365
  20
4638322.864
  0
VERTEX
  8
Unknown_Area_Type
  10
455339.000
  20
4638436.000
  0
VERTEX
  8
Unknown_Area_Type
  10
455108.500
  20
4638316.000
  0
VERTEX
  8
Unknown_Area_Type
  10
455139.500
  20
4634124.000
  0
VERTEX
  8
Unknown_Area_Type
  10
456768.699
  20
4633928.469
  0
VERTEX
  8
Unknown_Area_Type
  10
456781.442
  20
4636028.893
  0
VERTEX
  8
Unknown_Area_Type
  10
456795.365
  20
4638322.864
  0
SEQEND
  8
Unknown_Area_Type
  0
INSERT
  8
FeatureAttribs
  2
FEATURE
  41
1
  42
1
  43
1
  50
0
  10
448019.490
  20
4636381.020
 66
1
  0
ATTRIB
  8
FeatureAttribs
 70
0
  1
PNOA-H_AMS_1956-57_33k_ES_PAN_2
  2
NAME
  10
448019.490
  20
4636381.020
 40
33.51096
  0
SEQEND
  0
POLYLINE
  8
Unknown_Area_Type
  70
1
  66
1
  0
VERTEX
  8
Unknown_Area_Type
  10
448146.000
  20
4638598.000
  0
VERTEX
  8
Unknown_Area_Type
  10
449420.000
  20
4638577.000
  0
VERTEX
  8
Unknown_Area_Type
  10
449544.000
  20
4638499.500
  0
VERTEX
  8
Unknown_Area_Type
  10
449346.500
  20
4634291.000
  0
VERTEX
  8
Unknown_Area_Type
  10
448769.500
  20
4633978.500
  0
VERTEX
  8
Unknown_Area_Type
  10
446448.000
  20
4634409.000
  0
VERTEX
  8
Unknown_Area_Type
  10
446697.000
  20
4638621.000
  0
VERTEX
  8
Unknown_Area_Type
  10
446720.500
  20
4638621.500
  0
VERTEX
  8
Unknown_Area_Type
  10
448123.000
  20
4638598.000
  0
VERTEX
  8
Unknown_Area_Type
  10
448146.000
  20
4638598.000
  0
SEQEND
  8
Unknown_Area_Type
  0
INSERT
  8
FeatureAttribs
  2
FEATURE
  41
1
  42
1
  43
1
  50
0
  10
448019.490
  20
4636381.020
 66
1
  0
ATTRIB
  8
FeatureAttribs
 70
0
  1
PNOA-H_AMS_1956-57_33k_ES_PAN_2
  2
NAME
  10
448019.490
  20
4636381.020
 40
33.51096
  0
SEQEND
  0
POLYLINE
  8
Unknown_Area_Type
  70
1
  66
1
  0
VERTEX
  8
Unknown_Area_Type
  10
448146.000
  20
4638598.000
  0
VERTEX
  8
Unknown_Area_Type
  10
448123.000
  20
4638598.000
  0
VERTEX
  8
Unknown_Area_Type
  10
446720.500
  20
4638621.500
  0
VERTEX
  8
Unknown_Area_Type
  10
446697.000
  20
4638621.000
  0
VERTEX
  8
Unknown_Area_Type
  10
446448.000
  20
4634409.000
  0
VERTEX
  8
Unknown_Area_Type
  10
448769.500
  20
4633978.500
  0
VERTEX
  8
Unknown_Area_Type
  10
449346.500
  20
4634291.000
  0
VERTEX
  8
Unknown_Area_Type
  10
449544.000
  20
4638499.500
  0
VERTEX
  8
Unknown_Area_Type
  10
449420.000
  20
4638577.000
  0
VERTEX
  8
Unknown_Area_Type
  10
448146.000
  20
4638598.000
  0
SEQEND
  8
Unknown_Area_Type
  0
INSERT
  8
FeatureAttribs
  2
FEATURE
  41
1
  42
1
  43
1
  50
0
  10
433842.676
  20
4637136.170
 66
1
  0
ATTRIB
  8
FeatureAttribs
 70
0
  1
PNOA-H_AMS_1956-57_33k_ES_PAN_2
  2
NAME
  10
433842.676
  20
4637136.170
 40
33.51096
  0
SEQEND
  0
POLYLINE
  8
Unknown_Area_Type
  70
1
  66
1
  0
VERTEX
  8
Unknown_Area_Type
  10
434213.000
  20
4639339.500
  0
VERTEX
  8
Unknown_Area_Type
  10
434215.500
  20
4639339.500
  0
VERTEX
  8
Unknown_Area_Type
  10
434226.000
  20
4639333.000
  0
VERTEX
  8
Unknown_Area_Type
  10
435205.000
  20
4638723.000
  0
VERTEX
  8
Unknown_Area_Type
  10
435221.000
  20
4638713.000
  0
VERTEX
  8
Unknown_Area_Type
  10
435221.000
  20
4638710.000
  0
VERTEX
  8
Unknown_Area_Type
  10
434745.000
  20
4634906.500
  0
VERTEX
  8
Unknown_Area_Type
  10
434114.000
  20
4634677.000
  0
VERTEX
  8
Unknown_Area_Type
  10
434111.000
  20
4634676.000
  0
VERTEX
  8
Unknown_Area_Type
  10
434107.500
  20
4634676.500
  0
VERTEX
  8
Unknown_Area_Type
  10
433158.500
  20
4634873.000
  0
VERTEX
  8
Unknown_Area_Type
  10
432341.000
  20
4638308.000
  0
VERTEX
  8
Unknown_Area_Type
  10
432340.500
  20
4638315.000
  0
VERTEX
  8
Unknown_Area_Type
  10
432386.500
  20
4638736.000
  0
VERTEX
  8
Unknown_Area_Type
  10
432390.500
  20
4638765.000
  0
VERTEX
  8
Unknown_Area_Type
  10
434211.500
  20
4639339.000
  0
VERTEX
  8
Unknown_Area_Type
  10
434213.000
  20
4639339.500
  0
SEQEND
  8
Unknown_Area_Type
  0
INSERT
  8
FeatureAttribs
  2
FEATURE
  41
1
  42
1
  43
1
  50
0
  10
433842.676
  20
4637136.170
 66
1
  0
ATTRIB
  8
FeatureAttribs
 70
0
  1
PNOA-H_AMS_1956-57_33k_ES_PAN_2
  2
NAME
  10
433842.676
  20
4637136.170
 40
33.51096
  0
SEQEND
  0
POLYLINE
  8
Unknown_Area_Type
  70
1
  66
1
  0
VERTEX
  8
Unknown_Area_Type
  10
434213.000
  20
4639339.500
  0
VERTEX
  8
Unknown_Area_Type
  10
434211.500
  20
4639339.000
  0
VERTEX
  8
Unknown_Area_Type
  10
432390.500
  20
4638765.000
  0
VERTEX
  8
Unknown_Area_Type
  10
432386.500
  20
4638736.000
  0
VERTEX
  8
Unknown_Area_Type
  10
432340.500
  20
4638315.000
  0
VERTEX
  8
Unknown_Area_Type
  10
432341.000
  20
4638308.000
  0
VERTEX
  8
Unknown_Area_Type
  10
433158.500
  20
4634873.000
  0
VERTEX
  8
Unknown_Area_Type
  10
434107.500
  20
4634676.500
  0
VERTEX
  8
Unknown_Area_Type
  10
434111.000
  20
4634676.000
  0
VERTEX
  8
Unknown_Area_Type
  10
434114.000
  20
4634677.000
  0
VERTEX
  8
Unknown_Area_Type
  10
434745.000
  20
4634906.500
  0
VERTEX
  8
Unknown_Area_Type
  10
435221.000
  20
4638710.000
  0
VERTEX
  8
Unknown_Area_Type
  10
435221.000
  20
4638713.000
  0
VERTEX
  8
Unknown_Area_Type
  10
435205.000
  20
4638723.000
  0
VERTEX
  8
Unknown_Area_Type
  10
434226.000
  20
4639333.000
  0
VERTEX
  8
Unknown_Area_Type
  10
434215.500
  20
4639339.500
  0
VERTEX
  8
Unknown_Area_Type
  10
434213.000
  20
4639339.500
  0
SEQEND
  8
Unknown_Area_Type
  0
INSERT
  8
FeatureAttribs
  2
FEATURE
  41
1
  42
1
  43
1
  50
0
  10
434620.196
  20
4650096.467
 66
1
  0
ATTRIB
  8
FeatureAttribs
 70
0
  1
PNOA-H_AMS_1956-57_33k_ES_PAN_2
  2
NAME
  10
434620.196
  20
4650096.467
 40
33.51096
  0
SEQEND
  0
POLYLINE
  8
Unknown_Area_Type
  70
1
  66
1
  0
VERTEX
  8
Unknown_Area_Type
  10
436132.856
  20
4650129.089
  0
VERTEX
  8
Unknown_Area_Type
  10
436132.556
  20
4650063.844
  0
VERTEX
  8
Unknown_Area_Type
  10
433107.709
  20
4650091.812
  0
VERTEX
  8
Unknown_Area_Type
  10
433107.516
  20
4650129.089
  0
VERTEX
  8
Unknown_Area_Type
  10
436132.856
  20
4650129.089
  0
SEQEND
  8
Unknown_Area_Type
  0
INSERT
  8
FeatureAttribs
  2
FEATURE
  41
1
  42
1
  43
1
  50
0
  10
434641.812
  20
4649008.148
 66
1
  0
ATTRIB
  8
FeatureAttribs
 70
0
  1
PNOA-H_AMS_1956-57_33k_ES_PAN_2
  2
NAME
  10
434641.812
  20
4649008.148
 40
33.51096
  0
SEQEND
  0
POLYLINE
  8
Unknown_Area_Type
  70
1
  66
1
  0
VERTEX
  8
Unknown_Area_Type
  10
436132.556
  20
4650063.844
  0
VERTEX
  8
Unknown_Area_Type
  10
436124.500
  20
4648310.000
  0
VERTEX
  8
Unknown_Area_Type
  10
436124.500
  20
4648200.000
  0
VERTEX
  8
Unknown_Area_Type
  10
436124.000
  20
4648145.500
  0
VERTEX
  8
Unknown_Area_Type
  10
436121.000
  20
4648144.000
  0
VERTEX
  8
Unknown_Area_Type
  10
435095.000
  20
4647703.500
  0
VERTEX
  8
Unknown_Area_Type
  10
433117.500
  20
4648209.000
  0
VERTEX
  8
Unknown_Area_Type
  10
433107.709
  20
4650091.812
  0
VERTEX
  8
Unknown_Area_Type
  10
436132.556
  20
4650063.844
  0
SEQEND
  8
Unknown_Area_Type
  0
INSERT
  8
FeatureAttribs
  2
FEATURE
  41
1
  42
1
  43
1
  50
0
  10
434641.812
  20
4649008.148
 66
1
  0
ATTRIB
  8
FeatureAttribs
 70
0
  1
PNOA-H_AMS_1956-57_33k_ES_PAN_2
  2
NAME
  10
434641.812
  20
4649008.148
 40
33.51096
  0
SEQEND
  0
POLYLINE
  8
Unknown_Area_Type
  70
1
  66
1
  0
VERTEX
  8
Unknown_Area_Type
  10
436132.556
  20
4650063.844
  0
VERTEX
  8
Unknown_Area_Type
  10
433107.709
  20
4650091.812
  0
VERTEX
  8
Unknown_Area_Type
  10
433117.500
  20
4648209.000
  0
VERTEX
  8
Unknown_Area_Type
  10
435095.000
  20
4647703.500
  0
VERTEX
  8
Unknown_Area_Type
  10
436121.000
  20
4648144.000
  0
VERTEX
  8
Unknown_Area_Type
  10
436124.000
  20
4648145.500
  0
VERTEX
  8
Unknown_Area_Type
  10
436124.500
  20
4648200.000
  0
VERTEX
  8
Unknown_Area_Type
  10
436124.500
  20
4648310.000
  0
VERTEX
  8
Unknown_Area_Type
  10
436132.556
  20
4650063.844
  0
SEQEND
  8
Unknown_Area_Type
  0
INSERT
  8
FeatureAttribs
  2
FEATURE
  41
1
  42
1
  43
1
  50
0
  10
442226.233
  20
4636528.893
 66
1
  0
ATTRIB
  8
FeatureAttribs
 70
0
  1
PNOA-H_AMS_1956-57_33k_ES_PAN_2
  2
NAME
  10
442226.233
  20
4636528.893
 40
33.51096
  0
SEQEND
  0
POLYLINE
  8
Unknown_Area_Type
  70
1
  66
1
  0
VERTEX
  8
Unknown_Area_Type
  10
442803.500
  20
4638844.500
  0
VERTEX
  8
Unknown_Area_Type
  10
442808.000
  20
4638844.000
  0
VERTEX
  8
Unknown_Area_Type
  10
443806.500
  20
4638373.000
  0
VERTEX
  8
Unknown_Area_Type
  10
443519.000
  20
4634540.500
  0
VERTEX
  8
Unknown_Area_Type
  10
442978.500
  20
4634252.500
  0
VERTEX
  8
Unknown_Area_Type
  10
440559.500
  20
4634634.000
  0
VERTEX
  8
Unknown_Area_Type
  10
440947.000
  20
4638494.000
  0
VERTEX
  8
Unknown_Area_Type
  10
442800.500
  20
4638844.000
  0
VERTEX
  8
Unknown_Area_Type
  10
442803.500
  20
4638844.500
  0
SEQEND
  8
Unknown_Area_Type
  0
INSERT
  8
FeatureAttribs
  2
FEATURE
  41
1
  42
1
  43
1
  50
0
  10
442226.233
  20
4636528.893
 66
1
  0
ATTRIB
  8
FeatureAttribs
 70
0
  1
PNOA-H_AMS_1956-57_33k_ES_PAN_2
  2
NAME
  10
442226.233
  20
4636528.893
 40
33.51096
  0
SEQEND
  0
POLYLINE
  8
Unknown_Area_Type
  70
1
  66
1
  0
VERTEX
  8
Unknown_Area_Type
  10
442803.500
  20
4638844.500
  0
VERTEX
  8
Unknown_Area_Type
  10
442800.500
  20
4638844.000
  0
VERTEX
  8
Unknown_Area_Type
  10
440947.000
  20
4638494.000
  0
VERTEX
  8
Unknown_Area_Type
  10
440559.500
  20
4634634.000
  0
VERTEX
  8
Unknown_Area_Type
  10
442978.500
  20
4634252.500
  0
VERTEX
  8
Unknown_Area_Type
  10
443519.000
  20
4634540.500
  0
VERTEX
  8
Unknown_Area_Type
  10
443806.500
  20
4638373.000
  0
VERTEX
  8
Unknown_Area_Type
  10
442808.000
  20
4638844.000
  0
VERTEX
  8
Unknown_Area_Type
  10
442803.500
  20
4638844.500
  0
SEQEND
  8
Unknown_Area_Type
  0
INSERT
  8
FeatureAttribs
  2
FEATURE
  41
1
  42
1
  43
1
  50
0
  10
453905.191
  20
4645706.088
 66
1
  0
ATTRIB
  8
FeatureAttribs
 70
0
  1
PNOA-H_AMS_1956-57_33k_ES_PAN_2
  2
NAME
  10
453905.191
  20
4645706.088
 40
33.51096
  0
SEQEND
  0
POLYLINE
  8
Unknown_Area_Type
  70
1
  66
1
  0
VERTEX
  8
Unknown_Area_Type
  10
453498.500
  20
4648069.500
  0
VERTEX
  8
Unknown_Area_Type
  10
454289.000
  20
4647899.000
  0
VERTEX
  8
Unknown_Area_Type
  10
454290.000
  20
4647899.000
  0
VERTEX
  8
Unknown_Area_Type
  10
455528.000
  20
4647632.500
  0
VERTEX
  8
Unknown_Area_Type
  10
455421.000
  20
4645434.500
  0
VERTEX
  8
Unknown_Area_Type
  10
454805.500
  20
4643338.000
  0
VERTEX
  8
Unknown_Area_Type
  10
452617.000
  20
4643332.500
  0
VERTEX
  8
Unknown_Area_Type
  10
452593.500
  20
4643332.500
  0
VERTEX
  8
Unknown_Area_Type
  10
452591.500
  20
4643333.500
  0
VERTEX
  8
Unknown_Area_Type
  10
452533.500
  20
4643369.000
  0
VERTEX
  8
Unknown_Area_Type
  10
452532.500
  20
4643370.000
  0
VERTEX
  8
Unknown_Area_Type
  10
452532.000
  20
4643382.000
  0
VERTEX
  8
Unknown_Area_Type
  10
452492.000
  20
4647744.500
  0
VERTEX
  8
Unknown_Area_Type
  10
453498.500
  20
4648069.500
  0
SEQEND
  8
Unknown_Area_Type
  0
INSERT
  8
FeatureAttribs
  2
FEATURE
  41
1
  42
1
  43
1
  50
0
  10
453905.191
  20
4645706.088
 66
1
  0
ATTRIB
  8
FeatureAttribs
 70
0
  1
PNOA-H_AMS_1956-57_33k_ES_PAN_2
  2
NAME
  10
453905.191
  20
4645706.088
 40
33.51096
  0
SEQEND
  0
POLYLINE
  8
Unknown_Area_Type
  70
1
  66
1
  0
VERTEX
  8
Unknown_Area_Type
  10
453498.500
  20
4648069.500
  0
VERTEX
  8
Unknown_Area_Type
  10
452492.000
  20
4647744.500
  0
VERTEX
  8
Unknown_Area_Type
  10
452532.000
  20
4643382.000
  0
VERTEX
  8
Unknown_Area_Type
  10
452532.500
  20
4643370.000
  0
VERTEX
  8
Unknown_Area_Type
  10
452533.500
  20
4643369.000
  0
VERTEX
  8
Unknown_Area_Type
  10
452591.500
  20
4643333.500
  0
VERTEX
  8
Unknown_Area_Type
  10
452593.500
  20
4643332.500
  0
VERTEX
  8
Unknown_Area_Type
  10
452617.000
  20
4643332.500
  0
VERTEX
  8
Unknown_Area_Type
  10
454805.500
  20
4643338.000
  0
VERTEX
  8
Unknown_Area_Type
  10
455421.000
  20
4645434.500
  0
VERTEX
  8
Unknown_Area_Type
  10
455528.000
  20
4647632.500
  0
VERTEX
  8
Unknown_Area_Type
  10
454290.000
  20
4647899.000
  0
VERTEX
  8
Unknown_Area_Type
  10
454289.000
  20
4647899.000
  0
VERTEX
  8
Unknown_Area_Type
  10
453498.500
  20
4648069.500
  0
SEQEND
  8
Unknown_Area_Type
  0
INSERT
  8
FeatureAttribs
  2
FEATURE
  41
1
  42
1
  43
1
  50
0
  10
448130.881
  20
4645700.342
 66
1
  0
ATTRIB
  8
FeatureAttribs
 70
0
  1
PNOA-H_AMS_1956-57_33k_ES_PAN_2
  2
NAME
  10
448130.881
  20
4645700.342
 40
33.51096
  0
SEQEND
  0
POLYLINE
  8
Unknown_Area_Type
  70
1
  66
1
  0
VERTEX
  8
Unknown_Area_Type
  10
448143.500
  20
4648201.000
  0
VERTEX
  8
Unknown_Area_Type
  10
448145.000
  20
4648201.500
  0
VERTEX
  8
Unknown_Area_Type
  10
448205.500
  20
4648221.000
  0
VERTEX
  8
Unknown_Area_Type
  10
449523.500
  20
4647742.500
  0
VERTEX
  8
Unknown_Area_Type
  10
449524.500
  20
4647741.000
  0
VERTEX
  8
Unknown_Area_Type
  10
449631.500
  20
4643400.500
  0
VERTEX
  8
Unknown_Area_Type
  10
449631.500
  20
4643392.500
  0
VERTEX
  8
Unknown_Area_Type
  10
449626.500
  20
4643389.500
  0
VERTEX
  8
Unknown_Area_Type
  10
446765.500
  20
4643425.500
  0
VERTEX
  8
Unknown_Area_Type
  10
446590.500
  20
4647697.500
  0
VERTEX
  8
Unknown_Area_Type
  10
448143.500
  20
4648201.000
  0
SEQEND
  8
Unknown_Area_Type
  0
INSERT
  8
FeatureAttribs
  2
FEATURE
  41
1
  42
1
  43
1
  50
0
  10
448130.881
  20
4645700.342
 66
1
  0
ATTRIB
  8
FeatureAttribs
 70
0
  1
PNOA-H_AMS_1956-57_33k_ES_PAN_2
  2
NAME
  10
448130.881
  20
4645700.342
 40
33.51096
  0
SEQEND
  0
POLYLINE
  8
Unknown_Area_Type
  70
1
  66
1
  0
VERTEX
  8
Unknown_Area_Type
  10
448143.500
  20
4648201.000
  0
VERTEX
  8
Unknown_Area_Type
  10
446590.500
  20
4647697.500
  0
VERTEX
  8
Unknown_Area_Type
  10
446765.500
  20
4643425.500
  0
VERTEX
  8
Unknown_Area_Type
  10
449626.500
  20
4643389.500
  0
VERTEX
  8
Unknown_Area_Type
  10
449631.500
  20
4643392.500
  0
VERTEX
  8
Unknown_Area_Type
  10
449631.500
  20
4643400.500
  0
VERTEX
  8
Unknown_Area_Type
  10
449524.500
  20
4647741.000
  0
VERTEX
  8
Unknown_Area_Type
  10
449523.500
  20
4647742.500
  0
VERTEX
  8
Unknown_Area_Type
  10
448205.500
  20
4648221.000
  0
VERTEX
  8
Unknown_Area_Type
  10
448145.000
  20
4648201.500
  0
VERTEX
  8
Unknown_Area_Type
  10
448143.500
  20
4648201.000
  0
SEQEND
  8
Unknown_Area_Type
  0
INSERT
  8
FeatureAttribs
  2
FEATURE
  41
1
  42
1
  43
1
  50
0
  10
450888.769
  20
4636242.397
 66
1
  0
ATTRIB
  8
FeatureAttribs
 70
0
  1
PNOA-H_AMS_1956-57_33k_ES_PAN_2
  2
NAME
  10
450888.769
  20
4636242.397
 40
33.51096
  0
SEQEND
  0
POLYLINE
  8
Unknown_Area_Type
  70
1
  66
1
  0
VERTEX
  8
Unknown_Area_Type
  10
449544.000
  20
4638499.000
  0
VERTEX
  8
Unknown_Area_Type
  10
452342.000
  20
4638439.000
  0
VERTEX
  8
Unknown_Area_Type
  10
452275.500
  20
4634171.500
  0
VERTEX
  8
Unknown_Area_Type
  10
451707.500
  20
4633854.500
  0
VERTEX
  8
Unknown_Area_Type
  10
451689.500
  20
4633844.500
  0
VERTEX
  8
Unknown_Area_Type
  10
451683.500
  20
4633842.500
  0
VERTEX
  8
Unknown_Area_Type
  10
449346.500
  20
4634291.000
  0
VERTEX
  8
Unknown_Area_Type
  10
449544.000
  20
4638494.000
  0
VERTEX
  8
Unknown_Area_Type
  10
449544.000
  20
4638499.000
  0
SEQEND
  8
Unknown_Area_Type
  0
INSERT
  8
FeatureAttribs
  2
FEATURE
  41
1
  42
1
  43
1
  50
0
  10
450888.769
  20
4636242.397
 66
1
  0
ATTRIB
  8
FeatureAttribs
 70
0
  1
PNOA-H_AMS_1956-57_33k_ES_PAN_2
  2
NAME
  10
450888.769
  20
4636242.397
 40
33.51096
  0
SEQEND
  0
POLYLINE
  8
Unknown_Area_Type
  70
1
  66
1
  0
VERTEX
  8
Unknown_Area_Type
  10
449544.000
  20
4638499.000
  0
VERTEX
  8
Unknown_Area_Type
  10
449544.000
  20
4638494.000
  0
VERTEX
  8
Unknown_Area_Type
  10
449346.500
  20
4634291.000
  0
VERTEX
  8
Unknown_Area_Type
  10
451683.500
  20
4633842.500
  0
VERTEX
  8
Unknown_Area_Type
  10
451689.500
  20
4633844.500
  0
VERTEX
  8
Unknown_Area_Type
  10
451707.500
  20
4633854.500
  0
VERTEX
  8
Unknown_Area_Type
  10
452275.500
  20
4634171.500
  0
VERTEX
  8
Unknown_Area_Type
  10
452342.000
  20
4638439.000
  0
VERTEX
  8
Unknown_Area_Type
  10
449544.000
  20
4638499.000
  0
SEQEND
  8
Unknown_Area_Type
  0
INSERT
  8
FeatureAttribs
  2
FEATURE
  41
1
  42
1
  43
1
  50
0
  10
445156.753
  20
4636463.638
 66
1
  0
ATTRIB
  8
FeatureAttribs
 70
0
  1
PNOA-H_AMS_1956-57_33k_ES_PAN_2
  2
NAME
  10
445156.753
  20
4636463.638
 40
33.51096
  0
SEQEND
  0
POLYLINE
  8
Unknown_Area_Type
  70
1
  66
1
  0
VERTEX
  8
Unknown_Area_Type
  10
444048.500
  20
4638423.000
  0
VERTEX
  8
Unknown_Area_Type
  10
445614.500
  20
4638746.500
  0
VERTEX
  8
Unknown_Area_Type
  10
446483.000
  20
4638753.500
  0
VERTEX
  8
Unknown_Area_Type
  10
446697.500
  20
4638621.500
  0
VERTEX
  8
Unknown_Area_Type
  10
446448.500
  20
4634411.000
  0
VERTEX
  8
Unknown_Area_Type
  10
446447.500
  20
4634408.500
  0
VERTEX
  8
Unknown_Area_Type
  10
445891.500
  20
4634117.000
  0
VERTEX
  8
Unknown_Area_Type
  10
443519.000
  20
4634540.500
  0
VERTEX
  8
Unknown_Area_Type
  10
443806.000
  20
4638370.000
  0
VERTEX
  8
Unknown_Area_Type
  10
443806.500
  20
4638373.000
  0
VERTEX
  8
Unknown_Area_Type
  10
443808.500
  20
4638373.500
  0
VERTEX
  8
Unknown_Area_Type
  10
444046.000
  20
4638422.500
  0
VERTEX
  8
Unknown_Area_Type
  10
444048.500
  20
4638423.000
  0
SEQEND
  8
Unknown_Area_Type
  0
INSERT
  8
FeatureAttribs
  2
FEATURE
  41
1
  42
1
  43
1
  50
0
  10
445156.753
  20
4636463.638
 66
1
  0
ATTRIB
  8
FeatureAttribs
 70
0
  1
PNOA-H_AMS_1956-57_33k_ES_PAN_2
  2
NAME
  10
445156.753
  20
4636463.638
 40
33.51096
  0
SEQEND
  0
POLYLINE
  8
Unknown_Area_Type
  70
1
  66
1
  0
VERTEX
  8
Unknown_Area_Type
  10
444048.500
  20
4638423.000
  0
VERTEX
  8
Unknown_Area_Type
  10
444046.000
  20
4638422.500
  0
VERTEX
  8
Unknown_Area_Type
  10
443808.500
  20
4638373.500
  0
VERTEX
  8
Unknown_Area_Type
  10
443806.500
  20
4638373.000
  0
VERTEX
  8
Unknown_Area_Type
  10
443806.000
  20
4638370.000
  0
VERTEX
  8
Unknown_Area_Type
  10
443519.000
  20
4634540.500
  0
VERTEX
  8
Unknown_Area_Type
  10
445891.500
  20
4634117.000
  0
VERTEX
  8
Unknown_Area_Type
  10
446447.500
  20
4634408.500
  0
VERTEX
  8
Unknown_Area_Type
  10
446448.500
  20
4634411.000
  0
VERTEX
  8
Unknown_Area_Type
  10
446697.500
  20
4638621.500
  0
VERTEX
  8
Unknown_Area_Type
  10
446483.000
  20
4638753.500
  0
VERTEX
  8
Unknown_Area_Type
  10
445614.500
  20
4638746.500
  0
VERTEX
  8
Unknown_Area_Type
  10
444048.500
  20
4638423.000
  0
SEQEND
  8
Unknown_Area_Type
  0
INSERT
  8
FeatureAttribs
  2
FEATURE
  41
1
  42
1
  43
1
  50
0
  10
439324.981
  20
4636657.186
 66
1
  0
ATTRIB
  8
FeatureAttribs
 70
0
  1
PNOA-H_AMS_1956-57_33k_ES_PAN_2
  2
NAME
  10
439324.981
  20
4636657.186
 40
33.51096
  0
SEQEND
  0
POLYLINE
  8
Unknown_Area_Type
  70
1
  66
1
  0
VERTEX
  8
Unknown_Area_Type
  10
437905.500
  20
4637204.000
  0
VERTEX
  8
Unknown_Area_Type
  10
438063.500
  20
4638586.000
  0
VERTEX
  8
Unknown_Area_Type
  10
439978.000
  20
4638992.500
  0
VERTEX
  8
Unknown_Area_Type
  10
440947.000
  20
4638494.000
  0
VERTEX
  8
Unknown_Area_Type
  10
440560.000
  20
4634636.000
  0
VERTEX
  8
Unknown_Area_Type
  10
440559.500
  20
4634634.000
  0
VERTEX
  8
Unknown_Area_Type
  10
440544.500
  20
4634626.500
  0
VERTEX
  8
Unknown_Area_Type
  10
440002.000
  20
4634361.500
  0
VERTEX
  8
Unknown_Area_Type
  10
437628.500
  20
4634772.000
  0
VERTEX
  8
Unknown_Area_Type
  10
437905.500
  20
4637199.500
  0
VERTEX
  8
Unknown_Area_Type
  10
437905.500
  20
4637204.000
  0
SEQEND
  8
Unknown_Area_Type
  0
INSERT
  8
FeatureAttribs
  2
FEATURE
  41
1
  42
1
  43
1
  50
0
  10
439324.981
  20
4636657.186
 66
1
  0
ATTRIB
  8
FeatureAttribs
 70
0
  1
PNOA-H_AMS_1956-57_33k_ES_PAN_2
  2
NAME
  10
439324.981
  20
4636657.186
 40
33.51096
  0
SEQEND
  0
POLYLINE
  8
Unknown_Area_Type
  70
1
  66
1
  0
VERTEX
  8
Unknown_Area_Type
  10
437905.500
  20
4637204.000
  0
VERTEX
  8
Unknown_Area_Type
  10
437905.500
  20
4637199.500
  0
VERTEX
  8
Unknown_Area_Type
  10
437628.500
  20
4634772.000
  0
VERTEX
  8
Unknown_Area_Type
  10
440002.000
  20
4634361.500
  0
VERTEX
  8
Unknown_Area_Type
  10
440544.500
  20
4634626.500
  0
VERTEX
  8
Unknown_Area_Type
  10
440559.500
  20
4634634.000
  0
VERTEX
  8
Unknown_Area_Type
  10
440560.000
  20
4634636.000
  0
VERTEX
  8
Unknown_Area_Type
  10
440947.000
  20
4638494.000
  0
VERTEX
  8
Unknown_Area_Type
  10
439978.000
  20
4638992.500
  0
VERTEX
  8
Unknown_Area_Type
  10
438063.500
  20
4638586.000
  0
VERTEX
  8
Unknown_Area_Type
  10
437905.500
  20
4637204.000
  0
SEQEND
  8
Unknown_Area_Type
  0
INSERT
  8
FeatureAttribs
  2
FEATURE
  41
1
  42
1
  43
1
  50
0
  10
436439.316
  20
4636794.576
 66
1
  0
ATTRIB
  8
FeatureAttribs
 70
0
  1
PNOA-H_AMS_1956-57_33k_ES_PAN_2
  2
NAME
  10
436439.316
  20
4636794.576
 40
33.51096
  0
SEQEND
  0
POLYLINE
  8
Unknown_Area_Type
  70
1
  66
1
  0
VERTEX
  8
Unknown_Area_Type
  10
435856.500
  20
4638854.500
  0
VERTEX
  8
Unknown_Area_Type
  10
437120.000
  20
4639135.500
  0
VERTEX
  8
Unknown_Area_Type
  10
438063.500
  20
4638586.000
  0
VERTEX
  8
Unknown_Area_Type
  10
437628.500
  20
4634772.000
  0
VERTEX
  8
Unknown_Area_Type
  10
437038.500
  20
4634513.000
  0
VERTEX
  8
Unknown_Area_Type
  10
434745.000
  20
4634906.500
  0
VERTEX
  8
Unknown_Area_Type
  10
435221.000
  20
4638712.500
  0
VERTEX
  8
Unknown_Area_Type
  10
435854.500
  20
4638854.000
  0
VERTEX
  8
Unknown_Area_Type
  10
435856.500
  20
4638854.500
  0
SEQEND
  8
Unknown_Area_Type
  0
INSERT
  8
FeatureAttribs
  2
FEATURE
  41
1
  42
1
  43
1
  50
0
  10
436439.316
  20
4636794.576
 66
1
  0
ATTRIB
  8
FeatureAttribs
 70
0
  1
PNOA-H_AMS_1956-57_33k_ES_PAN_2
  2
NAME
  10
436439.316
  20
4636794.576
 40
33.51096
  0
SEQEND
  0
POLYLINE
  8
Unknown_Area_Type
  70
1
  66
1
  0
VERTEX
  8
Unknown_Area_Type
  10
435856.500
  20
4638854.500
  0
VERTEX
  8
Unknown_Area_Type
  10
435854.500
  20
4638854.000
  0
VERTEX
  8
Unknown_Area_Type
  10
435221.000
  20
4638712.500
  0
VERTEX
  8
Unknown_Area_Type
  10
434745.000
  20
4634906.500
  0
VERTEX
  8
Unknown_Area_Type
  10
437038.500
  20
4634513.000
  0
VERTEX
  8
Unknown_Area_Type
  10
437628.500
  20
4634772.000
  0
VERTEX
  8
Unknown_Area_Type
  10
438063.500
  20
4638586.000
  0
VERTEX
  8
Unknown_Area_Type
  10
437120.000
  20
4639135.500
  0
VERTEX
  8
Unknown_Area_Type
  10
435856.500
  20
4638854.500
  0
SEQEND
  8
Unknown_Area_Type
  0
INSERT
  8
FeatureAttribs
  2
FEATURE
  41
1
  42
1
  43
1
  50
0
  10
439516.097
  20
4645547.833
 66
1
  0
ATTRIB
  8
FeatureAttribs
 70
0
  1
PNOA-H_AMS_1956-57_33k_ES_PAN_2
  2
NAME
  10
439516.097
  20
4645547.833
 40
33.51096
  0
SEQEND
  0
POLYLINE
  8
Unknown_Area_Type
  70
1
  66
1
  0
VERTEX
  8
Unknown_Area_Type
  10
441016.000
  20
4644104.000
  0
VERTEX
  8
Unknown_Area_Type
  10
441020.500
  20
4643473.500
  0
VERTEX
  8
Unknown_Area_Type
  10
440737.000
  20
4643300.000
  0
VERTEX
  8
Unknown_Area_Type
  10
437912.500
  20
4643446.000
  0
VERTEX
  8
Unknown_Area_Type
  10
437904.500
  20
4643446.500
  0
VERTEX
  8
Unknown_Area_Type
  10
437889.000
  20
4643458.000
  0
VERTEX
  8
Unknown_Area_Type
  10
438175.000
  20
4647625.000
  0
VERTEX
  8
Unknown_Area_Type
  10
438175.500
  20
4647626.500
  0
VERTEX
  8
Unknown_Area_Type
  10
439120.000
  20
4648013.500
  0
VERTEX
  8
Unknown_Area_Type
  10
440989.000
  20
4647571.000
  0
VERTEX
  8
Unknown_Area_Type
  10
441016.000
  20
4644110.000
  0
VERTEX
  8
Unknown_Area_Type
  10
441016.000
  20
4644104.000
  0
SEQEND
  8
Unknown_Area_Type
  0
INSERT
  8
FeatureAttribs
  2
FEATURE
  41
1
  42
1
  43
1
  50
0
  10
439516.097
  20
4645547.833
 66
1
  0
ATTRIB
  8
FeatureAttribs
 70
0
  1
PNOA-H_AMS_1956-57_33k_ES_PAN_2
  2
NAME
  10
439516.097
  20
4645547.833
 40
33.51096
  0
SEQEND
  0
POLYLINE
  8
Unknown_Area_Type
  70
1
  66
1
  0
VERTEX
  8
Unknown_Area_Type
  10
441016.000
  20
4644104.000
  0
VERTEX
  8
Unknown_Area_Type
  10
441016.000
  20
4644110.000
  0
VERTEX
  8
Unknown_Area_Type
  10
440989.000
  20
4647571.000
  0
VERTEX
  8
Unknown_Area_Type
  10
439120.000
  20
4648013.500
  0
VERTEX
  8
Unknown_Area_Type
  10
438175.500
  20
4647626.500
  0
VERTEX
  8
Unknown_Area_Type
  10
438175.000
  20
4647625.000
  0
VERTEX
  8
Unknown_Area_Type
  10
437889.000
  20
4643458.000
  0
VERTEX
  8
Unknown_Area_Type
  10
437904.500
  20
4643446.500
  0
VERTEX
  8
Unknown_Area_Type
  10
437912.500
  20
4643446.000
  0
VERTEX
  8
Unknown_Area_Type
  10
440737.000
  20
4643300.000
  0
VERTEX
  8
Unknown_Area_Type
  10
441020.500
  20
4643473.500
  0
VERTEX
  8
Unknown_Area_Type
  10
441016.000
  20
4644104.000
  0
SEQEND
  8
Unknown_Area_Type
  0
INSERT
  8
FeatureAttribs
  2
FEATURE
  41
1
  42
1
  43
1
  50
0
  10
442435.769
  20
4645582.531
 66
1
  0
ATTRIB
  8
FeatureAttribs
 70
0
  1
PNOA-H_AMS_1956-57_33k_ES_PAN_2
  2
NAME
  10
442435.769
  20
4645582.531
 40
33.51096
  0
SEQEND
  0
POLYLINE
  8
Unknown_Area_Type
  70
1
  66
1
  0
VERTEX
  8
Unknown_Area_Type
  10
442211.000
  20
4648060.000
  0
VERTEX
  8
Unknown_Area_Type
  10
443750.500
  20
4647645.500
  0
VERTEX
  8
Unknown_Area_Type
  10
443944.000
  20
4643444.500
  0
VERTEX
  8
Unknown_Area_Type
  10
443663.000
  20
4643273.500
  0
VERTEX
  8
Unknown_Area_Type
  10
443655.500
  20
4643270.500
  0
VERTEX
  8
Unknown_Area_Type
  10
441020.500
  20
4643473.500
  0
VERTEX
  8
Unknown_Area_Type
  10
440989.000
  20
4647571.000
  0
VERTEX
  8
Unknown_Area_Type
  10
442209.500
  20
4648059.500
  0
VERTEX
  8
Unknown_Area_Type
  10
442211.000
  20
4648060.000
  0
SEQEND
  8
Unknown_Area_Type
  0
INSERT
  8
FeatureAttribs
  2
FEATURE
  41
1
  42
1
  43
1
  50
0
  10
442435.769
  20
4645582.531
 66
1
  0
ATTRIB
  8
FeatureAttribs
 70
0
  1
PNOA-H_AMS_1956-57_33k_ES_PAN_2
  2
NAME
  10
442435.769
  20
4645582.531
 40
33.51096
  0
SEQEND
  0
POLYLINE
  8
Unknown_Area_Type
  70
1
  66
1
  0
VERTEX
  8
Unknown_Area_Type
  10
442211.000
  20
4648060.000
  0
VERTEX
  8
Unknown_Area_Type
  10
442209.500
  20
4648059.500
  0
VERTEX
  8
Unknown_Area_Type
  10
440989.000
  20
4647571.000
  0
VERTEX
  8
Unknown_Area_Type
  10
441020.500
  20
4643473.500
  0
VERTEX
  8
Unknown_Area_Type
  10
443655.500
  20
4643270.500
  0
VERTEX
  8
Unknown_Area_Type
  10
443663.000
  20
4643273.500
  0
VERTEX
  8
Unknown_Area_Type
  10
443944.000
  20
4643444.500
  0
VERTEX
  8
Unknown_Area_Type
  10
443750.500
  20
4647645.500
  0
VERTEX
  8
Unknown_Area_Type
  10
442211.000
  20
4648060.000
  0
SEQEND
  8
Unknown_Area_Type
  0
INSERT
  8
FeatureAttribs
  2
FEATURE
  41
1
  42
1
  43
1
  50
0
  10
433520.810
  20
4645786.130
 66
1
  0
ATTRIB
  8
FeatureAttribs
 70
0
  1
PNOA-H_AMS_1956-57_33k_ES_PAN_2
  2
NAME
  10
433520.810
  20
4645786.130
 40
33.51096
  0
SEQEND
  0
POLYLINE
  8
Unknown_Area_Type
  70
1
  66
1
  0
VERTEX
  8
Unknown_Area_Type
  10
432063.500
  20
4647739.500
  0
VERTEX
  8
Unknown_Area_Type
  10
433094.000
  20
4648199.000
  0
VERTEX
  8
Unknown_Area_Type
  10
433116.500
  20
4648209.000
  0
VERTEX
  8
Unknown_Area_Type
  10
433119.500
  20
4648209.000
  0
VERTEX
  8
Unknown_Area_Type
  10
435095.500
  20
4647703.500
  0
VERTEX
  8
Unknown_Area_Type
  10
434957.500
  20
4644107.000
  0
VERTEX
  8
Unknown_Area_Type
  10
434957.500
  20
4644104.000
  0
VERTEX
  8
Unknown_Area_Type
  10
434937.000
  20
4643565.500
  0
VERTEX
  8
Unknown_Area_Type
  10
432316.500
  20
4643526.000
  0
VERTEX
  8
Unknown_Area_Type
  10
431976.000
  20
4644439.000
  0
VERTEX
  8
Unknown_Area_Type
  10
432063.500
  20
4647739.500
  0
SEQEND
  8
Unknown_Area_Type
  0
INSERT
  8
FeatureAttribs
  2
FEATURE
  41
1
  42
1
  43
1
  50
0
  10
433520.810
  20
4645786.130
 66
1
  0
ATTRIB
  8
FeatureAttribs
 70
0
  1
PNOA-H_AMS_1956-57_33k_ES_PAN_2
  2
NAME
  10
433520.810
  20
4645786.130
 40
33.51096
  0
SEQEND
  0
POLYLINE
  8
Unknown_Area_Type
  70
1
  66
1
  0
VERTEX
  8
Unknown_Area_Type
  10
432063.500
  20
4647739.500
  0
VERTEX
  8
Unknown_Area_Type
  10
431976.000
  20
4644439.000
  0
VERTEX
  8
Unknown_Area_Type
  10
432316.500
  20
4643526.000
  0
VERTEX
  8
Unknown_Area_Type
  10
434937.000
  20
4643565.500
  0
VERTEX
  8
Unknown_Area_Type
  10
434957.500
  20
4644104.000
  0
VERTEX
  8
Unknown_Area_Type
  10
434957.500
  20
4644107.000
  0
VERTEX
  8
Unknown_Area_Type
  10
435095.500
  20
4647703.500
  0
VERTEX
  8
Unknown_Area_Type
  10
433119.500
  20
4648209.000
  0
VERTEX
  8
Unknown_Area_Type
  10
433116.500
  20
4648209.000
  0
VERTEX
  8
Unknown_Area_Type
  10
433094.000
  20
4648199.000
  0
VERTEX
  8
Unknown_Area_Type
  10
432063.500
  20
4647739.500
  0
SEQEND
  8
Unknown_Area_Type
  0
INSERT
  8
FeatureAttribs
  2
FEATURE
  41
1
  42
1
  43
1
  50
0
  10
445266.132
  20
4645658.736
 66
1
  0
ATTRIB
  8
FeatureAttribs
 70
0
  1
PNOA-H_AMS_1956-57_33k_ES_PAN_2
  2
NAME
  10
445266.132
  20
4645658.736
 40
33.51096
  0
SEQEND
  0
POLYLINE
  8
Unknown_Area_Type
  70
1
  66
1
  0
VERTEX
  8
Unknown_Area_Type
  10
444049.500
  20
4647746.000
  0
VERTEX
  8
Unknown_Area_Type
  10
445175.000
  20
4648123.500
  0
VERTEX
  8
Unknown_Area_Type
  10
445220.000
  20
4648138.500
  0
VERTEX
  8
Unknown_Area_Type
  10
445222.500
  20
4648138.500
  0
VERTEX
  8
Unknown_Area_Type
  10
446590.500
  20
4647697.500
  0
VERTEX
  8
Unknown_Area_Type
  10
446765.500
  20
4643432.500
  0
VERTEX
  8
Unknown_Area_Type
  10
446765.500
  20
4643425.500
  0
VERTEX
  8
Unknown_Area_Type
  10
446764.500
  20
4643424.500
  0
VERTEX
  8
Unknown_Area_Type
  10
446663.500
  20
4643362.000
  0
VERTEX
  8
Unknown_Area_Type
  10
443944.000
  20
4643444.500
  0
VERTEX
  8
Unknown_Area_Type
  10
443750.500
  20
4647645.500
  0
VERTEX
  8
Unknown_Area_Type
  10
444048.000
  20
4647745.500
  0
VERTEX
  8
Unknown_Area_Type
  10
444049.500
  20
4647746.000
  0
SEQEND
  8
Unknown_Area_Type
  0
INSERT
  8
FeatureAttribs
  2
FEATURE
  41
1
  42
1
  43
1
  50
0
  10
445266.132
  20
4645658.736
 66
1
  0
ATTRIB
  8
FeatureAttribs
 70
0
  1
PNOA-H_AMS_1956-57_33k_ES_PAN_2
  2
NAME
  10
445266.132
  20
4645658.736
 40
33.51096
  0
SEQEND
  0
POLYLINE
  8
Unknown_Area_Type
  70
1
  66
1
  0
VERTEX
  8
Unknown_Area_Type
  10
444049.500
  20
4647746.000
  0
VERTEX
  8
Unknown_Area_Type
  10
444048.000
  20
4647745.500
  0
VERTEX
  8
Unknown_Area_Type
  10
443750.500
  20
4647645.500
  0
VERTEX
  8
Unknown_Area_Type
  10
443944.000
  20
4643444.500
  0
VERTEX
  8
Unknown_Area_Type
  10
446663.500
  20
4643362.000
  0
VERTEX
  8
Unknown_Area_Type
  10
446764.500
  20
4643424.500
  0
VERTEX
  8
Unknown_Area_Type
  10
446765.500
  20
4643425.500
  0
VERTEX
  8
Unknown_Area_Type
  10
446765.500
  20
4643432.500
  0
VERTEX
  8
Unknown_Area_Type
  10
446590.500
  20
4647697.500
  0
VERTEX
  8
Unknown_Area_Type
  10
445222.500
  20
4648138.500
  0
VERTEX
  8
Unknown_Area_Type
  10
445220.000
  20
4648138.500
  0
VERTEX
  8
Unknown_Area_Type
  10
445175.000
  20
4648123.500
  0
VERTEX
  8
Unknown_Area_Type
  10
444049.500
  20
4647746.000
  0
SEQEND
  8
Unknown_Area_Type
  0
INSERT
  8
FeatureAttribs
  2
FEATURE
  41
1
  42
1
  43
1
  50
0
  10
429150.525
  20
4646724.480
 66
1
  0
ATTRIB
  8
FeatureAttribs
 70
0
  1
PNOA-H_AMS_1956-57_33k_ES_PAN_2
  2
NAME
  10
429150.525
  20
4646724.480
 40
33.51096
  0
SEQEND
  0
POLYLINE
  8
Unknown_Area_Type
  70
1
  66
1
  0
VERTEX
  8
Unknown_Area_Type
  10
429214.445
  20
4645593.979
  0
VERTEX
  8
Unknown_Area_Type
  10
429075.334
  20
4645652.146
  0
VERTEX
  8
Unknown_Area_Type
  10
429075.334
  20
4647224.570
  0
VERTEX
  8
Unknown_Area_Type
  10
429098.000
  20
4647791.500
  0
VERTEX
  8
Unknown_Area_Type
  10
429236.987
  20
4647854.981
  0
VERTEX
  8
Unknown_Area_Type
  10
429236.598
  20
4647815.946
  0
VERTEX
  8
Unknown_Area_Type
  10
429214.445
  20
4645593.979
  0
SEQEND
  8
Unknown_Area_Type
  0
INSERT
  8
FeatureAttribs
  2
FEATURE
  41
1
  42
1
  43
1
  50
0
  10
430693.090
  20
4646501.815
 66
1
  0
ATTRIB
  8
FeatureAttribs
 70
0
  1
PNOA-H_AMS_1956-57_33k_ES_PAN_2
  2
NAME
  10
430693.090
  20
4646501.815
 40
33.51096
  0
SEQEND
  0
POLYLINE
  8
Unknown_Area_Type
  70
1
  66
1
  0
VERTEX
  8
Unknown_Area_Type
  10
429236.987
  20
4647854.981
  0
VERTEX
  8
Unknown_Area_Type
  10
430092.000
  20
4648245.500
  0
VERTEX
  8
Unknown_Area_Type
  10
431760.000
  20
4647817.000
  0
VERTEX
  8
Unknown_Area_Type
  10
431762.000
  20
4647816.500
  0
VERTEX
  8
Unknown_Area_Type
  10
432063.500
  20
4647739.500
  0
VERTEX
  8
Unknown_Area_Type
  10
431977.500
  20
4644483.000
  0
VERTEX
  8
Unknown_Area_Type
  10
431975.500
  20
4644439.500
  0
VERTEX
  8
Unknown_Area_Type
  10
429214.445
  20
4645593.979
  0
VERTEX
  8
Unknown_Area_Type
  10
429236.598
  20
4647815.946
  0
VERTEX
  8
Unknown_Area_Type
  10
429236.987
  20
4647854.981
  0
SEQEND
  8
Unknown_Area_Type
  0
INSERT
  8
FeatureAttribs
  2
FEATURE
  41
1
  42
1
  43
1
  50
0
  10
430693.090
  20
4646501.815
 66
1
  0
ATTRIB
  8
FeatureAttribs
 70
0
  1
PNOA-H_AMS_1956-57_33k_ES_PAN_2
  2
NAME
  10
430693.090
  20
4646501.815
 40
33.51096
  0
SEQEND
  0
POLYLINE
  8
Unknown_Area_Type
  70
1
  66
1
  0
VERTEX
  8
Unknown_Area_Type
  10
429236.987
  20
4647854.981
  0
VERTEX
  8
Unknown_Area_Type
  10
429236.598
  20
4647815.946
  0
VERTEX
  8
Unknown_Area_Type
  10
429214.445
  20
4645593.979
  0
VERTEX
  8
Unknown_Area_Type
  10
431975.500
  20
4644439.500
  0
VERTEX
  8
Unknown_Area_Type
  10
431977.500
  20
4644483.000
  0
VERTEX
  8
Unknown_Area_Type
  10
432063.500
  20
4647739.500
  0
VERTEX
  8
Unknown_Area_Type
  10
431762.000
  20
4647816.500
  0
VERTEX
  8
Unknown_Area_Type
  10
431760.000
  20
4647817.000
  0
VERTEX
  8
Unknown_Area_Type
  10
430092.000
  20
4648245.500
  0
VERTEX
  8
Unknown_Area_Type
  10
429236.987
  20
4647854.981
  0
SEQEND
  8
Unknown_Area_Type
  0
INSERT
  8
FeatureAttribs
  2
FEATURE
  41
1
  42
1
  43
1
  50
0
  10
456174.830
  20
4646609.327
 66
1
  0
ATTRIB
  8
FeatureAttribs
 70
0
  1
PNOA-H_AMS_1956-57_33k_ES_PAN_2
  2
NAME
  10
456174.830
  20
4646609.327
 40
33.51096
  0
SEQEND
  0
POLYLINE
  8
Unknown_Area_Type
  70
1
  66
1
  0
VERTEX
  8
Unknown_Area_Type
  10
456853.196
  20
4647841.586
  0
VERTEX
  8
Unknown_Area_Type
  10
456851.692
  20
4647594.303
  0
VERTEX
  8
Unknown_Area_Type
  10
456838.128
  20
4645363.153
  0
VERTEX
  8
Unknown_Area_Type
  10
455421.000
  20
4645435.500
  0
VERTEX
  8
Unknown_Area_Type
  10
455528.000
  20
4647633.000
  0
VERTEX
  8
Unknown_Area_Type
  10
456009.500
  20
4647866.000
  0
VERTEX
  8
Unknown_Area_Type
  10
456269.500
  20
4647955.000
  0
VERTEX
  8
Unknown_Area_Type
  10
456271.000
  20
4647955.500
  0
VERTEX
  8
Unknown_Area_Type
  10
456853.196
  20
4647841.586
  0
SEQEND
  8
Unknown_Area_Type
  0
INSERT
  8
FeatureAttribs
  2
FEATURE
  41
1
  42
1
  43
1
  50
0
  10
456174.830
  20
4646609.327
 66
1
  0
ATTRIB
  8
FeatureAttribs
 70
0
  1
PNOA-H_AMS_1956-57_33k_ES_PAN_2
  2
NAME
  10
456174.830
  20
4646609.327
 40
33.51096
  0
SEQEND
  0
POLYLINE
  8
Unknown_Area_Type
  70
1
  66
1
  0
VERTEX
  8
Unknown_Area_Type
  10
456853.196
  20
4647841.586
  0
VERTEX
  8
Unknown_Area_Type
  10
456271.000
  20
4647955.500
  0
VERTEX
  8
Unknown_Area_Type
  10
456269.500
  20
4647955.000
  0
VERTEX
  8
Unknown_Area_Type
  10
456009.500
  20
4647866.000
  0
VERTEX
  8
Unknown_Area_Type
  10
455528.000
  20
4647633.000
  0
VERTEX
  8
Unknown_Area_Type
  10
455421.000
  20
4645435.500
  0
VERTEX
  8
Unknown_Area_Type
  10
456838.128
  20
4645363.153
  0
VERTEX
  8
Unknown_Area_Type
  10
456851.692
  20
4647594.303
  0
VERTEX
  8
Unknown_Area_Type
  10
456853.196
  20
4647841.586
  0
SEQEND
  8
Unknown_Area_Type
  0
INSERT
  8
FeatureAttribs
  2
FEATURE
  41
1
  42
1
  43
1
  50
0
  10
436520.076
  20
4645709.468
 66
1
  0
ATTRIB
  8
FeatureAttribs
 70
0
  1
PNOA-H_AMS_1956-57_33k_ES_PAN_2
  2
NAME
  10
436520.076
  20
4645709.468
 40
33.51096
  0
SEQEND
  0
POLYLINE
  8
Unknown_Area_Type
  70
1
  66
1
  0
VERTEX
  8
Unknown_Area_Type
  10
435857.000
  20
4648031.000
  0
VERTEX
  8
Unknown_Area_Type
  10
436123.000
  20
4648145.500
  0
VERTEX
  8
Unknown_Area_Type
  10
436125.500
  20
4648145.500
  0
VERTEX
  8
Unknown_Area_Type
  10
438175.500
  20
4647626.000
  0
VERTEX
  8
Unknown_Area_Type
  10
437889.000
  20
4643458.000
  0
VERTEX
  8
Unknown_Area_Type
  10
435027.000
  20
4643505.000
  0
VERTEX
  8
Unknown_Area_Type
  10
434937.000
  20
4643565.500
  0
VERTEX
  8
Unknown_Area_Type
  10
435095.500
  20
4647703.500
  0
VERTEX
  8
Unknown_Area_Type
  10
435855.500
  20
4648030.500
  0
VERTEX
  8
Unknown_Area_Type
  10
435857.000
  20
4648031.000
  0
SEQEND
  8
Unknown_Area_Type
  0
INSERT
  8
FeatureAttribs
  2
FEATURE
  41
1
  42
1
  43
1
  50
0
  10
436520.076
  20
4645709.468
 66
1
  0
ATTRIB
  8
FeatureAttribs
 70
0
  1
PNOA-H_AMS_1956-57_33k_ES_PAN_2
  2
NAME
  10
436520.076
  20
4645709.468
 40
33.51096
  0
SEQEND
  0
POLYLINE
  8
Unknown_Area_Type
  70
1
  66
1
  0
VERTEX
  8
Unknown_Area_Type
  10
435857.000
  20
4648031.000
  0
VERTEX
  8
Unknown_Area_Type
  10
435855.500
  20
4648030.500
  0
VERTEX
  8
Unknown_Area_Type
  10
435095.500
  20
4647703.500
  0
VERTEX
  8
Unknown_Area_Type
  10
434937.000
  20
4643565.500
  0
VERTEX
  8
Unknown_Area_Type
  10
435027.000
  20
4643505.000
  0
VERTEX
  8
Unknown_Area_Type
  10
437889.000
  20
4643458.000
  0
VERTEX
  8
Unknown_Area_Type
  10
438175.500
  20
4647626.000
  0
VERTEX
  8
Unknown_Area_Type
  10
436125.500
  20
4648145.500
  0
VERTEX
  8
Unknown_Area_Type
  10
436123.000
  20
4648145.500
  0
VERTEX
  8
Unknown_Area_Type
  10
435857.000
  20
4648031.000
  0
SEQEND
  8
Unknown_Area_Type
  0
INSERT
  8
FeatureAttribs
  2
FEATURE
  41
1
  42
1
  43
1
  50
0
  10
451046.885
  20
4645695.805
 66
1
  0
ATTRIB
  8
FeatureAttribs
 70
0
  1
PNOA-H_AMS_1956-57_33k_ES_PAN_2
  2
NAME
  10
451046.885
  20
4645695.805
 40
33.51096
  0
SEQEND
  0
POLYLINE
  8
Unknown_Area_Type
  70
1
  66
1
  0
VERTEX
  8
Unknown_Area_Type
  10
449524.000
  20
4647742.000
  0
VERTEX
  8
Unknown_Area_Type
  10
449528.500
  20
4647743.500
  0
VERTEX
  8
Unknown_Area_Type
  10
451154.000
  20
4648231.000
  0
VERTEX
  8
Unknown_Area_Type
  10
451159.000
  20
4648230.000
  0
VERTEX
  8
Unknown_Area_Type
  10
452492.000
  20
4647744.500
  0
VERTEX
  8
Unknown_Area_Type
  10
452525.500
  20
4644142.500
  0
VERTEX
  8
Unknown_Area_Type
  10
452525.500
  20
4644104.000
  0
VERTEX
  8
Unknown_Area_Type
  10
452532.500
  20
4643370.000
  0
VERTEX
  8
Unknown_Area_Type
  10
449631.500
  20
4643393.000
  0
VERTEX
  8
Unknown_Area_Type
  10
449524.000
  20
4647741.000
  0
VERTEX
  8
Unknown_Area_Type
  10
449524.000
  20
4647742.000
  0
SEQEND
  8
Unknown_Area_Type
  0
INSERT
  8
FeatureAttribs
  2
FEATURE
  41
1
  42
1
  43
1
  50
0
  10
451046.885
  20
4645695.805
 66
1
  0
ATTRIB
  8
FeatureAttribs
 70
0
  1
PNOA-H_AMS_1956-57_33k_ES_PAN_2
  2
NAME
  10
451046.885
  20
4645695.805
 40
33.51096
  0
SEQEND
  0
POLYLINE
  8
Unknown_Area_Type
  70
1
  66
1
  0
VERTEX
  8
Unknown_Area_Type
  10
449524.000
  20
4647742.000
  0
VERTEX
  8
Unknown_Area_Type
  10
449524.000
  20
4647741.000
  0
VERTEX
  8
Unknown_Area_Type
  10
449631.500
  20
4643393.000
  0
VERTEX
  8
Unknown_Area_Type
  10
452532.500
  20
4643370.000
  0
VERTEX
  8
Unknown_Area_Type
  10
452525.500
  20
4644104.000
  0
VERTEX
  8
Unknown_Area_Type
  10
452525.500
  20
4644142.500
  0
VERTEX
  8
Unknown_Area_Type
  10
452492.000
  20
4647744.500
  0
VERTEX
  8
Unknown_Area_Type
  10
451159.000
  20
4648230.000
  0
VERTEX
  8
Unknown_Area_Type
  10
451154.000
  20
4648231.000
  0
VERTEX
  8
Unknown_Area_Type
  10
449528.500
  20
4647743.500
  0
VERTEX
  8
Unknown_Area_Type
  10
449524.000
  20
4647742.000
  0
SEQEND
  8
Unknown_Area_Type
  0
INSERT
  8
FeatureAttribs
  2
FEATURE
  41
1
  42
1
  43
1
  50
0
  10
455962.368
  20
4644084.466
 66
1
  0
ATTRIB
  8
FeatureAttribs
 70
0
  1
PNOA-H_AMS_1956-57_33k_ES_PAN_2
  2
NAME
  10
455962.368
  20
4644084.466
 40
33.51096
  0
SEQEND
  0
POLYLINE
  8
Unknown_Area_Type
  70
1
  66
1
  0
VERTEX
  8
Unknown_Area_Type
  10
456838.130
  20
4645363.395
  0
VERTEX
  8
Unknown_Area_Type
  10
456837.630
  20
4645281.204
  0
VERTEX
  8
Unknown_Area_Type
  10
456823.575
  20
4642968.114
  0
VERTEX
  8
Unknown_Area_Type
  10
456822.848
  20
4642848.479
  0
VERTEX
  8
Unknown_Area_Type
  10
455547.000
  20
4642835.000
  0
VERTEX
  8
Unknown_Area_Type
  10
454805.500
  20
4643338.000
  0
VERTEX
  8
Unknown_Area_Type
  10
455421.000
  20
4645434.500
  0
VERTEX
  8
Unknown_Area_Type
  10
455421.000
  20
4645435.500
  0
VERTEX
  8
Unknown_Area_Type
  10
456838.130
  20
4645363.395
  0
SEQEND
  8
Unknown_Area_Type
  0
INSERT
  8
FeatureAttribs
  2
FEATURE
  41
1
  42
1
  43
1
  50
0
  10
455962.368
  20
4644084.466
 66
1
  0
ATTRIB
  8
FeatureAttribs
 70
0
  1
PNOA-H_AMS_1956-57_33k_ES_PAN_2
  2
NAME
  10
455962.368
  20
4644084.466
 40
33.51096
  0
SEQEND
  0
POLYLINE
  8
Unknown_Area_Type
  70
1
  66
1
  0
VERTEX
  8
Unknown_Area_Type
  10
456838.130
  20
4645363.395
  0
VERTEX
  8
Unknown_Area_Type
  10
455421.000
  20
4645435.500
  0
VERTEX
  8
Unknown_Area_Type
  10
455421.000
  20
4645434.500
  0
VERTEX
  8
Unknown_Area_Type
  10
454805.500
  20
4643338.000
  0
VERTEX
  8
Unknown_Area_Type
  10
455547.000
  20
4642835.000
  0
VERTEX
  8
Unknown_Area_Type
  10
456822.848
  20
4642848.479
  0
VERTEX
  8
Unknown_Area_Type
  10
456823.575
  20
4642968.114
  0
VERTEX
  8
Unknown_Area_Type
  10
456837.630
  20
4645281.204
  0
VERTEX
  8
Unknown_Area_Type
  10
456838.130
  20
4645363.395
  0
SEQEND
  8
Unknown_Area_Type
  0
INSERT
  8
FeatureAttribs
  2
FEATURE
  41
1
  42
1
  43
1
  50
0
  10
454426.243
  20
4649989.121
 66
1
  0
ATTRIB
  8
FeatureAttribs
 70
0
  1
PNOA-H_AMS_1956-57_33k_ES_PAN_2
  2
NAME
  10
454426.243
  20
4649989.121
 40
33.51096
  0
SEQEND
  0
POLYLINE
  8
Unknown_Area_Type
  70
1
  66
1
  0
VERTEX
  8
Unknown_Area_Type
  10
455153.387
  20
4649918.243
  0
VERTEX
  8
Unknown_Area_Type
  10
453721.321
  20
4649927.302
  0
VERTEX
  8
Unknown_Area_Type
  10
453737.196
  20
4650060.000
  0
VERTEX
  8
Unknown_Area_Type
  10
455094.154
  20
4650060.000
  0
VERTEX
  8
Unknown_Area_Type
  10
455153.387
  20
4649918.243
  0
SEQEND
  8
Unknown_Area_Type
  0
INSERT
  8
FeatureAttribs
  2
FEATURE
  41
1
  42
1
  43
1
  50
0
  10
454653.982
  20
4648774.820
 66
1
  0
ATTRIB
  8
FeatureAttribs
 70
0
  1
PNOA-H_AMS_1956-57_33k_ES_PAN_2
  2
NAME
  10
454653.982
  20
4648774.820
 40
33.51096
  0
SEQEND
  0
POLYLINE
  8
Unknown_Area_Type
  70
1
  66
1
  0
VERTEX
  8
Unknown_Area_Type
  10
455153.387
  20
4649918.243
  0
VERTEX
  8
Unknown_Area_Type
  10
456010.500
  20
4647867.000
  0
VERTEX
  8
Unknown_Area_Type
  10
456010.500
  20
4647866.000
  0
VERTEX
  8
Unknown_Area_Type
  10
455996.500
  20
4647859.000
  0
VERTEX
  8
Unknown_Area_Type
  10
455527.500
  20
4647632.500
  0
VERTEX
  8
Unknown_Area_Type
  10
453499.000
  20
4648069.000
  0
VERTEX
  8
Unknown_Area_Type
  10
453721.321
  20
4649927.302
  0
VERTEX
  8
Unknown_Area_Type
  10
455153.387
  20
4649918.243
  0
SEQEND
  8
Unknown_Area_Type
  0
INSERT
  8
FeatureAttribs
  2
FEATURE
  41
1
  42
1
  43
1
  50
0
  10
454653.982
  20
4648774.820
 66
1
  0
ATTRIB
  8
FeatureAttribs
 70
0
  1
PNOA-H_AMS_1956-57_33k_ES_PAN_2
  2
NAME
  10
454653.982
  20
4648774.820
 40
33.51096
  0
SEQEND
  0
POLYLINE
  8
Unknown_Area_Type
  70
1
  66
1
  0
VERTEX
  8
Unknown_Area_Type
  10
455153.387
  20
4649918.243
  0
VERTEX
  8
Unknown_Area_Type
  10
453721.321
  20
4649927.302
  0
VERTEX
  8
Unknown_Area_Type
  10
453499.000
  20
4648069.000
  0
VERTEX
  8
Unknown_Area_Type
  10
455527.500
  20
4647632.500
  0
VERTEX
  8
Unknown_Area_Type
  10
455996.500
  20
4647859.000
  0
VERTEX
  8
Unknown_Area_Type
  10
456010.500
  20
4647866.000
  0
VERTEX
  8
Unknown_Area_Type
  10
456010.500
  20
4647867.000
  0
VERTEX
  8
Unknown_Area_Type
  10
455153.387
  20
4649918.243
  0
SEQEND
  8
Unknown_Area_Type
  0
INSERT
  8
FeatureAttribs
  2
FEATURE
  41
1
  42
1
  43
1
  50
0
  10
456700.618
  20
4649983.705
 66
1
  0
ATTRIB
  8
FeatureAttribs
 70
0
  1
PNOA-H_AMS_1956-57_33k_ES_PAN_2
  2
NAME
  10
456700.618
  20
4649983.705
 40
33.51096
  0
SEQEND
  0
POLYLINE
  8
Unknown_Area_Type
  70
1
  66
1
  0
VERTEX
  8
Unknown_Area_Type
  10
456865.787
  20
4650060.000
  0
VERTEX
  8
Unknown_Area_Type
  10
456865.787
  20
4649911.978
  0
VERTEX
  8
Unknown_Area_Type
  10
456865.759
  20
4649907.410
  0
VERTEX
  8
Unknown_Area_Type
  10
456525.789
  20
4649909.561
  0
VERTEX
  8
Unknown_Area_Type
  10
456545.391
  20
4650060.000
  0
VERTEX
  8
Unknown_Area_Type
  10
456865.787
  20
4650060.000
  0
SEQEND
  8
Unknown_Area_Type
  0
INSERT
  8
FeatureAttribs
  2
FEATURE
  41
1
  42
1
  43
1
  50
0
  10
456865.773
  20
4649908.552
 66
1
  0
ATTRIB
  8
FeatureAttribs
 70
0
  1
PNOA-H_AMS_1956-57_33k_ES_PAN_2
  2
NAME
  10
456865.773
  20
4649908.552
 40
33.51096
  0
SEQEND
  0
POLYLINE
  8
Unknown_Area_Type
  70
1
  66
1
  0
VERTEX
  8
Unknown_Area_Type
  10
456865.787
  20
4649911.978
  0
VERTEX
  8
Unknown_Area_Type
  10
456865.787
  20
4649907.410
  0
VERTEX
  8
Unknown_Area_Type
  10
456865.759
  20
4649907.410
  0
VERTEX
  8
Unknown_Area_Type
  10
456865.787
  20
4649911.978
  0
SEQEND
  8
Unknown_Area_Type
  0
INSERT
  8
FeatureAttribs
  2
FEATURE
  41
1
  42
1
  43
1
  50
0
  10
456624.571
  20
4648813.298
 66
1
  0
ATTRIB
  8
FeatureAttribs
 70
0
  1
PNOA-H_AMS_1956-57_33k_ES_PAN_2
  2
NAME
  10
456624.571
  20
4648813.298
 40
33.51096
  0
SEQEND
  0
POLYLINE
  8
Unknown_Area_Type
  70
1
  66
1
  0
VERTEX
  8
Unknown_Area_Type
  10
456853.194
  20
4647841.249
  0
VERTEX
  8
Unknown_Area_Type
  10
456274.500
  20
4647954.500
  0
VERTEX
  8
Unknown_Area_Type
  10
456271.500
  20
4647955.500
  0
VERTEX
  8
Unknown_Area_Type
  10
456271.500
  20
4647958.000
  0
VERTEX
  8
Unknown_Area_Type
  10
456337.500
  20
4648461.000
  0
VERTEX
  8
Unknown_Area_Type
  10
456337.500
  20
4648464.500
  0
VERTEX
  8
Unknown_Area_Type
  10
456525.789
  20
4649909.561
  0
VERTEX
  8
Unknown_Area_Type
  10
456865.759
  20
4649907.410
  0
VERTEX
  8
Unknown_Area_Type
  10
456853.194
  20
4647841.249
  0
SEQEND
  8
Unknown_Area_Type
  0
INSERT
  8
FeatureAttribs
  2
FEATURE
  41
1
  42
1
  43
1
  50
0
  10
456624.571
  20
4648813.298
 66
1
  0
ATTRIB
  8
FeatureAttribs
 70
0
  1
PNOA-H_AMS_1956-57_33k_ES_PAN_2
  2
NAME
  10
456624.571
  20
4648813.298
 40
33.51096
  0
SEQEND
  0
POLYLINE
  8
Unknown_Area_Type
  70
1
  66
1
  0
VERTEX
  8
Unknown_Area_Type
  10
456853.194
  20
4647841.249
  0
VERTEX
  8
Unknown_Area_Type
  10
456865.759
  20
4649907.410
  0
VERTEX
  8
Unknown_Area_Type
  10
456525.789
  20
4649909.561
  0
VERTEX
  8
Unknown_Area_Type
  10
456337.500
  20
4648464.500
  0
VERTEX
  8
Unknown_Area_Type
  10
456337.500
  20
4648461.000
  0
VERTEX
  8
Unknown_Area_Type
  10
456271.500
  20
4647958.000
  0
VERTEX
  8
Unknown_Area_Type
  10
456271.500
  20
4647955.500
  0
VERTEX
  8
Unknown_Area_Type
  10
456274.500
  20
4647954.500
  0
VERTEX
  8
Unknown_Area_Type
  10
456853.194
  20
4647841.249
  0
SEQEND
  8
Unknown_Area_Type
  0
INSERT
  8
FeatureAttribs
  2
FEATURE
  41
1
  42
1
  43
1
  50
0
  10
429119.237
  20
4640444.901
 66
1
  0
ATTRIB
  8
FeatureAttribs
 70
0
  1
PNOA-H_AMS_1956-57_33k_ES_PAN_2
  2
NAME
  10
429119.237
  20
4640444.901
 40
33.51096
  0
SEQEND
  0
POLYLINE
  8
Unknown_Area_Type
  70
1
  66
1
  0
VERTEX
  8
Unknown_Area_Type
  10
429149.411
  20
4639066.130
  0
VERTEX
  8
Unknown_Area_Type
  10
429075.334
  20
4639122.128
  0
VERTEX
  8
Unknown_Area_Type
  10
429075.334
  20
4641552.257
  0
VERTEX
  8
Unknown_Area_Type
  10
429176.875
  20
4641823.671
  0
VERTEX
  8
Unknown_Area_Type
  10
429167.440
  20
4640876.623
  0
VERTEX
  8
Unknown_Area_Type
  10
429149.411
  20
4639066.130
  0
SEQEND
  8
Unknown_Area_Type
  0
INSERT
  8
FeatureAttribs
  2
FEATURE
  41
1
  42
1
  43
1
  50
0
  10
429914.855
  20
4640092.102
 66
1
  0
ATTRIB
  8
FeatureAttribs
 70
0
  1
PNOA-H_AMS_1956-57_33k_ES_PAN_2
  2
NAME
  10
429914.855
  20
4640092.102
 40
33.51096
  0
SEQEND
  0
POLYLINE
  8
Unknown_Area_Type
  70
1
  66
1
  0
VERTEX
  8
Unknown_Area_Type
  10
429176.875
  20
4641823.671
  0
VERTEX
  8
Unknown_Area_Type
  10
429229.000
  20
4641963.000
  0
VERTEX
  8
Unknown_Area_Type
  10
429229.500
  20
4641965.000
  0
VERTEX
  8
Unknown_Area_Type
  10
431282.500
  20
4639657.500
  0
VERTEX
  8
Unknown_Area_Type
  10
431289.000
  20
4639503.000
  0
VERTEX
  8
Unknown_Area_Type
  10
429518.000
  20
4638787.500
  0
VERTEX
  8
Unknown_Area_Type
  10
429149.411
  20
4639066.130
  0
VERTEX
  8
Unknown_Area_Type
  10
429167.440
  20
4640876.623
  0
VERTEX
  8
Unknown_Area_Type
  10
429176.875
  20
4641823.671
  0
SEQEND
  8
Unknown_Area_Type
  0
INSERT
  8
FeatureAttribs
  2
FEATURE
  41
1
  42
1
  43
1
  50
0
  10
429914.855
  20
4640092.102
 66
1
  0
ATTRIB
  8
FeatureAttribs
 70
0
  1
PNOA-H_AMS_1956-57_33k_ES_PAN_2
  2
NAME
  10
429914.855
  20
4640092.102
 40
33.51096
  0
SEQEND
  0
POLYLINE
  8
Unknown_Area_Type
  70
1
  66
1
  0
VERTEX
  8
Unknown_Area_Type
  10
429176.875
  20
4641823.671
  0
VERTEX
  8
Unknown_Area_Type
  10
429167.440
  20
4640876.623
  0
VERTEX
  8
Unknown_Area_Type
  10
429149.411
  20
4639066.130
  0
VERTEX
  8
Unknown_Area_Type
  10
429518.000
  20
4638787.500
  0
VERTEX
  8
Unknown_Area_Type
  10
431289.000
  20
4639503.000
  0
VERTEX
  8
Unknown_Area_Type
  10
431282.500
  20
4639657.500
  0
VERTEX
  8
Unknown_Area_Type
  10
429229.500
  20
4641965.000
  0
VERTEX
  8
Unknown_Area_Type
  10
429229.000
  20
4641963.000
  0
VERTEX
  8
Unknown_Area_Type
  10
429176.875
  20
4641823.671
  0
SEQEND
  8
Unknown_Area_Type
  0
INSERT
  8
FeatureAttribs
  2
FEATURE
  41
1
  42
1
  43
1
  50
0
  10
429137.606
  20
4644132.538
 66
1
  0
ATTRIB
  8
FeatureAttribs
 70
0
  1
PNOA-H_AMS_1956-57_33k_ES_PAN_2
  2
NAME
  10
429137.606
  20
4644132.538
 40
33.51096
  0
SEQEND
  0
POLYLINE
  8
Unknown_Area_Type
  70
1
  66
1
  0
VERTEX
  8
Unknown_Area_Type
  10
429214.445
  20
4645593.987
  0
VERTEX
  8
Unknown_Area_Type
  10
429213.536
  20
4645502.830
  0
VERTEX
  8
Unknown_Area_Type
  10
429190.483
  20
4643189.722
  0
VERTEX
  8
Unknown_Area_Type
  10
429184.737
  20
4642612.928
  0
VERTEX
  8
Unknown_Area_Type
  10
429075.334
  20
4642683.514
  0
VERTEX
  8
Unknown_Area_Type
  10
429075.334
  20
4645652.148
  0
VERTEX
  8
Unknown_Area_Type
  10
429214.445
  20
4645593.987
  0
SEQEND
  8
Unknown_Area_Type
  0
INSERT
  8
FeatureAttribs
  2
FEATURE
  41
1
  42
1
  43
1
  50
0
  10
430449.075
  20
4643971.549
 66
1
  0
ATTRIB
  8
FeatureAttribs
 70
0
  1
PNOA-H_AMS_1956-57_33k_ES_PAN_2
  2
NAME
  10
430449.075
  20
4643971.549
 40
33.51096
  0
SEQEND
  0
POLYLINE
  8
Unknown_Area_Type
  70
1
  66
1
  0
VERTEX
  8
Unknown_Area_Type
  10
429214.445
  20
4645593.987
  0
VERTEX
  8
Unknown_Area_Type
  10
431760.500
  20
4644529.500
  0
VERTEX
  8
Unknown_Area_Type
  10
431762.000
  20
4644529.000
  0
VERTEX
  8
Unknown_Area_Type
  10
431976.500
  20
4644439.000
  0
VERTEX
  8
Unknown_Area_Type
  10
432316.500
  20
4643527.000
  0
VERTEX
  8
Unknown_Area_Type
  10
432316.000
  20
4643525.000
  0
VERTEX
  8
Unknown_Area_Type
  10
432093.500
  20
4643269.000
  0
VERTEX
  8
Unknown_Area_Type
  10
429219.500
  20
4642590.500
  0
VERTEX
  8
Unknown_Area_Type
  10
429184.737
  20
4642612.928
  0
VERTEX
  8
Unknown_Area_Type
  10
429190.483
  20
4643189.722
  0
VERTEX
  8
Unknown_Area_Type
  10
429213.536
  20
4645502.830
  0
VERTEX
  8
Unknown_Area_Type
  10
429214.445
  20
4645593.987
  0
SEQEND
  8
Unknown_Area_Type
  0
INSERT
  8
FeatureAttribs
  2
FEATURE
  41
1
  42
1
  43
1
  50
0
  10
430449.075
  20
4643971.549
 66
1
  0
ATTRIB
  8
FeatureAttribs
 70
0
  1
PNOA-H_AMS_1956-57_33k_ES_PAN_2
  2
NAME
  10
430449.075
  20
4643971.549
 40
33.51096
  0
SEQEND
  0
POLYLINE
  8
Unknown_Area_Type
  70
1
  66
1
  0
VERTEX
  8
Unknown_Area_Type
  10
429214.445
  20
4645593.987
  0
VERTEX
  8
Unknown_Area_Type
  10
429213.536
  20
4645502.830
  0
VERTEX
  8
Unknown_Area_Type
  10
429190.483
  20
4643189.722
  0
VERTEX
  8
Unknown_Area_Type
  10
429184.737
  20
4642612.928
  0
VERTEX
  8
Unknown_Area_Type
  10
429219.500
  20
4642590.500
  0
VERTEX
  8
Unknown_Area_Type
  10
432093.500
  20
4643269.000
  0
VERTEX
  8
Unknown_Area_Type
  10
432316.000
  20
4643525.000
  0
VERTEX
  8
Unknown_Area_Type
  10
432316.500
  20
4643527.000
  0
VERTEX
  8
Unknown_Area_Type
  10
431976.500
  20
4644439.000
  0
VERTEX
  8
Unknown_Area_Type
  10
431762.000
  20
4644529.000
  0
VERTEX
  8
Unknown_Area_Type
  10
431760.500
  20
4644529.500
  0
VERTEX
  8
Unknown_Area_Type
  10
429214.445
  20
4645593.987
  0
SEQEND
  8
Unknown_Area_Type
  0
INSERT
  8
FeatureAttribs
  2
FEATURE
  41
1
  42
1
  43
1
  50
0
  10
429082.796
  20
4633122.110
 66
1
  0
ATTRIB
  8
FeatureAttribs
 70
0
  1
PNOA-H_AMS_1956-57_33k_ES_PAN_2
  2
NAME
  10
429082.796
  20
4633122.110
 40
33.51096
  0
SEQEND
  0
POLYLINE
  8
Unknown_Area_Type
  70
1
  66
1
  0
VERTEX
  8
Unknown_Area_Type
  10
429104.900
  20
4634594.024
  0
VERTEX
  8
Unknown_Area_Type
  10
429098.367
  20
4633937.373
  0
VERTEX
  8
Unknown_Area_Type
  10
429075.619
  20
4631650.196
  0
VERTEX
  8
Unknown_Area_Type
  10
429075.334
  20
4631650.649
  0
VERTEX
  8
Unknown_Area_Type
  10
429075.334
  20
4634589.283
  0
VERTEX
  8
Unknown_Area_Type
  10
429104.900
  20
4634594.024
  0
SEQEND
  8
Unknown_Area_Type
  0
INSERT
  8
FeatureAttribs
  2
FEATURE
  41
1
  42
1
  43
1
  50
0
  10
430105.505
  20
4631513.456
 66
1
  0
ATTRIB
  8
FeatureAttribs
 70
0
  1
PNOA-H_AMS_1956-57_33k_ES_PAN_2
  2
NAME
  10
430105.505
  20
4631513.456
 40
33.51096
  0
SEQEND
  0
POLYLINE
  8
Unknown_Area_Type
  70
1
  66
1
  0
VERTEX
  8
Unknown_Area_Type
  10
431047.103
  20
4631402.768
  0
VERTEX
  8
Unknown_Area_Type
  10
429231.644
  20
4631402.768
  0
VERTEX
  8
Unknown_Area_Type
  10
429092.047
  20
4631624.144
  0
VERTEX
  8
Unknown_Area_Type
  10
431050.872
  20
4631605.141
  0
VERTEX
  8
Unknown_Area_Type
  10
431047.103
  20
4631402.768
  0
SEQEND
  8
Unknown_Area_Type
  0
INSERT
  8
FeatureAttribs
  2
FEATURE
  41
1
  42
1
  43
1
  50
0
  10
430077.466
  20
4633133.901
 66
1
  0
ATTRIB
  8
FeatureAttribs
 70
0
  1
PNOA-H_AMS_1956-57_33k_ES_PAN_2
  2
NAME
  10
430077.466
  20
4633133.901
 40
33.51096
  0
SEQEND
  0
POLYLINE
  8
Unknown_Area_Type
  70
1
  66
1
  0
VERTEX
  8
Unknown_Area_Type
  10
431050.872
  20
4631605.141
  0
VERTEX
  8
Unknown_Area_Type
  10
429092.047
  20
4631624.144
  0
VERTEX
  8
Unknown_Area_Type
  10
429075.619
  20
4631650.196
  0
VERTEX
  8
Unknown_Area_Type
  10
429098.367
  20
4633937.373
  0
VERTEX
  8
Unknown_Area_Type
  10
429104.900
  20
4634594.024
  0
VERTEX
  8
Unknown_Area_Type
  10
430233.500
  20
4634775.000
  0
VERTEX
  8
Unknown_Area_Type
  10
430236.500
  20
4634775.500
  0
VERTEX
  8
Unknown_Area_Type
  10
431103.000
  20
4634404.500
  0
VERTEX
  8
Unknown_Area_Type
  10
431050.872
  20
4631605.141
  0
SEQEND
  8
Unknown_Area_Type
  0
INSERT
  8
FeatureAttribs
  2
FEATURE
  41
1
  42
1
  43
1
  50
0
  10
430077.466
  20
4633133.901
 66
1
  0
ATTRIB
  8
FeatureAttribs
 70
0
  1
PNOA-H_AMS_1956-57_33k_ES_PAN_2
  2
NAME
  10
430077.466
  20
4633133.901
 40
33.51096
  0
SEQEND
  0
POLYLINE
  8
Unknown_Area_Type
  70
1
  66
1
  0
VERTEX
  8
Unknown_Area_Type
  10
431050.872
  20
4631605.141
  0
VERTEX
  8
Unknown_Area_Type
  10
431103.000
  20
4634404.500
  0
VERTEX
  8
Unknown_Area_Type
  10
430236.500
  20
4634775.500
  0
VERTEX
  8
Unknown_Area_Type
  10
430233.500
  20
4634775.000
  0
VERTEX
  8
Unknown_Area_Type
  10
429104.900
  20
4634594.024
  0
VERTEX
  8
Unknown_Area_Type
  10
429098.367
  20
4633937.373
  0
VERTEX
  8
Unknown_Area_Type
  10
429075.619
  20
4631650.196
  0
VERTEX
  8
Unknown_Area_Type
  10
429092.047
  20
4631624.144
  0
VERTEX
  8
Unknown_Area_Type
  10
431050.872
  20
4631605.141
  0
SEQEND
  8
Unknown_Area_Type
  0
INSERT
  8
FeatureAttribs
  2
FEATURE
  41
1
  42
1
  43
1
  50
0
  10
435578.202
  20
4631489.634
 66
1
  0
ATTRIB
  8
FeatureAttribs
 70
0
  1
PNOA-H_AMS_1956-57_33k_ES_PAN_2
  2
NAME
  10
435578.202
  20
4631489.634
 40
33.51096
  0
SEQEND
  0
POLYLINE
  8
Unknown_Area_Type
  70
1
  66
1
  0
VERTEX
  8
Unknown_Area_Type
  10
437077.798
  20
4631402.768
  0
VERTEX
  8
Unknown_Area_Type
  10
434078.863
  20
4631402.768
  0
VERTEX
  8
Unknown_Area_Type
  10
434080.543
  20
4631576.499
  0
VERTEX
  8
Unknown_Area_Type
  10
435994.888
  20
4631558.856
  0
VERTEX
  8
Unknown_Area_Type
  10
437075.945
  20
4631549.417
  0
VERTEX
  8
Unknown_Area_Type
  10
437077.798
  20
4631402.768
  0
SEQEND
  8
Unknown_Area_Type
  0
INSERT
  8
FeatureAttribs
  2
FEATURE
  41
1
  42
1
  43
1
  50
0
  10
435554.038
  20
4633140.745
 66
1
  0
ATTRIB
  8
FeatureAttribs
 70
0
  1
PNOA-H_AMS_1956-57_33k_ES_PAN_2
  2
NAME
  10
435554.038
  20
4633140.745
 40
33.51096
  0
SEQEND
  0
POLYLINE
  8
Unknown_Area_Type
  70
1
  66
1
  0
VERTEX
  8
Unknown_Area_Type
  10
437075.945
  20
4631549.417
  0
VERTEX
  8
Unknown_Area_Type
  10
435994.888
  20
4631558.856
  0
VERTEX
  8
Unknown_Area_Type
  10
434080.543
  20
4631576.499
  0
VERTEX
  8
Unknown_Area_Type
  10
434110.500
  20
4634676.000
  0
VERTEX
  8
Unknown_Area_Type
  10
434744.000
  20
4634906.500
  0
VERTEX
  8
Unknown_Area_Type
  10
435854.500
  20
4634716.000
  0
VERTEX
  8
Unknown_Area_Type
  10
435858.000
  20
4634715.500
  0
VERTEX
  8
Unknown_Area_Type
  10
437038.500
  20
4634513.000
  0
VERTEX
  8
Unknown_Area_Type
  10
437075.945
  20
4631549.417
  0
SEQEND
  8
Unknown_Area_Type
  0
INSERT
  8
FeatureAttribs
  2
FEATURE
  41
1
  42
1
  43
1
  50
0
  10
435554.038
  20
4633140.745
 66
1
  0
ATTRIB
  8
FeatureAttribs
 70
0
  1
PNOA-H_AMS_1956-57_33k_ES_PAN_2
  2
NAME
  10
435554.038
  20
4633140.745
 40
33.51096
  0
SEQEND
  0
POLYLINE
  8
Unknown_Area_Type
  70
1
  66
1
  0
VERTEX
  8
Unknown_Area_Type
  10
437075.945
  20
4631549.417
  0
VERTEX
  8
Unknown_Area_Type
  10
437038.500
  20
4634513.000
  0
VERTEX
  8
Unknown_Area_Type
  10
435858.000
  20
4634715.500
  0
VERTEX
  8
Unknown_Area_Type
  10
435854.500
  20
4634716.000
  0
VERTEX
  8
Unknown_Area_Type
  10
434744.000
  20
4634906.500
  0
VERTEX
  8
Unknown_Area_Type
  10
434110.500
  20
4634676.000
  0
VERTEX
  8
Unknown_Area_Type
  10
434080.543
  20
4631576.499
  0
VERTEX
  8
Unknown_Area_Type
  10
435994.888
  20
4631558.856
  0
VERTEX
  8
Unknown_Area_Type
  10
437075.945
  20
4631549.417
  0
SEQEND
  8
Unknown_Area_Type
  0
INSERT
  8
FeatureAttribs
  2
FEATURE
  41
1
  42
1
  43
1
  50
0
  10
444394.140
  20
4631451.219
 66
1
  0
ATTRIB
  8
FeatureAttribs
 70
0
  1
PNOA-H_AMS_1956-57_33k_ES_PAN_2
  2
NAME
  10
444394.140
  20
4631451.219
 40
33.51096
  0
SEQEND
  0
POLYLINE
  8
Unknown_Area_Type
  70
1
  66
1
  0
VERTEX
  8
Unknown_Area_Type
  10
445814.713
  20
4631402.768
  0
VERTEX
  8
Unknown_Area_Type
  10
442972.105
  20
4631402.768
  0
VERTEX
  8
Unknown_Area_Type
  10
442972.305
  20
4631499.670
  0
VERTEX
  8
Unknown_Area_Type
  10
445816.817
  20
4631477.594
  0
VERTEX
  8
Unknown_Area_Type
  10
445814.713
  20
4631402.768
  0
SEQEND
  8
Unknown_Area_Type
  0
INSERT
  8
FeatureAttribs
  2
FEATURE
  41
1
  42
1
  43
1
  50
0
  10
444389.408
  20
4632923.558
 66
1
  0
ATTRIB
  8
FeatureAttribs
 70
0
  1
PNOA-H_AMS_1956-57_33k_ES_PAN_2
  2
NAME
  10
444389.408
  20
4632923.558
 40
33.51096
  0
SEQEND
  0
POLYLINE
  8
Unknown_Area_Type
  70
1
  66
1
  0
VERTEX
  8
Unknown_Area_Type
  10
445816.817
  20
4631477.594
  0
VERTEX
  8
Unknown_Area_Type
  10
442972.305
  20
4631499.670
  0
VERTEX
  8
Unknown_Area_Type
  10
442978.000
  20
4634252.500
  0
VERTEX
  8
Unknown_Area_Type
  10
443518.000
  20
4634540.500
  0
VERTEX
  8
Unknown_Area_Type
  10
444048.000
  20
4634446.000
  0
VERTEX
  8
Unknown_Area_Type
  10
444050.000
  20
4634446.000
  0
VERTEX
  8
Unknown_Area_Type
  10
445891.000
  20
4634117.000
  0
VERTEX
  8
Unknown_Area_Type
  10
445816.817
  20
4631477.594
  0
SEQEND
  8
Unknown_Area_Type
  0
INSERT
  8
FeatureAttribs
  2
FEATURE
  41
1
  42
1
  43
1
  50
0
  10
444389.408
  20
4632923.558
 66
1
  0
ATTRIB
  8
FeatureAttribs
 70
0
  1
PNOA-H_AMS_1956-57_33k_ES_PAN_2
  2
NAME
  10
444389.408
  20
4632923.558
 40
33.51096
  0
SEQEND
  0
POLYLINE
  8
Unknown_Area_Type
  70
1
  66
1
  0
VERTEX
  8
Unknown_Area_Type
  10
445816.817
  20
4631477.594
  0
VERTEX
  8
Unknown_Area_Type
  10
445891.000
  20
4634117.000
  0
VERTEX
  8
Unknown_Area_Type
  10
444050.000
  20
4634446.000
  0
VERTEX
  8
Unknown_Area_Type
  10
444048.000
  20
4634446.000
  0
VERTEX
  8
Unknown_Area_Type
  10
443518.000
  20
4634540.500
  0
VERTEX
  8
Unknown_Area_Type
  10
442978.000
  20
4634252.500
  0
VERTEX
  8
Unknown_Area_Type
  10
442972.305
  20
4631499.670
  0
VERTEX
  8
Unknown_Area_Type
  10
445816.817
  20
4631477.594
  0
SEQEND
  8
Unknown_Area_Type
  0
INSERT
  8
FeatureAttribs
  2
FEATURE
  41
1
  42
1
  43
1
  50
0
  10
441514.433
  20
4631463.231
 66
1
  0
ATTRIB
  8
FeatureAttribs
 70
0
  1
PNOA-H_AMS_1956-57_33k_ES_PAN_2
  2
NAME
  10
441514.433
  20
4631463.231
 40
33.51096
  0
SEQEND
  0
POLYLINE
  8
Unknown_Area_Type
  70
1
  66
1
  0
VERTEX
  8
Unknown_Area_Type
  10
442972.105
  20
4631402.768
  0
VERTEX
  8
Unknown_Area_Type
  10
440057.803
  20
4631402.768
  0
VERTEX
  8
Unknown_Area_Type
  10
440055.470
  20
4631523.694
  0
VERTEX
  8
Unknown_Area_Type
  10
442914.399
  20
4631500.120
  0
VERTEX
  8
Unknown_Area_Type
  10
442972.305
  20
4631499.670
  0
VERTEX
  8
Unknown_Area_Type
  10
442972.105
  20
4631402.768
  0
SEQEND
  8
Unknown_Area_Type
  0
INSERT
  8
FeatureAttribs
  2
FEATURE
  41
1
  42
1
  43
1
  50
0
  10
441478.399
  20
4632989.716
 66
1
  0
ATTRIB
  8
FeatureAttribs
 70
0
  1
PNOA-H_AMS_1956-57_33k_ES_PAN_2
  2
NAME
  10
441478.399
  20
4632989.716
 40
33.51096
  0
SEQEND
  0
POLYLINE
  8
Unknown_Area_Type
  70
1
  66
1
  0
VERTEX
  8
Unknown_Area_Type
  10
442972.305
  20
4631499.670
  0
VERTEX
  8
Unknown_Area_Type
  10
442914.399
  20
4631500.120
  0
VERTEX
  8
Unknown_Area_Type
  10
440055.470
  20
4631523.694
  0
VERTEX
  8
Unknown_Area_Type
  10
440001.000
  20
4634346.500
  0
VERTEX
  8
Unknown_Area_Type
  10
440001.000
  20
4634361.500
  0
VERTEX
  8
Unknown_Area_Type
  10
440558.500
  20
4634634.000
  0
VERTEX
  8
Unknown_Area_Type
  10
442000.500
  20
4634406.500
  0
VERTEX
  8
Unknown_Area_Type
  10
442002.000
  20
4634406.500
  0
VERTEX
  8
Unknown_Area_Type
  10
442978.000
  20
4634252.500
  0
VERTEX
  8
Unknown_Area_Type
  10
442972.305
  20
4631499.670
  0
SEQEND
  8
Unknown_Area_Type
  0
INSERT
  8
FeatureAttribs
  2
FEATURE
  41
1
  42
1
  43
1
  50
0
  10
441478.399
  20
4632989.716
 66
1
  0
ATTRIB
  8
FeatureAttribs
 70
0
  1
PNOA-H_AMS_1956-57_33k_ES_PAN_2
  2
NAME
  10
441478.399
  20
4632989.716
 40
33.51096
  0
SEQEND
  0
POLYLINE
  8
Unknown_Area_Type
  70
1
  66
1
  0
VERTEX
  8
Unknown_Area_Type
  10
442972.305
  20
4631499.670
  0
VERTEX
  8
Unknown_Area_Type
  10
442978.000
  20
4634252.500
  0
VERTEX
  8
Unknown_Area_Type
  10
442002.000
  20
4634406.500
  0
VERTEX
  8
Unknown_Area_Type
  10
442000.500
  20
4634406.500
  0
VERTEX
  8
Unknown_Area_Type
  10
440558.500
  20
4634634.000
  0
VERTEX
  8
Unknown_Area_Type
  10
440001.000
  20
4634361.500
  0
VERTEX
  8
Unknown_Area_Type
  10
440001.000
  20
4634346.500
  0
VERTEX
  8
Unknown_Area_Type
  10
440055.470
  20
4631523.694
  0
VERTEX
  8
Unknown_Area_Type
  10
442914.399
  20
4631500.120
  0
VERTEX
  8
Unknown_Area_Type
  10
442972.305
  20
4631499.670
  0
SEQEND
  8
Unknown_Area_Type
  0
INSERT
  8
FeatureAttribs
  2
FEATURE
  41
1
  42
1
  43
1
  50
0
  10
438566.671
  20
4631476.093
 66
1
  0
ATTRIB
  8
FeatureAttribs
 70
0
  1
PNOA-H_AMS_1956-57_33k_ES_PAN_2
  2
NAME
  10
438566.671
  20
4631476.093
 40
33.51096
  0
SEQEND
  0
POLYLINE
  8
Unknown_Area_Type
  70
1
  66
1
  0
VERTEX
  8
Unknown_Area_Type
  10
440057.877
  20
4631402.768
  0
VERTEX
  8
Unknown_Area_Type
  10
437077.800
  20
4631402.768
  0
VERTEX
  8
Unknown_Area_Type
  10
437075.947
  20
4631549.417
  0
VERTEX
  8
Unknown_Area_Type
  10
439454.645
  20
4631528.649
  0
VERTEX
  8
Unknown_Area_Type
  10
440055.553
  20
4631523.694
  0
VERTEX
  8
Unknown_Area_Type
  10
440057.877
  20
4631402.768
  0
SEQEND
  8
Unknown_Area_Type
  0
INSERT
  8
FeatureAttribs
  2
FEATURE
  41
1
  42
1
  43
1
  50
0
  10
438517.320
  20
4633059.667
 66
1
  0
ATTRIB
  8
FeatureAttribs
 70
0
  1
PNOA-H_AMS_1956-57_33k_ES_PAN_2
  2
NAME
  10
438517.320
  20
4633059.667
 40
33.51096
  0
SEQEND
  0
POLYLINE
  8
Unknown_Area_Type
  70
1
  66
1
  0
VERTEX
  8
Unknown_Area_Type
  10
440055.553
  20
4631523.694
  0
VERTEX
  8
Unknown_Area_Type
  10
439454.645
  20
4631528.649
  0
VERTEX
  8
Unknown_Area_Type
  10
437075.947
  20
4631549.417
  0
VERTEX
  8
Unknown_Area_Type
  10
437038.500
  20
4634513.500
  0
VERTEX
  8
Unknown_Area_Type
  10
437626.500
  20
4634771.500
  0
VERTEX
  8
Unknown_Area_Type
  10
437627.500
  20
4634772.000
  0
VERTEX
  8
Unknown_Area_Type
  10
440001.000
  20
4634361.500
  0
VERTEX
  8
Unknown_Area_Type
  10
440055.553
  20
4631523.694
  0
SEQEND
  8
Unknown_Area_Type
  0
INSERT
  8
FeatureAttribs
  2
FEATURE
  41
1
  42
1
  43
1
  50
0
  10
438517.320
  20
4633059.667
 66
1
  0
ATTRIB
  8
FeatureAttribs
 70
0
  1
PNOA-H_AMS_1956-57_33k_ES_PAN_2
  2
NAME
  10
438517.320
  20
4633059.667
 40
33.51096
  0
SEQEND
  0
POLYLINE
  8
Unknown_Area_Type
  70
1
  66
1
  0
VERTEX
  8
Unknown_Area_Type
  10
440055.553
  20
4631523.694
  0
VERTEX
  8
Unknown_Area_Type
  10
440001.000
  20
4634361.500
  0
VERTEX
  8
Unknown_Area_Type
  10
437627.500
  20
4634772.000
  0
VERTEX
  8
Unknown_Area_Type
  10
437626.500
  20
4634771.500
  0
VERTEX
  8
Unknown_Area_Type
  10
437038.500
  20
4634513.500
  0
VERTEX
  8
Unknown_Area_Type
  10
437075.947
  20
4631549.417
  0
VERTEX
  8
Unknown_Area_Type
  10
439454.645
  20
4631528.649
  0
VERTEX
  8
Unknown_Area_Type
  10
440055.553
  20
4631523.694
  0
SEQEND
  8
Unknown_Area_Type
  0
INSERT
  8
FeatureAttribs
  2
FEATURE
  41
1
  42
1
  43
1
  50
0
  10
432564.469
  20
4631503.956
 66
1
  0
ATTRIB
  8
FeatureAttribs
 70
0
  1
PNOA-H_AMS_1956-57_33k_ES_PAN_2
  2
NAME
  10
432564.469
  20
4631503.956
 40
33.51096
  0
SEQEND
  0
POLYLINE
  8
Unknown_Area_Type
  70
1
  66
1
  0
VERTEX
  8
Unknown_Area_Type
  10
434079.231
  20
4631402.768
  0
VERTEX
  8
Unknown_Area_Type
  10
431046.848
  20
4631402.768
  0
VERTEX
  8
Unknown_Area_Type
  10
431050.634
  20
4631605.143
  0
VERTEX
  8
Unknown_Area_Type
  10
432535.127
  20
4631590.742
  0
VERTEX
  8
Unknown_Area_Type
  10
434080.890
  20
4631576.496
  0
VERTEX
  8
Unknown_Area_Type
  10
434079.231
  20
4631402.768
  0
SEQEND
  8
Unknown_Area_Type
  0
INSERT
  8
FeatureAttribs
  2
FEATURE
  41
1
  42
1
  43
1
  50
0
  10
432620.109
  20
4633136.605
 66
1
  0
ATTRIB
  8
FeatureAttribs
 70
0
  1
PNOA-H_AMS_1956-57_33k_ES_PAN_2
  2
NAME
  10
432620.109
  20
4633136.605
 40
33.51096
  0
SEQEND
  0
POLYLINE
  8
Unknown_Area_Type
  70
1
  66
1
  0
VERTEX
  8
Unknown_Area_Type
  10
434080.890
  20
4631576.496
  0
VERTEX
  8
Unknown_Area_Type
  10
432535.127
  20
4631590.742
  0
VERTEX
  8
Unknown_Area_Type
  10
431050.634
  20
4631605.143
  0
VERTEX
  8
Unknown_Area_Type
  10
431103.000
  20
4634404.000
  0
VERTEX
  8
Unknown_Area_Type
  10
431757.500
  20
4634553.500
  0
VERTEX
  8
Unknown_Area_Type
  10
431760.000
  20
4634554.000
  0
VERTEX
  8
Unknown_Area_Type
  10
433157.000
  20
4634872.500
  0
VERTEX
  8
Unknown_Area_Type
  10
433170.500
  20
4634870.500
  0
VERTEX
  8
Unknown_Area_Type
  10
434110.500
  20
4634676.000
  0
VERTEX
  8
Unknown_Area_Type
  10
434080.890
  20
4631576.496
  0
SEQEND
  8
Unknown_Area_Type
  0
INSERT
  8
FeatureAttribs
  2
FEATURE
  41
1
  42
1
  43
1
  50
0
  10
432620.109
  20
4633136.605
 66
1
  0
ATTRIB
  8
FeatureAttribs
 70
0
  1
PNOA-H_AMS_1956-57_33k_ES_PAN_2
  2
NAME
  10
432620.109
  20
4633136.605
 40
33.51096
  0
SEQEND
  0
POLYLINE
  8
Unknown_Area_Type
  70
1
  66
1
  0
VERTEX
  8
Unknown_Area_Type
  10
434080.890
  20
4631576.496
  0
VERTEX
  8
Unknown_Area_Type
  10
434110.500
  20
4634676.000
  0
VERTEX
  8
Unknown_Area_Type
  10
433170.500
  20
4634870.500
  0
VERTEX
  8
Unknown_Area_Type
  10
433157.000
  20
4634872.500
  0
VERTEX
  8
Unknown_Area_Type
  10
431760.000
  20
4634554.000
  0
VERTEX
  8
Unknown_Area_Type
  10
431757.500
  20
4634553.500
  0
VERTEX
  8
Unknown_Area_Type
  10
431103.000
  20
4634404.000
  0
VERTEX
  8
Unknown_Area_Type
  10
431050.634
  20
4631605.143
  0
VERTEX
  8
Unknown_Area_Type
  10
432535.127
  20
4631590.742
  0
VERTEX
  8
Unknown_Area_Type
  10
434080.890
  20
4631576.496
  0
SEQEND
  8
Unknown_Area_Type
  0
INSERT
  8
FeatureAttribs
  2
FEATURE
  41
1
  42
1
  43
1
  50
0
  10
455114.714
  20
4631409.669
 66
1
  0
ATTRIB
  8
FeatureAttribs
 70
0
  1
PNOA-H_AMS_1956-57_33k_ES_PAN_2
  2
NAME
  10
455114.714
  20
4631409.669
 40
33.51096
  0
SEQEND
  0
POLYLINE
  8
Unknown_Area_Type
  70
1
  66
1
  0
VERTEX
  8
Unknown_Area_Type
  10
454567.543
  20
4631416.570
  0
VERTEX
  8
Unknown_Area_Type
  10
456753.382
  20
4631402.787
  0
VERTEX
  8
Unknown_Area_Type
  10
456753.382
  20
4631402.768
  0
VERTEX
  8
Unknown_Area_Type
  10
454567.419
  20
4631402.768
  0
VERTEX
  8
Unknown_Area_Type
  10
454567.543
  20
4631416.570
  0
SEQEND
  8
Unknown_Area_Type
  0
INSERT
  8
FeatureAttribs
  2
FEATURE
  41
1
  42
1
  43
1
  50
0
  10
455670.063
  20
4632710.248
 66
1
  0
ATTRIB
  8
FeatureAttribs
 70
0
  1
PNOA-H_AMS_1956-57_33k_ES_PAN_2
  2
NAME
  10
455670.063
  20
4632710.248
 40
33.51096
  0
SEQEND
  0
POLYLINE
  8
Unknown_Area_Type
  70
1
  66
1
  0
VERTEX
  8
Unknown_Area_Type
  10
456768.701
  20
4633928.793
  0
VERTEX
  8
Unknown_Area_Type
  10
456767.409
  20
4633715.836
  0
VERTEX
  8
Unknown_Area_Type
  10
456753.382
  20
4631402.787
  0
VERTEX
  8
Unknown_Area_Type
  10
454567.543
  20
4631416.570
  0
VERTEX
  8
Unknown_Area_Type
  10
454589.000
  20
4633800.500
  0
VERTEX
  8
Unknown_Area_Type
  10
455138.500
  20
4634123.500
  0
VERTEX
  8
Unknown_Area_Type
  10
455139.500
  20
4634124.000
  0
VERTEX
  8
Unknown_Area_Type
  10
456768.701
  20
4633928.793
  0
SEQEND
  8
Unknown_Area_Type
  0
INSERT
  8
FeatureAttribs
  2
FEATURE
  41
1
  42
1
  43
1
  50
0
  10
455670.063
  20
4632710.248
 66
1
  0
ATTRIB
  8
FeatureAttribs
 70
0
  1
PNOA-H_AMS_1956-57_33k_ES_PAN_2
  2
NAME
  10
455670.063
  20
4632710.248
 40
33.51096
  0
SEQEND
  0
POLYLINE
  8
Unknown_Area_Type
  70
1
  66
1
  0
VERTEX
  8
Unknown_Area_Type
  10
456768.701
  20
4633928.793
  0
VERTEX
  8
Unknown_Area_Type
  10
455139.500
  20
4634124.000
  0
VERTEX
  8
Unknown_Area_Type
  10
455138.500
  20
4634123.500
  0
VERTEX
  8
Unknown_Area_Type
  10
454589.000
  20
4633800.500
  0
VERTEX
  8
Unknown_Area_Type
  10
454567.543
  20
4631416.570
  0
VERTEX
  8
Unknown_Area_Type
  10
456753.382
  20
4631402.787
  0
VERTEX
  8
Unknown_Area_Type
  10
456767.409
  20
4633715.836
  0
VERTEX
  8
Unknown_Area_Type
  10
456768.701
  20
4633928.793
  0
SEQEND
  8
Unknown_Area_Type
  0
INSERT
  8
FeatureAttribs
  2
FEATURE
  41
1
  42
1
  43
1
  50
0
  10
447242.854
  20
4631440.181
 66
1
  0
ATTRIB
  8
FeatureAttribs
 70
0
  1
PNOA-H_AMS_1956-57_33k_ES_PAN_2
  2
NAME
  10
447242.854
  20
4631440.181
 40
33.51096
  0
SEQEND
  0
POLYLINE
  8
Unknown_Area_Type
  70
1
  66
1
  0
VERTEX
  8
Unknown_Area_Type
  10
448668.482
  20
4631402.768
  0
VERTEX
  8
Unknown_Area_Type
  10
445814.713
  20
4631402.768
  0
VERTEX
  8
Unknown_Area_Type
  10
445816.817
  20
4631477.594
  0
VERTEX
  8
Unknown_Area_Type
  10
446374.149
  20
4631473.269
  0
VERTEX
  8
Unknown_Area_Type
  10
448670.581
  20
4631456.561
  0
VERTEX
  8
Unknown_Area_Type
  10
448668.482
  20
4631402.768
  0
SEQEND
  8
Unknown_Area_Type
  0
INSERT
  8
FeatureAttribs
  2
FEATURE
  41
1
  42
1
  43
1
  50
0
  10
447262.075
  20
4632842.081
 66
1
  0
ATTRIB
  8
FeatureAttribs
 70
0
  1
PNOA-H_AMS_1956-57_33k_ES_PAN_2
  2
NAME
  10
447262.075
  20
4632842.081
 40
33.51096
  0
SEQEND
  0
POLYLINE
  8
Unknown_Area_Type
  70
1
  66
1
  0
VERTEX
  8
Unknown_Area_Type
  10
448670.581
  20
4631456.561
  0
VERTEX
  8
Unknown_Area_Type
  10
446374.149
  20
4631473.269
  0
VERTEX
  8
Unknown_Area_Type
  10
445816.817
  20
4631477.594
  0
VERTEX
  8
Unknown_Area_Type
  10
445891.000
  20
4634117.000
  0
VERTEX
  8
Unknown_Area_Type
  10
446096.500
  20
4634225.000
  0
VERTEX
  8
Unknown_Area_Type
  10
446097.500
  20
4634225.500
  0
VERTEX
  8
Unknown_Area_Type
  10
446438.500
  20
4634404.500
  0
VERTEX
  8
Unknown_Area_Type
  10
446447.500
  20
4634409.000
  0
VERTEX
  8
Unknown_Area_Type
  10
446450.500
  20
4634409.000
  0
VERTEX
  8
Unknown_Area_Type
  10
448769.000
  20
4633978.500
  0
VERTEX
  8
Unknown_Area_Type
  10
448670.581
  20
4631456.561
  0
SEQEND
  8
Unknown_Area_Type
  0
INSERT
  8
FeatureAttribs
  2
FEATURE
  41
1
  42
1
  43
1
  50
0
  10
447262.075
  20
4632842.081
 66
1
  0
ATTRIB
  8
FeatureAttribs
 70
0
  1
PNOA-H_AMS_1956-57_33k_ES_PAN_2
  2
NAME
  10
447262.075
  20
4632842.081
 40
33.51096
  0
SEQEND
  0
POLYLINE
  8
Unknown_Area_Type
  70
1
  66
1
  0
VERTEX
  8
Unknown_Area_Type
  10
448670.581
  20
4631456.561
  0
VERTEX
  8
Unknown_Area_Type
  10
448769.000
  20
4633978.500
  0
VERTEX
  8
Unknown_Area_Type
  10
446450.500
  20
4634409.000
  0
VERTEX
  8
Unknown_Area_Type
  10
446447.500
  20
4634409.000
  0
VERTEX
  8
Unknown_Area_Type
  10
446438.500
  20
4634404.500
  0
VERTEX
  8
Unknown_Area_Type
  10
446097.500
  20
4634225.500
  0
VERTEX
  8
Unknown_Area_Type
  10
446096.500
  20
4634225.000
  0
VERTEX
  8
Unknown_Area_Type
  10
445891.000
  20
4634117.000
  0
VERTEX
  8
Unknown_Area_Type
  10
445816.817
  20
4631477.594
  0
VERTEX
  8
Unknown_Area_Type
  10
446374.149
  20
4631473.269
  0
VERTEX
  8
Unknown_Area_Type
  10
448670.581
  20
4631456.561
  0
SEQEND
  8
Unknown_Area_Type
  0
INSERT
  8
FeatureAttribs
  2
FEATURE
  41
1
  42
1
  43
1
  50
0
  10
450131.497
  20
4631429.666
 66
1
  0
ATTRIB
  8
FeatureAttribs
 70
0
  1
PNOA-H_AMS_1956-57_33k_ES_PAN_2
  2
NAME
  10
450131.497
  20
4631429.666
 40
33.51096
  0
SEQEND
  0
POLYLINE
  8
Unknown_Area_Type
  70
1
  66
1
  0
VERTEX
  8
Unknown_Area_Type
  10
451592.830
  20
4631402.768
  0
VERTEX
  8
Unknown_Area_Type
  10
448668.098
  20
4631402.768
  0
VERTEX
  8
Unknown_Area_Type
  10
448670.197
  20
4631456.564
  0
VERTEX
  8
Unknown_Area_Type
  10
449833.896
  20
4631448.097
  0
VERTEX
  8
Unknown_Area_Type
  10
451594.091
  20
4631436.144
  0
VERTEX
  8
Unknown_Area_Type
  10
451592.830
  20
4631402.768
  0
SEQEND
  8
Unknown_Area_Type
  0
INSERT
  8
FeatureAttribs
  2
FEATURE
  41
1
  42
1
  43
1
  50
0
  10
450152.925
  20
4632765.809
 66
1
  0
ATTRIB
  8
FeatureAttribs
 70
0
  1
PNOA-H_AMS_1956-57_33k_ES_PAN_2
  2
NAME
  10
450152.925
  20
4632765.809
 40
33.51096
  0
SEQEND
  0
POLYLINE
  8
Unknown_Area_Type
  70
1
  66
1
  0
VERTEX
  8
Unknown_Area_Type
  10
451594.091
  20
4631436.144
  0
VERTEX
  8
Unknown_Area_Type
  10
449833.896
  20
4631448.097
  0
VERTEX
  8
Unknown_Area_Type
  10
448670.197
  20
4631456.564
  0
VERTEX
  8
Unknown_Area_Type
  10
448768.500
  20
4633976.000
  0
VERTEX
  8
Unknown_Area_Type
  10
448769.000
  20
4633978.500
  0
VERTEX
  8
Unknown_Area_Type
  10
448771.000
  20
4633980.000
  0
VERTEX
  8
Unknown_Area_Type
  10
449346.000
  20
4634291.000
  0
VERTEX
  8
Unknown_Area_Type
  10
451685.000
  20
4633842.500
  0
VERTEX
  8
Unknown_Area_Type
  10
451594.091
  20
4631436.144
  0
SEQEND
  8
Unknown_Area_Type
  0
INSERT
  8
FeatureAttribs
  2
FEATURE
  41
1
  42
1
  43
1
  50
0
  10
450152.925
  20
4632765.809
 66
1
  0
ATTRIB
  8
FeatureAttribs
 70
0
  1
PNOA-H_AMS_1956-57_33k_ES_PAN_2
  2
NAME
  10
450152.925
  20
4632765.809
 40
33.51096
  0
SEQEND
  0
POLYLINE
  8
Unknown_Area_Type
  70
1
  66
1
  0
VERTEX
  8
Unknown_Area_Type
  10
451594.091
  20
4631436.144
  0
VERTEX
  8
Unknown_Area_Type
  10
451685.000
  20
4633842.500
  0
VERTEX
  8
Unknown_Area_Type
  10
449346.000
  20
4634291.000
  0
VERTEX
  8
Unknown_Area_Type
  10
448771.000
  20
4633980.000
  0
VERTEX
  8
Unknown_Area_Type
  10
448769.000
  20
4633978.500
  0
VERTEX
  8
Unknown_Area_Type
  10
448768.500
  20
4633976.000
  0
VERTEX
  8
Unknown_Area_Type
  10
448670.197
  20
4631456.564
  0
VERTEX
  8
Unknown_Area_Type
  10
449833.896
  20
4631448.097
  0
VERTEX
  8
Unknown_Area_Type
  10
451594.091
  20
4631436.144
  0
SEQEND
  8
Unknown_Area_Type
  0
INSERT
  8
FeatureAttribs
  2
FEATURE
  41
1
  42
1
  43
1
  50
0
  10
452851.655
  20
4631419.456
 66
1
  0
ATTRIB
  8
FeatureAttribs
 70
0
  1
PNOA-H_AMS_1956-57_33k_ES_PAN_2
  2
NAME
  10
452851.655
  20
4631419.456
 40
33.51096
  0
SEQEND
  0
POLYLINE
  8
Unknown_Area_Type
  70
1
  66
1
  0
VERTEX
  8
Unknown_Area_Type
  10
454567.543
  20
4631416.570
  0
VERTEX
  8
Unknown_Area_Type
  10
454567.419
  20
4631402.768
  0
VERTEX
  8
Unknown_Area_Type
  10
451592.830
  20
4631402.768
  0
VERTEX
  8
Unknown_Area_Type
  10
451594.091
  20
4631436.144
  0
VERTEX
  8
Unknown_Area_Type
  10
453293.641
  20
4631424.603
  0
VERTEX
  8
Unknown_Area_Type
  10
454567.543
  20
4631416.570
  0
SEQEND
  8
Unknown_Area_Type
  0
INSERT
  8
FeatureAttribs
  2
FEATURE
  41
1
  42
1
  43
1
  50
0
  10
453089.744
  20
4632705.043
 66
1
  0
ATTRIB
  8
FeatureAttribs
 70
0
  1
PNOA-H_AMS_1956-57_33k_ES_PAN_2
  2
NAME
  10
453089.744
  20
4632705.043
 40
33.51096
  0
SEQEND
  0
POLYLINE
  8
Unknown_Area_Type
  70
1
  66
1
  0
VERTEX
  8
Unknown_Area_Type
  10
454567.543
  20
4631416.570
  0
VERTEX
  8
Unknown_Area_Type
  10
453293.641
  20
4631424.603
  0
VERTEX
  8
Unknown_Area_Type
  10
451594.091
  20
4631436.144
  0
VERTEX
  8
Unknown_Area_Type
  10
451685.000
  20
4633842.500
  0
VERTEX
  8
Unknown_Area_Type
  10
452241.000
  20
4634152.000
  0
VERTEX
  8
Unknown_Area_Type
  10
452241.500
  20
4634153.000
  0
VERTEX
  8
Unknown_Area_Type
  10
452272.000
  20
4634170.000
  0
VERTEX
  8
Unknown_Area_Type
  10
452276.500
  20
4634171.500
  0
VERTEX
  8
Unknown_Area_Type
  10
454589.000
  20
4633800.500
  0
VERTEX
  8
Unknown_Area_Type
  10
454567.543
  20
4631416.570
  0
SEQEND
  8
Unknown_Area_Type
  0
INSERT
  8
FeatureAttribs
  2
FEATURE
  41
1
  42
1
  43
1
  50
0
  10
453089.744
  20
4632705.043
 66
1
  0
ATTRIB
  8
FeatureAttribs
 70
0
  1
PNOA-H_AMS_1956-57_33k_ES_PAN_2
  2
NAME
  10
453089.744
  20
4632705.043
 40
33.51096
  0
SEQEND
  0
POLYLINE
  8
Unknown_Area_Type
  70
1
  66
1
  0
VERTEX
  8
Unknown_Area_Type
  10
454567.543
  20
4631416.570
  0
VERTEX
  8
Unknown_Area_Type
  10
454589.000
  20
4633800.500
  0
VERTEX
  8
Unknown_Area_Type
  10
452276.500
  20
4634171.500
  0
VERTEX
  8
Unknown_Area_Type
  10
452272.000
  20
4634170.000
  0
VERTEX
  8
Unknown_Area_Type
  10
452241.500
  20
4634153.000
  0
VERTEX
  8
Unknown_Area_Type
  10
452241.000
  20
4634152.000
  0
VERTEX
  8
Unknown_Area_Type
  10
451685.000
  20
4633842.500
  0
VERTEX
  8
Unknown_Area_Type
  10
451594.091
  20
4631436.144
  0
VERTEX
  8
Unknown_Area_Type
  10
453293.641
  20
4631424.603
  0
VERTEX
  8
Unknown_Area_Type
  10
454567.543
  20
4631416.570
  0
SEQEND
  8
Unknown_Area_Type
  0
INSERT
  8
FeatureAttribs
  2
FEATURE
  41
1
  42
1
  43
1
  50
0
  10
429079.814
  20
4631637.628
 66
1
  0
ATTRIB
  8
FeatureAttribs
 70
0
  1
PNOA-H_AMS_1956-57_33k_ES_PAN_2
  2
NAME
  10
429079.814
  20
4631637.628
 40
33.51096
  0
SEQEND
  0
POLYLINE
  8
Unknown_Area_Type
  70
1
  66
1
  0
VERTEX
  8
Unknown_Area_Type
  10
429092.641
  20
4631624.139
  0
VERTEX
  8
Unknown_Area_Type
  10
429075.361
  20
4631624.306
  0
VERTEX
  8
Unknown_Area_Type
  10
429075.628
  20
4631651.117
  0
VERTEX
  8
Unknown_Area_Type
  10
429092.641
  20
4631624.139
  0
SEQEND
  8
Unknown_Area_Type
  0
INSERT
  8
FeatureAttribs
  2
FEATURE
  41
1
  42
1
  43
1
  50
0
  10
429075.481
  20
4631643.832
 66
1
  0
ATTRIB
  8
FeatureAttribs
 70
0
  1
PNOA-H_AMS_1956-57_33k_ES_PAN_2
  2
NAME
  10
429075.481
  20
4631643.832
 40
33.51096
  0
SEQEND
  0
POLYLINE
  8
Unknown_Area_Type
  70
1
  66
1
  0
VERTEX
  8
Unknown_Area_Type
  10
429075.628
  20
4631651.117
  0
VERTEX
  8
Unknown_Area_Type
  10
429075.361
  20
4631624.306
  0
VERTEX
  8
Unknown_Area_Type
  10
429075.334
  20
4631624.306
  0
VERTEX
  8
Unknown_Area_Type
  10
429075.334
  20
4631651.584
  0
VERTEX
  8
Unknown_Area_Type
  10
429075.628
  20
4631651.117
  0
SEQEND
  8
Unknown_Area_Type
  0
INSERT
  8
FeatureAttribs
  2
FEATURE
  41
1
  42
1
  43
1
  50
0
  10
429079.814
  20
4631637.628
 66
1
  0
ATTRIB
  8
FeatureAttribs
 70
0
  1
PNOA-H_AMS_1956-57_33k_ES_PAN_2
  2
NAME
  10
429079.814
  20
4631637.628
 40
33.51096
  0
SEQEND
  0
POLYLINE
  8
Unknown_Area_Type
  70
1
  66
1
  0
VERTEX
  8
Unknown_Area_Type
  10
429092.641
  20
4631624.139
  0
VERTEX
  8
Unknown_Area_Type
  10
429075.361
  20
4631624.306
  0
VERTEX
  8
Unknown_Area_Type
  10
429075.628
  20
4631651.117
  0
VERTEX
  8
Unknown_Area_Type
  10
429092.641
  20
4631624.139
  0
SEQEND
  8
Unknown_Area_Type
  0
INSERT
  8
FeatureAttribs
  2
FEATURE
  41
1
  42
1
  43
1
  50
0
  10
429075.347
  20
4631623.607
 66
1
  0
ATTRIB
  8
FeatureAttribs
 70
0
  1
PNOA-H_AMS_1956-57_33k_ES_PAN_2
  2
NAME
  10
429075.347
  20
4631623.607
 40
33.51096
  0
SEQEND
  0
POLYLINE
  8
Unknown_Area_Type
  70
1
  66
1
  0
VERTEX
  8
Unknown_Area_Type
  10
429075.334
  20
4631624.306
  0
VERTEX
  8
Unknown_Area_Type
  10
429075.361
  20
4631624.306
  0
VERTEX
  8
Unknown_Area_Type
  10
429075.334
  20
4631621.511
  0
VERTEX
  8
Unknown_Area_Type
  10
429075.334
  20
4631624.306
  0
SEQEND
  8
Unknown_Area_Type
  0
INSERT
  8
FeatureAttribs
  2
FEATURE
  41
1
  42
1
  43
1
  50
0
  10
429118.862
  20
4631513.537
 66
1
  0
ATTRIB
  8
FeatureAttribs
 70
0
  1
PNOA-H_AMS_1956-57_33k_ES_PAN_2
  2
NAME
  10
429118.862
  20
4631513.537
 40
33.51096
  0
SEQEND
  0
POLYLINE
  8
Unknown_Area_Type
  70
1
  66
1
  0
VERTEX
  8
Unknown_Area_Type
  10
429232.246
  20
4631402.768
  0
VERTEX
  8
Unknown_Area_Type
  10
429075.334
  20
4631402.768
  0
VERTEX
  8
Unknown_Area_Type
  10
429075.334
  20
4631621.511
  0
VERTEX
  8
Unknown_Area_Type
  10
429075.361
  20
4631624.306
  0
VERTEX
  8
Unknown_Area_Type
  10
429092.641
  20
4631624.139
  0
VERTEX
  8
Unknown_Area_Type
  10
429232.246
  20
4631402.768
  0
SEQEND
  8
Unknown_Area_Type
  0
INSERT
  8
FeatureAttribs
  2
FEATURE
  41
1
  42
1
  43
1
  50
0
  10
429098.493
  20
4636277.566
 66
1
  0
ATTRIB
  8
FeatureAttribs
 70
0
  1
PNOA-H_AMS_1956-57_33k_ES_PAN_2
  2
NAME
  10
429098.493
  20
4636277.566
 40
33.51096
  0
SEQEND
  0
POLYLINE
  8
Unknown_Area_Type
  70
1
  66
1
  0
VERTEX
  8
Unknown_Area_Type
  10
429104.897
  20
4634593.703
  0
VERTEX
  8
Unknown_Area_Type
  10
429075.334
  20
4634588.967
  0
VERTEX
  8
Unknown_Area_Type
  10
429075.334
  20
4637924.087
  0
VERTEX
  8
Unknown_Area_Type
  10
429138.460
  20
4637966.166
  0
VERTEX
  8
Unknown_Area_Type
  10
429121.382
  20
4636250.448
  0
VERTEX
  8
Unknown_Area_Type
  10
429104.897
  20
4634593.703
  0
SEQEND
  8
Unknown_Area_Type
  0
INSERT
  8
FeatureAttribs
  2
FEATURE
  41
1
  42
1
  43
1
  50
0
  10
429604.721
  20
4636156.182
 66
1
  0
ATTRIB
  8
FeatureAttribs
 70
0
  1
PNOA-H_AMS_1956-57_33k_ES_PAN_2
  2
NAME
  10
429604.721
  20
4636156.182
 40
33.51096
  0
SEQEND
  0
POLYLINE
  8
Unknown_Area_Type
  70
1
  66
1
  0
VERTEX
  8
Unknown_Area_Type
  10
429138.460
  20
4637966.166
  0
VERTEX
  8
Unknown_Area_Type
  10
429458.500
  20
4638179.500
  0
VERTEX
  8
Unknown_Area_Type
  10
429714.000
  20
4637604.000
  0
VERTEX
  8
Unknown_Area_Type
  10
429714.000
  20
4637603.000
  0
VERTEX
  8
Unknown_Area_Type
  10
430175.500
  20
4636562.500
  0
VERTEX
  8
Unknown_Area_Type
  10
430236.500
  20
4634775.000
  0
VERTEX
  8
Unknown_Area_Type
  10
429104.897
  20
4634593.703
  0
VERTEX
  8
Unknown_Area_Type
  10
429121.382
  20
4636250.448
  0
VERTEX
  8
Unknown_Area_Type
  10
429138.460
  20
4637966.166
  0
SEQEND
  8
Unknown_Area_Type
  0
INSERT
  8
FeatureAttribs
  2
FEATURE
  41
1
  42
1
  43
1
  50
0
  10
429604.721
  20
4636156.182
 66
1
  0
ATTRIB
  8
FeatureAttribs
 70
0
  1
PNOA-H_AMS_1956-57_33k_ES_PAN_2
  2
NAME
  10
429604.721
  20
4636156.182
 40
33.51096
  0
SEQEND
  0
POLYLINE
  8
Unknown_Area_Type
  70
1
  66
1
  0
VERTEX
  8
Unknown_Area_Type
  10
429138.460
  20
4637966.166
  0
VERTEX
  8
Unknown_Area_Type
  10
429121.382
  20
4636250.448
  0
VERTEX
  8
Unknown_Area_Type
  10
429104.897
  20
4634593.703
  0
VERTEX
  8
Unknown_Area_Type
  10
430236.500
  20
4634775.000
  0
VERTEX
  8
Unknown_Area_Type
  10
430175.500
  20
4636562.500
  0
VERTEX
  8
Unknown_Area_Type
  10
429714.000
  20
4637603.000
  0
VERTEX
  8
Unknown_Area_Type
  10
429714.000
  20
4637604.000
  0
VERTEX
  8
Unknown_Area_Type
  10
429458.500
  20
4638179.500
  0
VERTEX
  8
Unknown_Area_Type
  10
429138.460
  20
4637966.166
  0
SEQEND
  8
Unknown_Area_Type
  0
INSERT
  8
FeatureAttribs
  2
FEATURE
  41
1
  42
1
  43
1
  50
0
  10
431621.615
  20
4636033.558
 66
1
  0
ATTRIB
  8
FeatureAttribs
 70
0
  1
PNOA-H_AMS_1956-57_33k_ES_PAN_2
  2
NAME
  10
431621.615
  20
4636033.558
 40
33.51096
  0
SEQEND
  0
POLYLINE
  8
Unknown_Area_Type
  70
1
  66
1
  0
VERTEX
  8
Unknown_Area_Type
  10
432339.000
  20
4638310.500
  0
VERTEX
  8
Unknown_Area_Type
  10
432339.500
  20
4638311.500
  0
VERTEX
  8
Unknown_Area_Type
  10
432341.000
  20
4638310.500
  0
VERTEX
  8
Unknown_Area_Type
  10
433159.000
  20
4634872.500
  0
VERTEX
  8
Unknown_Area_Type
  10
431104.000
  20
4634404.000
  0
VERTEX
  8
Unknown_Area_Type
  10
430236.500
  20
4634775.500
  0
VERTEX
  8
Unknown_Area_Type
  10
430175.500
  20
4636563.000
  0
VERTEX
  8
Unknown_Area_Type
  10
432339.000
  20
4638310.500
  0
SEQEND
  8
Unknown_Area_Type
  0
INSERT
  8
FeatureAttribs
  2
FEATURE
  41
1
  42
1
  43
1
  50
0
  10
431621.615
  20
4636033.558
 66
1
  0
ATTRIB
  8
FeatureAttribs
 70
0
  1
PNOA-H_AMS_1956-57_33k_ES_PAN_2
  2
NAME
  10
431621.615
  20
4636033.558
 40
33.51096
  0
SEQEND
  0
POLYLINE
  8
Unknown_Area_Type
  70
1
  66
1
  0
VERTEX
  8
Unknown_Area_Type
  10
432339.000
  20
4638310.500
  0
VERTEX
  8
Unknown_Area_Type
  10
430175.500
  20
4636563.000
  0
VERTEX
  8
Unknown_Area_Type
  10
430236.500
  20
4634775.500
  0
VERTEX
  8
Unknown_Area_Type
  10
431104.000
  20
4634404.000
  0
VERTEX
  8
Unknown_Area_Type
  10
433159.000
  20
4634872.500
  0
VERTEX
  8
Unknown_Area_Type
  10
432341.000
  20
4638310.500
  0
VERTEX
  8
Unknown_Area_Type
  10
432339.500
  20
4638311.500
  0
VERTEX
  8
Unknown_Area_Type
  10
432339.000
  20
4638310.500
  0
SEQEND
  8
Unknown_Area_Type
  0
INSERT
  8
FeatureAttribs
  2
FEATURE
  41
1
  42
1
  43
1
  50
0
  10
429081.058
  20
4647512.184
 66
1
  0
ATTRIB
  8
FeatureAttribs
 70
0
  1
PNOA-H_AMS_1956-57_33k_ES_PAN_2
  2
NAME
  10
429081.058
  20
4647512.184
 40
33.51096
  0
SEQEND
  0
POLYLINE
  8
Unknown_Area_Type
  70
1
  66
1
  0
VERTEX
  8
Unknown_Area_Type
  10
429075.334
  20
4647797.280
  0
VERTEX
  8
Unknown_Area_Type
  10
429098.000
  20
4647791.500
  0
VERTEX
  8
Unknown_Area_Type
  10
429075.334
  20
4647227.087
  0
VERTEX
  8
Unknown_Area_Type
  10
429075.334
  20
4647797.280
  0
SEQEND
  8
Unknown_Area_Type
  0
INSERT
  8
FeatureAttribs
  2
FEATURE
  41
1
  42
1
  43
1
  50
0
  10
429203.221
  20
4642218.702
 66
1
  0
ATTRIB
  8
FeatureAttribs
 70
0
  1
PNOA-H_AMS_1956-57_33k_ES_PAN_2
  2
NAME
  10
429203.221
  20
4642218.702
 40
33.51096
  0
SEQEND
  0
POLYLINE
  8
Unknown_Area_Type
  70
1
  66
1
  0
VERTEX
  8
Unknown_Area_Type
  10
429184.744
  20
4642613.617
  0
VERTEX
  8
Unknown_Area_Type
  10
429217.500
  20
4642592.500
  0
VERTEX
  8
Unknown_Area_Type
  10
429219.500
  20
4642591.000
  0
VERTEX
  8
Unknown_Area_Type
  10
429220.000
  20
4642589.000
  0
VERTEX
  8
Unknown_Area_Type
  10
429229.500
  20
4641964.500
  0
VERTEX
  8
Unknown_Area_Type
  10
429176.876
  20
4641823.787
  0
VERTEX
  8
Unknown_Area_Type
  10
429184.744
  20
4642613.617
  0
SEQEND
  8
Unknown_Area_Type
  0
INSERT
  8
FeatureAttribs
  2
FEATURE
  41
1
  42
1
  43
1
  50
0
  10
429203.221
  20
4642218.702
 66
1
  0
ATTRIB
  8
FeatureAttribs
 70
0
  1
PNOA-H_AMS_1956-57_33k_ES_PAN_2
  2
NAME
  10
429203.221
  20
4642218.702
 40
33.51096
  0
SEQEND
  0
POLYLINE
  8
Unknown_Area_Type
  70
1
  66
1
  0
VERTEX
  8
Unknown_Area_Type
  10
429184.744
  20
4642613.617
  0
VERTEX
  8
Unknown_Area_Type
  10
429217.500
  20
4642592.500
  0
VERTEX
  8
Unknown_Area_Type
  10
429219.500
  20
4642591.000
  0
VERTEX
  8
Unknown_Area_Type
  10
429220.000
  20
4642589.000
  0
VERTEX
  8
Unknown_Area_Type
  10
429229.500
  20
4641964.500
  0
VERTEX
  8
Unknown_Area_Type
  10
429176.876
  20
4641823.787
  0
VERTEX
  8
Unknown_Area_Type
  10
429184.744
  20
4642613.617
  0
SEQEND
  8
Unknown_Area_Type
  0
INSERT
  8
FeatureAttribs
  2
FEATURE
  41
1
  42
1
  43
1
  50
0
  10
429127.571
  20
4642118.212
 66
1
  0
ATTRIB
  8
FeatureAttribs
 70
0
  1
PNOA-H_AMS_1956-57_33k_ES_PAN_2
  2
NAME
  10
429127.571
  20
4642118.212
 40
33.51096
  0
SEQEND
  0
POLYLINE
  8
Unknown_Area_Type
  70
1
  66
1
  0
VERTEX
  8
Unknown_Area_Type
  10
429176.876
  20
4641823.787
  0
VERTEX
  8
Unknown_Area_Type
  10
429075.334
  20
4641552.272
  0
VERTEX
  8
Unknown_Area_Type
  10
429075.334
  20
4642684.151
  0
VERTEX
  8
Unknown_Area_Type
  10
429184.744
  20
4642613.617
  0
VERTEX
  8
Unknown_Area_Type
  10
429176.876
  20
4641823.787
  0
SEQEND
  8
Unknown_Area_Type
  0
INSERT
  8
FeatureAttribs
  2
FEATURE
  41
1
  42
1
  43
1
  50
0
  10
436554.267
  20
4642098.341
 66
1
  0
ATTRIB
  8
FeatureAttribs
 70
0
  1
PNOA-H_AMS_1956-57_33k_ES_PAN_2
  2
NAME
  10
436554.267
  20
4642098.341
 40
33.51096
  0
SEQEND
  0
POLYLINE
  8
Unknown_Area_Type
  70
1
  66
1
  0
VERTEX
  8
Unknown_Area_Type
  10
435027.500
  20
4643505.000
  0
VERTEX
  8
Unknown_Area_Type
  10
437885.500
  20
4643458.500
  0
VERTEX
  8
Unknown_Area_Type
  10
437890.500
  20
4643457.500
  0
VERTEX
  8
Unknown_Area_Type
  10
437904.500
  20
4643447.000
  0
VERTEX
  8
Unknown_Area_Type
  10
437898.500
  20
4642577.500
  0
VERTEX
  8
Unknown_Area_Type
  10
437110.000
  20
4639598.500
  0
VERTEX
  8
Unknown_Area_Type
  10
437105.500
  20
4639584.500
  0
VERTEX
  8
Unknown_Area_Type
  10
435023.000
  20
4642284.000
  0
VERTEX
  8
Unknown_Area_Type
  10
435027.500
  20
4643463.500
  0
VERTEX
  8
Unknown_Area_Type
  10
435027.500
  20
4643505.000
  0
SEQEND
  8
Unknown_Area_Type
  0
INSERT
  8
FeatureAttribs
  2
FEATURE
  41
1
  42
1
  43
1
  50
0
  10
436554.267
  20
4642098.341
 66
1
  0
ATTRIB
  8
FeatureAttribs
 70
0
  1
PNOA-H_AMS_1956-57_33k_ES_PAN_2
  2
NAME
  10
436554.267
  20
4642098.341
 40
33.51096
  0
SEQEND
  0
POLYLINE
  8
Unknown_Area_Type
  70
1
  66
1
  0
VERTEX
  8
Unknown_Area_Type
  10
435027.500
  20
4643505.000
  0
VERTEX
  8
Unknown_Area_Type
  10
435027.500
  20
4643463.500
  0
VERTEX
  8
Unknown_Area_Type
  10
435023.000
  20
4642284.000
  0
VERTEX
  8
Unknown_Area_Type
  10
437105.500
  20
4639584.500
  0
VERTEX
  8
Unknown_Area_Type
  10
437110.000
  20
4639598.500
  0
VERTEX
  8
Unknown_Area_Type
  10
437898.500
  20
4642577.500
  0
VERTEX
  8
Unknown_Area_Type
  10
437904.500
  20
4643447.000
  0
VERTEX
  8
Unknown_Area_Type
  10
437890.500
  20
4643457.500
  0
VERTEX
  8
Unknown_Area_Type
  10
437885.500
  20
4643458.500
  0
VERTEX
  8
Unknown_Area_Type
  10
435027.500
  20
4643505.000
  0
SEQEND
  8
Unknown_Area_Type
  0
INSERT
  8
FeatureAttribs
  2
FEATURE
  41
1
  42
1
  43
1
  50
0
  10
430845.235
  20
4641781.131
 66
1
  0
ATTRIB
  8
FeatureAttribs
 70
0
  1
PNOA-H_AMS_1956-57_33k_ES_PAN_2
  2
NAME
  10
430845.235
  20
4641781.131
 40
33.51096
  0
SEQEND
  0
POLYLINE
  8
Unknown_Area_Type
  70
1
  66
1
  0
VERTEX
  8
Unknown_Area_Type
  10
432089.000
  20
4643268.500
  0
VERTEX
  8
Unknown_Area_Type
  10
432091.000
  20
4643269.000
  0
VERTEX
  8
Unknown_Area_Type
  10
432093.500
  20
4643269.000
  0
VERTEX
  8
Unknown_Area_Type
  10
432094.000
  20
4643255.000
  0
VERTEX
  8
Unknown_Area_Type
  10
432115.500
  20
4642139.500
  0
VERTEX
  8
Unknown_Area_Type
  10
431283.000
  20
4639656.500
  0
VERTEX
  8
Unknown_Area_Type
  10
429229.500
  20
4641965.000
  0
VERTEX
  8
Unknown_Area_Type
  10
429219.500
  20
4642590.500
  0
VERTEX
  8
Unknown_Area_Type
  10
432089.000
  20
4643268.500
  0
SEQEND
  8
Unknown_Area_Type
  0
INSERT
  8
FeatureAttribs
  2
FEATURE
  41
1
  42
1
  43
1
  50
0
  10
430845.235
  20
4641781.131
 66
1
  0
ATTRIB
  8
FeatureAttribs
 70
0
  1
PNOA-H_AMS_1956-57_33k_ES_PAN_2
  2
NAME
  10
430845.235
  20
4641781.131
 40
33.51096
  0
SEQEND
  0
POLYLINE
  8
Unknown_Area_Type
  70
1
  66
1
  0
VERTEX
  8
Unknown_Area_Type
  10
432089.000
  20
4643268.500
  0
VERTEX
  8
Unknown_Area_Type
  10
429219.500
  20
4642590.500
  0
VERTEX
  8
Unknown_Area_Type
  10
429229.500
  20
4641965.000
  0
VERTEX
  8
Unknown_Area_Type
  10
431283.000
  20
4639656.500
  0
VERTEX
  8
Unknown_Area_Type
  10
432115.500
  20
4642139.500
  0
VERTEX
  8
Unknown_Area_Type
  10
432094.000
  20
4643255.000
  0
VERTEX
  8
Unknown_Area_Type
  10
432093.500
  20
4643269.000
  0
VERTEX
  8
Unknown_Area_Type
  10
432091.000
  20
4643269.000
  0
VERTEX
  8
Unknown_Area_Type
  10
432089.000
  20
4643268.500
  0
SEQEND
  8
Unknown_Area_Type
  0
INSERT
  8
FeatureAttribs
  2
FEATURE
  41
1
  42
1
  43
1
  50
0
  10
433666.115
  20
4642127.337
 66
1
  0
ATTRIB
  8
FeatureAttribs
 70
0
  1
PNOA-H_AMS_1956-57_33k_ES_PAN_2
  2
NAME
  10
433666.115
  20
4642127.337
 40
33.51096
  0
SEQEND
  0
POLYLINE
  8
Unknown_Area_Type
  70
1
  66
1
  0
VERTEX
  8
Unknown_Area_Type
  10
433788.500
  20
4643548.500
  0
VERTEX
  8
Unknown_Area_Type
  10
434937.500
  20
4643565.500
  0
VERTEX
  8
Unknown_Area_Type
  10
435027.500
  20
4643505.000
  0
VERTEX
  8
Unknown_Area_Type
  10
435022.500
  20
4642284.500
  0
VERTEX
  8
Unknown_Area_Type
  10
434204.500
  20
4639655.000
  0
VERTEX
  8
Unknown_Area_Type
  10
432115.500
  20
4642140.500
  0
VERTEX
  8
Unknown_Area_Type
  10
432093.500
  20
4643269.500
  0
VERTEX
  8
Unknown_Area_Type
  10
432316.000
  20
4643526.000
  0
VERTEX
  8
Unknown_Area_Type
  10
433755.500
  20
4643548.000
  0
VERTEX
  8
Unknown_Area_Type
  10
433788.500
  20
4643548.500
  0
SEQEND
  8
Unknown_Area_Type
  0
INSERT
  8
FeatureAttribs
  2
FEATURE
  41
1
  42
1
  43
1
  50
0
  10
433666.115
  20
4642127.337
 66
1
  0
ATTRIB
  8
FeatureAttribs
 70
0
  1
PNOA-H_AMS_1956-57_33k_ES_PAN_2
  2
NAME
  10
433666.115
  20
4642127.337
 40
33.51096
  0
SEQEND
  0
POLYLINE
  8
Unknown_Area_Type
  70
1
  66
1
  0
VERTEX
  8
Unknown_Area_Type
  10
433788.500
  20
4643548.500
  0
VERTEX
  8
Unknown_Area_Type
  10
433755.500
  20
4643548.000
  0
VERTEX
  8
Unknown_Area_Type
  10
432316.000
  20
4643526.000
  0
VERTEX
  8
Unknown_Area_Type
  10
432093.500
  20
4643269.500
  0
VERTEX
  8
Unknown_Area_Type
  10
432115.500
  20
4642140.500
  0
VERTEX
  8
Unknown_Area_Type
  10
434204.500
  20
4639655.000
  0
VERTEX
  8
Unknown_Area_Type
  10
435022.500
  20
4642284.500
  0
VERTEX
  8
Unknown_Area_Type
  10
435027.500
  20
4643505.000
  0
VERTEX
  8
Unknown_Area_Type
  10
434937.500
  20
4643565.500
  0
VERTEX
  8
Unknown_Area_Type
  10
433788.500
  20
4643548.500
  0
SEQEND
  8
Unknown_Area_Type
  0
ENDSEC
  0
EOF
