  0
SECTION
  2
HEADER
  9
$ACADVER
  1
AC1009
  9
$LUNITS
  70
2
  9
$LIMMIN
  10
401397.043
  20
4631624.287
  9
$LIMMAX
  10
429259.697
  20
4650458.244
  9
$EXTMIN
  10
401397.043
  20
4631624.287
  9
$EXTMAX
  10
429259.697
  20
4650458.244
  999
Created by Global Mapper
  999
Projection: UTM
  999
Datum: ETRS89
  999
Ground Units: meters
  999
ZONE: 30
  0
ENDSEC
  0
SECTION
  2
TABLES
  0
ENDSEC
  0
SECTION
  2
BLOCKS
  0
BLOCK
  8
FeatureAttribs
  70
0
  2
FEATURE
  3
FEATURE
  10
0.00000000
  20
0.00000000
  0
ATTDEF
  8
FeatureAttribs
  70
0
  1
 
  2
NAME
  3
NAME
  10
0.00000000
  20
0.00000000
  40
1.00000000
  0
ENDBLK
  0
ENDSEC
  0
SECTION
  2
ENTITIES
  0
INSERT
  8
FeatureAttribs
  2
FEATURE
  41
1
  42
1
  43
1
  50
0
  10
425647.374
  20
4650230.533
 66
1
  0
ATTRIB
  8
FeatureAttribs
 70
0
  1
PNOA-H_AMS_1956-57_33k_ES_PAN_2
  2
NAME
  10
425647.374
  20
4650230.533
 40
33.63102
  0
SEQEND
  0
POLYLINE
  8
Unknown_Area_Type
  70
1
  66
1
  0
VERTEX
  8
Unknown_Area_Type
  10
427107.330
  20
4650151.067
  0
VERTEX
  8
Unknown_Area_Type
  10
425808.892
  20
4650164.336
  0
VERTEX
  8
Unknown_Area_Type
  10
424185.160
  20
4650181.720
  0
VERTEX
  8
Unknown_Area_Type
  10
424187.658
  20
4650310.000
  0
VERTEX
  8
Unknown_Area_Type
  10
427109.944
  20
4650310.000
  0
VERTEX
  8
Unknown_Area_Type
  10
427107.330
  20
4650151.067
  0
SEQEND
  8
Unknown_Area_Type
  0
INSERT
  8
FeatureAttribs
  2
FEATURE
  41
1
  42
1
  43
1
  50
0
  10
425540.713
  20
4648943.382
 66
1
  0
ATTRIB
  8
FeatureAttribs
 70
0
  1
PNOA-H_AMS_1956-57_33k_ES_PAN_2
  2
NAME
  10
425540.713
  20
4648943.382
 40
33.63102
  0
SEQEND
  0
POLYLINE
  8
Unknown_Area_Type
  70
1
  66
1
  0
VERTEX
  8
Unknown_Area_Type
  10
427107.330
  20
4650151.067
  0
VERTEX
  8
Unknown_Area_Type
  10
427077.000
  20
4648307.000
  0
VERTEX
  8
Unknown_Area_Type
  10
425137.500
  20
4647416.000
  0
VERTEX
  8
Unknown_Area_Type
  10
424136.000
  20
4647657.500
  0
VERTEX
  8
Unknown_Area_Type
  10
424185.160
  20
4650181.720
  0
VERTEX
  8
Unknown_Area_Type
  10
425808.892
  20
4650164.336
  0
VERTEX
  8
Unknown_Area_Type
  10
427107.330
  20
4650151.067
  0
SEQEND
  8
Unknown_Area_Type
  0
INSERT
  8
FeatureAttribs
  2
FEATURE
  41
1
  42
1
  43
1
  50
0
  10
425540.713
  20
4648943.382
 66
1
  0
ATTRIB
  8
FeatureAttribs
 70
0
  1
PNOA-H_AMS_1956-57_33k_ES_PAN_2
  2
NAME
  10
425540.713
  20
4648943.382
 40
33.63102
  0
SEQEND
  0
POLYLINE
  8
Unknown_Area_Type
  70
1
  66
1
  0
VERTEX
  8
Unknown_Area_Type
  10
427107.330
  20
4650151.067
  0
VERTEX
  8
Unknown_Area_Type
  10
425808.892
  20
4650164.336
  0
VERTEX
  8
Unknown_Area_Type
  10
424185.160
  20
4650181.720
  0
VERTEX
  8
Unknown_Area_Type
  10
424136.000
  20
4647657.500
  0
VERTEX
  8
Unknown_Area_Type
  10
425137.500
  20
4647416.000
  0
VERTEX
  8
Unknown_Area_Type
  10
427077.000
  20
4648307.000
  0
VERTEX
  8
Unknown_Area_Type
  10
427107.330
  20
4650151.067
  0
SEQEND
  8
Unknown_Area_Type
  0
INSERT
  8
FeatureAttribs
  2
FEATURE
  41
1
  42
1
  43
1
  50
0
  10
419749.433
  20
4650336.068
 66
1
  0
ATTRIB
  8
FeatureAttribs
 70
0
  1
PNOA-H_AMS_1956-57_33k_ES_PAN_2
  2
NAME
  10
419749.433
  20
4650336.068
 40
33.63102
  0
SEQEND
  0
POLYLINE
  8
Unknown_Area_Type
  70
1
  66
1
  0
VERTEX
  8
Unknown_Area_Type
  10
421238.627
  20
4650458.244
  0
VERTEX
  8
Unknown_Area_Type
  10
421231.456
  20
4650213.892
  0
VERTEX
  8
Unknown_Area_Type
  10
418907.325
  20
4650239.905
  0
VERTEX
  8
Unknown_Area_Type
  10
418261.229
  20
4650247.452
  0
VERTEX
  8
Unknown_Area_Type
  10
418267.402
  20
4650458.244
  0
VERTEX
  8
Unknown_Area_Type
  10
421238.627
  20
4650458.244
  0
SEQEND
  8
Unknown_Area_Type
  0
INSERT
  8
FeatureAttribs
  2
FEATURE
  41
1
  42
1
  43
1
  50
0
  10
419725.038
  20
4648934.939
 66
1
  0
ATTRIB
  8
FeatureAttribs
 70
0
  1
PNOA-H_AMS_1956-57_33k_ES_PAN_2
  2
NAME
  10
419725.038
  20
4648934.939
 40
33.63102
  0
SEQEND
  0
POLYLINE
  8
Unknown_Area_Type
  70
1
  66
1
  0
VERTEX
  8
Unknown_Area_Type
  10
421231.456
  20
4650213.892
  0
VERTEX
  8
Unknown_Area_Type
  10
421160.000
  20
4647779.000
  0
VERTEX
  8
Unknown_Area_Type
  10
420077.500
  20
4647444.500
  0
VERTEX
  8
Unknown_Area_Type
  10
420066.500
  20
4647446.000
  0
VERTEX
  8
Unknown_Area_Type
  10
418192.000
  20
4647883.500
  0
VERTEX
  8
Unknown_Area_Type
  10
418261.229
  20
4650247.452
  0
VERTEX
  8
Unknown_Area_Type
  10
418907.325
  20
4650239.905
  0
VERTEX
  8
Unknown_Area_Type
  10
421231.456
  20
4650213.892
  0
SEQEND
  8
Unknown_Area_Type
  0
INSERT
  8
FeatureAttribs
  2
FEATURE
  41
1
  42
1
  43
1
  50
0
  10
419725.038
  20
4648934.939
 66
1
  0
ATTRIB
  8
FeatureAttribs
 70
0
  1
PNOA-H_AMS_1956-57_33k_ES_PAN_2
  2
NAME
  10
419725.038
  20
4648934.939
 40
33.63102
  0
SEQEND
  0
POLYLINE
  8
Unknown_Area_Type
  70
1
  66
1
  0
VERTEX
  8
Unknown_Area_Type
  10
421231.456
  20
4650213.892
  0
VERTEX
  8
Unknown_Area_Type
  10
418907.325
  20
4650239.905
  0
VERTEX
  8
Unknown_Area_Type
  10
418261.229
  20
4650247.452
  0
VERTEX
  8
Unknown_Area_Type
  10
418192.000
  20
4647883.500
  0
VERTEX
  8
Unknown_Area_Type
  10
420066.500
  20
4647446.000
  0
VERTEX
  8
Unknown_Area_Type
  10
420077.500
  20
4647444.500
  0
VERTEX
  8
Unknown_Area_Type
  10
421160.000
  20
4647779.000
  0
VERTEX
  8
Unknown_Area_Type
  10
421231.456
  20
4650213.892
  0
SEQEND
  8
Unknown_Area_Type
  0
INSERT
  8
FeatureAttribs
  2
FEATURE
  41
1
  42
1
  43
1
  50
0
  10
407627.860
  20
4650408.717
 66
1
  0
ATTRIB
  8
FeatureAttribs
 70
0
  1
PNOA-H_AMS_1956-57_33k_ES_PAN_2
  2
NAME
  10
407627.860
  20
4650408.717
 40
33.63102
  0
SEQEND
  0
POLYLINE
  8
Unknown_Area_Type
  70
1
  66
1
  0
VERTEX
  8
Unknown_Area_Type
  10
409085.354
  20
4650458.244
  0
VERTEX
  8
Unknown_Area_Type
  10
409081.946
  20
4650359.189
  0
VERTEX
  8
Unknown_Area_Type
  10
408554.940
  20
4650365.858
  0
VERTEX
  8
Unknown_Area_Type
  10
406172.184
  20
4650397.167
  0
VERTEX
  8
Unknown_Area_Type
  10
406171.584
  20
4650458.244
  0
VERTEX
  8
Unknown_Area_Type
  10
409085.354
  20
4650458.244
  0
SEQEND
  8
Unknown_Area_Type
  0
INSERT
  8
FeatureAttribs
  2
FEATURE
  41
1
  42
1
  43
1
  50
0
  10
407629.897
  20
4649260.590
 66
1
  0
ATTRIB
  8
FeatureAttribs
 70
0
  1
PNOA-H_AMS_1956-57_33k_ES_PAN_2
  2
NAME
  10
407629.897
  20
4649260.590
 40
33.63102
  0
SEQEND
  0
POLYLINE
  8
Unknown_Area_Type
  70
1
  66
1
  0
VERTEX
  8
Unknown_Area_Type
  10
409081.946
  20
4650359.189
  0
VERTEX
  8
Unknown_Area_Type
  10
409008.500
  20
4648224.000
  0
VERTEX
  8
Unknown_Area_Type
  10
408453.000
  20
4647999.000
  0
VERTEX
  8
Unknown_Area_Type
  10
408447.000
  20
4647998.500
  0
VERTEX
  8
Unknown_Area_Type
  10
406193.000
  20
4648278.500
  0
VERTEX
  8
Unknown_Area_Type
  10
406172.184
  20
4650397.167
  0
VERTEX
  8
Unknown_Area_Type
  10
408554.940
  20
4650365.858
  0
VERTEX
  8
Unknown_Area_Type
  10
409081.946
  20
4650359.189
  0
SEQEND
  8
Unknown_Area_Type
  0
INSERT
  8
FeatureAttribs
  2
FEATURE
  41
1
  42
1
  43
1
  50
0
  10
407629.897
  20
4649260.590
 66
1
  0
ATTRIB
  8
FeatureAttribs
 70
0
  1
PNOA-H_AMS_1956-57_33k_ES_PAN_2
  2
NAME
  10
407629.897
  20
4649260.590
 40
33.63102
  0
SEQEND
  0
POLYLINE
  8
Unknown_Area_Type
  70
1
  66
1
  0
VERTEX
  8
Unknown_Area_Type
  10
409081.946
  20
4650359.189
  0
VERTEX
  8
Unknown_Area_Type
  10
408554.940
  20
4650365.858
  0
VERTEX
  8
Unknown_Area_Type
  10
406172.184
  20
4650397.167
  0
VERTEX
  8
Unknown_Area_Type
  10
406193.000
  20
4648278.500
  0
VERTEX
  8
Unknown_Area_Type
  10
408447.000
  20
4647998.500
  0
VERTEX
  8
Unknown_Area_Type
  10
408453.000
  20
4647999.000
  0
VERTEX
  8
Unknown_Area_Type
  10
409008.500
  20
4648224.000
  0
VERTEX
  8
Unknown_Area_Type
  10
409081.946
  20
4650359.189
  0
SEQEND
  8
Unknown_Area_Type
  0
INSERT
  8
FeatureAttribs
  2
FEATURE
  41
1
  42
1
  43
1
  50
0
  10
405032.434
  20
4650427.706
 66
1
  0
ATTRIB
  8
FeatureAttribs
 70
0
  1
PNOA-H_AMS_1956-57_33k_ES_PAN_2
  2
NAME
  10
405032.434
  20
4650427.706
 40
33.63102
  0
SEQEND
  0
POLYLINE
  8
Unknown_Area_Type
  70
1
  66
1
  0
VERTEX
  8
Unknown_Area_Type
  10
406171.582
  20
4650458.244
  0
VERTEX
  8
Unknown_Area_Type
  10
406172.182
  20
4650397.167
  0
VERTEX
  8
Unknown_Area_Type
  10
405104.135
  20
4650411.201
  0
VERTEX
  8
Unknown_Area_Type
  10
403347.226
  20
4650435.143
  0
VERTEX
  8
Unknown_Area_Type
  10
403346.907
  20
4650458.244
  0
VERTEX
  8
Unknown_Area_Type
  10
406171.582
  20
4650458.244
  0
SEQEND
  8
Unknown_Area_Type
  0
INSERT
  8
FeatureAttribs
  2
FEATURE
  41
1
  42
1
  43
1
  50
0
  10
404792.779
  20
4649295.385
 66
1
  0
ATTRIB
  8
FeatureAttribs
 70
0
  1
PNOA-H_AMS_1956-57_33k_ES_PAN_2
  2
NAME
  10
404792.779
  20
4649295.385
 40
33.63102
  0
SEQEND
  0
POLYLINE
  8
Unknown_Area_Type
  70
1
  66
1
  0
VERTEX
  8
Unknown_Area_Type
  10
406172.182
  20
4650397.167
  0
VERTEX
  8
Unknown_Area_Type
  10
406193.000
  20
4648278.000
  0
VERTEX
  8
Unknown_Area_Type
  10
405593.000
  20
4648020.500
  0
VERTEX
  8
Unknown_Area_Type
  10
403376.000
  20
4648349.500
  0
VERTEX
  8
Unknown_Area_Type
  10
403347.226
  20
4650435.143
  0
VERTEX
  8
Unknown_Area_Type
  10
405104.135
  20
4650411.201
  0
VERTEX
  8
Unknown_Area_Type
  10
406172.182
  20
4650397.167
  0
SEQEND
  8
Unknown_Area_Type
  0
INSERT
  8
FeatureAttribs
  2
FEATURE
  41
1
  42
1
  43
1
  50
0
  10
404792.779
  20
4649295.385
 66
1
  0
ATTRIB
  8
FeatureAttribs
 70
0
  1
PNOA-H_AMS_1956-57_33k_ES_PAN_2
  2
NAME
  10
404792.779
  20
4649295.385
 40
33.63102
  0
SEQEND
  0
POLYLINE
  8
Unknown_Area_Type
  70
1
  66
1
  0
VERTEX
  8
Unknown_Area_Type
  10
406172.182
  20
4650397.167
  0
VERTEX
  8
Unknown_Area_Type
  10
405104.135
  20
4650411.201
  0
VERTEX
  8
Unknown_Area_Type
  10
403347.226
  20
4650435.143
  0
VERTEX
  8
Unknown_Area_Type
  10
403376.000
  20
4648349.500
  0
VERTEX
  8
Unknown_Area_Type
  10
405593.000
  20
4648020.500
  0
VERTEX
  8
Unknown_Area_Type
  10
406193.000
  20
4648278.000
  0
VERTEX
  8
Unknown_Area_Type
  10
406172.182
  20
4650397.167
  0
SEQEND
  8
Unknown_Area_Type
  0
INSERT
  8
FeatureAttribs
  2
FEATURE
  41
1
  42
1
  43
1
  50
0
  10
413695.636
  20
4650370.499
 66
1
  0
ATTRIB
  8
FeatureAttribs
 70
0
  1
PNOA-H_AMS_1956-57_33k_ES_PAN_2
  2
NAME
  10
413695.636
  20
4650370.499
 40
33.63102
  0
SEQEND
  0
POLYLINE
  8
Unknown_Area_Type
  70
1
  66
1
  0
VERTEX
  8
Unknown_Area_Type
  10
415253.078
  20
4650458.244
  0
VERTEX
  8
Unknown_Area_Type
  10
415247.490
  20
4650282.753
  0
VERTEX
  8
Unknown_Area_Type
  10
412138.818
  20
4650320.575
  0
VERTEX
  8
Unknown_Area_Type
  10
412144.800
  20
4650458.244
  0
VERTEX
  8
Unknown_Area_Type
  10
415253.078
  20
4650458.244
  0
SEQEND
  8
Unknown_Area_Type
  0
INSERT
  8
FeatureAttribs
  2
FEATURE
  41
1
  42
1
  43
1
  50
0
  10
413671.140
  20
4649089.435
 66
1
  0
ATTRIB
  8
FeatureAttribs
 70
0
  1
PNOA-H_AMS_1956-57_33k_ES_PAN_2
  2
NAME
  10
413671.140
  20
4649089.435
 40
33.63102
  0
SEQEND
  0
POLYLINE
  8
Unknown_Area_Type
  70
1
  66
1
  0
VERTEX
  8
Unknown_Area_Type
  10
415247.490
  20
4650282.753
  0
VERTEX
  8
Unknown_Area_Type
  10
415175.500
  20
4648022.000
  0
VERTEX
  8
Unknown_Area_Type
  10
414226.500
  20
4647679.500
  0
VERTEX
  8
Unknown_Area_Type
  10
414221.500
  20
4647679.000
  0
VERTEX
  8
Unknown_Area_Type
  10
412043.500
  20
4648127.000
  0
VERTEX
  8
Unknown_Area_Type
  10
412138.818
  20
4650320.575
  0
VERTEX
  8
Unknown_Area_Type
  10
415247.490
  20
4650282.753
  0
SEQEND
  8
Unknown_Area_Type
  0
INSERT
  8
FeatureAttribs
  2
FEATURE
  41
1
  42
1
  43
1
  50
0
  10
413671.140
  20
4649089.435
 66
1
  0
ATTRIB
  8
FeatureAttribs
 70
0
  1
PNOA-H_AMS_1956-57_33k_ES_PAN_2
  2
NAME
  10
413671.140
  20
4649089.435
 40
33.63102
  0
SEQEND
  0
POLYLINE
  8
Unknown_Area_Type
  70
1
  66
1
  0
VERTEX
  8
Unknown_Area_Type
  10
415247.490
  20
4650282.753
  0
VERTEX
  8
Unknown_Area_Type
  10
412138.818
  20
4650320.575
  0
VERTEX
  8
Unknown_Area_Type
  10
412043.500
  20
4648127.000
  0
VERTEX
  8
Unknown_Area_Type
  10
414221.500
  20
4647679.000
  0
VERTEX
  8
Unknown_Area_Type
  10
414226.500
  20
4647679.500
  0
VERTEX
  8
Unknown_Area_Type
  10
415175.500
  20
4648022.000
  0
VERTEX
  8
Unknown_Area_Type
  10
415247.490
  20
4650282.753
  0
SEQEND
  8
Unknown_Area_Type
  0
INSERT
  8
FeatureAttribs
  2
FEATURE
  41
1
  42
1
  43
1
  50
0
  10
428184.077
  20
4650219.535
 66
1
  0
ATTRIB
  8
FeatureAttribs
 70
0
  1
PNOA-H_AMS_1956-57_33k_ES_PAN_2
  2
NAME
  10
428184.077
  20
4650219.535
 40
33.63102
  0
SEQEND
  0
POLYLINE
  8
Unknown_Area_Type
  70
1
  66
1
  0
VERTEX
  8
Unknown_Area_Type
  10
429259.697
  20
4650310.000
  0
VERTEX
  8
Unknown_Area_Type
  10
429259.697
  20
4650131.863
  0
VERTEX
  8
Unknown_Area_Type
  10
429259.669
  20
4650129.071
  0
VERTEX
  8
Unknown_Area_Type
  10
427107.330
  20
4650151.067
  0
VERTEX
  8
Unknown_Area_Type
  10
427109.944
  20
4650310.000
  0
VERTEX
  8
Unknown_Area_Type
  10
429259.697
  20
4650310.000
  0
SEQEND
  8
Unknown_Area_Type
  0
INSERT
  8
FeatureAttribs
  2
FEATURE
  41
1
  42
1
  43
1
  50
0
  10
429259.683
  20
4650129.769
 66
1
  0
ATTRIB
  8
FeatureAttribs
 70
0
  1
PNOA-H_AMS_1956-57_33k_ES_PAN_2
  2
NAME
  10
429259.683
  20
4650129.769
 40
33.63102
  0
SEQEND
  0
POLYLINE
  8
Unknown_Area_Type
  70
1
  66
1
  0
VERTEX
  8
Unknown_Area_Type
  10
429259.697
  20
4650131.863
  0
VERTEX
  8
Unknown_Area_Type
  10
429259.697
  20
4650129.070
  0
VERTEX
  8
Unknown_Area_Type
  10
429259.669
  20
4650129.071
  0
VERTEX
  8
Unknown_Area_Type
  10
429259.697
  20
4650131.863
  0
SEQEND
  8
Unknown_Area_Type
  0
INSERT
  8
FeatureAttribs
  2
FEATURE
  41
1
  42
1
  43
1
  50
0
  10
429254.011
  20
4648991.785
 66
1
  0
ATTRIB
  8
FeatureAttribs
 70
0
  1
PNOA-H_AMS_1956-57_33k_ES_PAN_2
  2
NAME
  10
429254.011
  20
4648991.785
 40
33.63102
  0
SEQEND
  0
POLYLINE
  8
Unknown_Area_Type
  70
1
  66
1
  0
VERTEX
  8
Unknown_Area_Type
  10
429259.697
  20
4647864.887
  0
VERTEX
  8
Unknown_Area_Type
  10
429236.982
  20
4647854.499
  0
VERTEX
  8
Unknown_Area_Type
  10
429259.669
  20
4650129.071
  0
VERTEX
  8
Unknown_Area_Type
  10
429259.697
  20
4650129.070
  0
VERTEX
  8
Unknown_Area_Type
  10
429259.697
  20
4647864.887
  0
SEQEND
  8
Unknown_Area_Type
  0
INSERT
  8
FeatureAttribs
  2
FEATURE
  41
1
  42
1
  43
1
  50
0
  10
428213.455
  20
4649080.576
 66
1
  0
ATTRIB
  8
FeatureAttribs
 70
0
  1
PNOA-H_AMS_1956-57_33k_ES_PAN_2
  2
NAME
  10
428213.455
  20
4649080.576
 40
33.63102
  0
SEQEND
  0
POLYLINE
  8
Unknown_Area_Type
  70
1
  66
1
  0
VERTEX
  8
Unknown_Area_Type
  10
429236.982
  20
4647854.499
  0
VERTEX
  8
Unknown_Area_Type
  10
429102.500
  20
4647793.000
  0
VERTEX
  8
Unknown_Area_Type
  10
429096.000
  20
4647791.500
  0
VERTEX
  8
Unknown_Area_Type
  10
427077.000
  20
4648307.000
  0
VERTEX
  8
Unknown_Area_Type
  10
427107.330
  20
4650151.067
  0
VERTEX
  8
Unknown_Area_Type
  10
429259.669
  20
4650129.071
  0
VERTEX
  8
Unknown_Area_Type
  10
429236.982
  20
4647854.499
  0
SEQEND
  8
Unknown_Area_Type
  0
INSERT
  8
FeatureAttribs
  2
FEATURE
  41
1
  42
1
  43
1
  50
0
  10
428213.455
  20
4649080.576
 66
1
  0
ATTRIB
  8
FeatureAttribs
 70
0
  1
PNOA-H_AMS_1956-57_33k_ES_PAN_2
  2
NAME
  10
428213.455
  20
4649080.576
 40
33.63102
  0
SEQEND
  0
POLYLINE
  8
Unknown_Area_Type
  70
1
  66
1
  0
VERTEX
  8
Unknown_Area_Type
  10
429236.982
  20
4647854.499
  0
VERTEX
  8
Unknown_Area_Type
  10
429259.669
  20
4650129.071
  0
VERTEX
  8
Unknown_Area_Type
  10
427107.330
  20
4650151.067
  0
VERTEX
  8
Unknown_Area_Type
  10
427077.000
  20
4648307.000
  0
VERTEX
  8
Unknown_Area_Type
  10
429096.000
  20
4647791.500
  0
VERTEX
  8
Unknown_Area_Type
  10
429102.500
  20
4647793.000
  0
VERTEX
  8
Unknown_Area_Type
  10
429236.982
  20
4647854.499
  0
SEQEND
  8
Unknown_Area_Type
  0
INSERT
  8
FeatureAttribs
  2
FEATURE
  41
1
  42
1
  43
1
  50
0
  10
410612.517
  20
4650389.409
 66
1
  0
ATTRIB
  8
FeatureAttribs
 70
0
  1
PNOA-H_AMS_1956-57_33k_ES_PAN_2
  2
NAME
  10
410612.517
  20
4650389.409
 40
33.63102
  0
SEQEND
  0
POLYLINE
  8
Unknown_Area_Type
  70
1
  66
1
  0
VERTEX
  8
Unknown_Area_Type
  10
412144.800
  20
4650458.244
  0
VERTEX
  8
Unknown_Area_Type
  10
412138.818
  20
4650320.575
  0
VERTEX
  8
Unknown_Area_Type
  10
412005.740
  20
4650322.194
  0
VERTEX
  8
Unknown_Area_Type
  10
409082.188
  20
4650359.186
  0
VERTEX
  8
Unknown_Area_Type
  10
409085.584
  20
4650458.244
  0
VERTEX
  8
Unknown_Area_Type
  10
412144.800
  20
4650458.244
  0
SEQEND
  8
Unknown_Area_Type
  0
INSERT
  8
FeatureAttribs
  2
FEATURE
  41
1
  42
1
  43
1
  50
0
  10
410589.233
  20
4649179.184
 66
1
  0
ATTRIB
  8
FeatureAttribs
 70
0
  1
PNOA-H_AMS_1956-57_33k_ES_PAN_2
  2
NAME
  10
410589.233
  20
4649179.184
 40
33.63102
  0
SEQEND
  0
POLYLINE
  8
Unknown_Area_Type
  70
1
  66
1
  0
VERTEX
  8
Unknown_Area_Type
  10
412138.818
  20
4650320.575
  0
VERTEX
  8
Unknown_Area_Type
  10
412043.500
  20
4648127.000
  0
VERTEX
  8
Unknown_Area_Type
  10
411297.500
  20
4647840.500
  0
VERTEX
  8
Unknown_Area_Type
  10
409009.000
  20
4648224.500
  0
VERTEX
  8
Unknown_Area_Type
  10
409082.188
  20
4650359.186
  0
VERTEX
  8
Unknown_Area_Type
  10
412005.740
  20
4650322.194
  0
VERTEX
  8
Unknown_Area_Type
  10
412138.818
  20
4650320.575
  0
SEQEND
  8
Unknown_Area_Type
  0
INSERT
  8
FeatureAttribs
  2
FEATURE
  41
1
  42
1
  43
1
  50
0
  10
410589.233
  20
4649179.184
 66
1
  0
ATTRIB
  8
FeatureAttribs
 70
0
  1
PNOA-H_AMS_1956-57_33k_ES_PAN_2
  2
NAME
  10
410589.233
  20
4649179.184
 40
33.63102
  0
SEQEND
  0
POLYLINE
  8
Unknown_Area_Type
  70
1
  66
1
  0
VERTEX
  8
Unknown_Area_Type
  10
412138.818
  20
4650320.575
  0
VERTEX
  8
Unknown_Area_Type
  10
412005.740
  20
4650322.194
  0
VERTEX
  8
Unknown_Area_Type
  10
409082.188
  20
4650359.186
  0
VERTEX
  8
Unknown_Area_Type
  10
409009.000
  20
4648224.500
  0
VERTEX
  8
Unknown_Area_Type
  10
411297.500
  20
4647840.500
  0
VERTEX
  8
Unknown_Area_Type
  10
412043.500
  20
4648127.000
  0
VERTEX
  8
Unknown_Area_Type
  10
412138.818
  20
4650320.575
  0
SEQEND
  8
Unknown_Area_Type
  0
INSERT
  8
FeatureAttribs
  2
FEATURE
  41
1
  42
1
  43
1
  50
0
  10
421872.222
  20
4650319.981
 66
1
  0
ATTRIB
  8
FeatureAttribs
 70
0
  1
PNOA-H_AMS_1956-57_33k_ES_PAN_2
  2
NAME
  10
421872.222
  20
4650319.981
 40
33.63102
  0
SEQEND
  0
POLYLINE
  8
Unknown_Area_Type
  70
1
  66
1
  0
VERTEX
  8
Unknown_Area_Type
  10
422510.000
  20
4650458.244
  0
VERTEX
  8
Unknown_Area_Type
  10
422510.000
  20
4650310.000
  0
VERTEX
  8
Unknown_Area_Type
  10
424187.851
  20
4650310.000
  0
VERTEX
  8
Unknown_Area_Type
  10
424185.367
  20
4650181.718
  0
VERTEX
  8
Unknown_Area_Type
  10
422358.111
  20
4650201.281
  0
VERTEX
  8
Unknown_Area_Type
  10
421231.322
  20
4650213.893
  0
VERTEX
  8
Unknown_Area_Type
  10
421238.511
  20
4650458.244
  0
VERTEX
  8
Unknown_Area_Type
  10
422510.000
  20
4650458.244
  0
SEQEND
  8
Unknown_Area_Type
  0
INSERT
  8
FeatureAttribs
  2
FEATURE
  41
1
  42
1
  43
1
  50
0
  10
422692.035
  20
4648857.014
 66
1
  0
ATTRIB
  8
FeatureAttribs
 70
0
  1
PNOA-H_AMS_1956-57_33k_ES_PAN_2
  2
NAME
  10
422692.035
  20
4648857.014
 40
33.63102
  0
SEQEND
  0
POLYLINE
  8
Unknown_Area_Type
  70
1
  66
1
  0
VERTEX
  8
Unknown_Area_Type
  10
424185.367
  20
4650181.718
  0
VERTEX
  8
Unknown_Area_Type
  10
424136.500
  20
4647658.000
  0
VERTEX
  8
Unknown_Area_Type
  10
423017.000
  20
4647332.000
  0
VERTEX
  8
Unknown_Area_Type
  10
422974.500
  20
4647320.500
  0
VERTEX
  8
Unknown_Area_Type
  10
421160.500
  20
4647778.500
  0
VERTEX
  8
Unknown_Area_Type
  10
421160.000
  20
4647789.500
  0
VERTEX
  8
Unknown_Area_Type
  10
421231.322
  20
4650213.893
  0
VERTEX
  8
Unknown_Area_Type
  10
422358.111
  20
4650201.281
  0
VERTEX
  8
Unknown_Area_Type
  10
424185.367
  20
4650181.718
  0
SEQEND
  8
Unknown_Area_Type
  0
INSERT
  8
FeatureAttribs
  2
FEATURE
  41
1
  42
1
  43
1
  50
0
  10
422692.035
  20
4648857.014
 66
1
  0
ATTRIB
  8
FeatureAttribs
 70
0
  1
PNOA-H_AMS_1956-57_33k_ES_PAN_2
  2
NAME
  10
422692.035
  20
4648857.014
 40
33.63102
  0
SEQEND
  0
POLYLINE
  8
Unknown_Area_Type
  70
1
  66
1
  0
VERTEX
  8
Unknown_Area_Type
  10
424185.367
  20
4650181.718
  0
VERTEX
  8
Unknown_Area_Type
  10
422358.111
  20
4650201.281
  0
VERTEX
  8
Unknown_Area_Type
  10
421231.322
  20
4650213.893
  0
VERTEX
  8
Unknown_Area_Type
  10
421160.000
  20
4647789.500
  0
VERTEX
  8
Unknown_Area_Type
  10
421160.500
  20
4647778.500
  0
VERTEX
  8
Unknown_Area_Type
  10
422974.500
  20
4647320.500
  0
VERTEX
  8
Unknown_Area_Type
  10
423017.000
  20
4647332.000
  0
VERTEX
  8
Unknown_Area_Type
  10
424136.500
  20
4647658.000
  0
VERTEX
  8
Unknown_Area_Type
  10
424185.367
  20
4650181.718
  0
SEQEND
  8
Unknown_Area_Type
  0
INSERT
  8
FeatureAttribs
  2
FEATURE
  41
1
  42
1
  43
1
  50
0
  10
429201.816
  20
4638516.224
 66
1
  0
ATTRIB
  8
FeatureAttribs
 70
0
  1
PNOA-H_AMS_1956-57_33k_ES_PAN_2
  2
NAME
  10
429201.816
  20
4638516.224
 40
33.63102
  0
SEQEND
  0
POLYLINE
  8
Unknown_Area_Type
  70
1
  66
1
  0
VERTEX
  8
Unknown_Area_Type
  10
429259.697
  20
4638983.291
  0
VERTEX
  8
Unknown_Area_Type
  10
429259.697
  20
4638046.615
  0
VERTEX
  8
Unknown_Area_Type
  10
429138.456
  20
4637965.778
  0
VERTEX
  8
Unknown_Area_Type
  10
429144.406
  20
4638563.531
  0
VERTEX
  8
Unknown_Area_Type
  10
429149.416
  20
4639066.669
  0
VERTEX
  8
Unknown_Area_Type
  10
429259.697
  20
4638983.291
  0
SEQEND
  8
Unknown_Area_Type
  0
INSERT
  8
FeatureAttribs
  2
FEATURE
  41
1
  42
1
  43
1
  50
0
  10
427876.289
  20
4638311.223
 66
1
  0
ATTRIB
  8
FeatureAttribs
 70
0
  1
PNOA-H_AMS_1956-57_33k_ES_PAN_2
  2
NAME
  10
427876.289
  20
4638311.223
 40
33.63102
  0
SEQEND
  0
POLYLINE
  8
Unknown_Area_Type
  70
1
  66
1
  0
VERTEX
  8
Unknown_Area_Type
  10
429149.416
  20
4639066.669
  0
VERTEX
  8
Unknown_Area_Type
  10
429144.406
  20
4638563.531
  0
VERTEX
  8
Unknown_Area_Type
  10
429138.456
  20
4637965.778
  0
VERTEX
  8
Unknown_Area_Type
  10
427406.500
  20
4636811.000
  0
VERTEX
  8
Unknown_Area_Type
  10
427403.500
  20
4636814.000
  0
VERTEX
  8
Unknown_Area_Type
  10
427382.000
  20
4636848.000
  0
VERTEX
  8
Unknown_Area_Type
  10
426297.500
  20
4638567.000
  0
VERTEX
  8
Unknown_Area_Type
  10
427664.500
  20
4639276.000
  0
VERTEX
  8
Unknown_Area_Type
  10
427665.500
  20
4639276.500
  0
VERTEX
  8
Unknown_Area_Type
  10
428373.500
  20
4639643.500
  0
VERTEX
  8
Unknown_Area_Type
  10
428380.500
  20
4639647.000
  0
VERTEX
  8
Unknown_Area_Type
  10
428382.500
  20
4639646.500
  0
VERTEX
  8
Unknown_Area_Type
  10
429149.416
  20
4639066.669
  0
SEQEND
  8
Unknown_Area_Type
  0
INSERT
  8
FeatureAttribs
  2
FEATURE
  41
1
  42
1
  43
1
  50
0
  10
427876.289
  20
4638311.223
 66
1
  0
ATTRIB
  8
FeatureAttribs
 70
0
  1
PNOA-H_AMS_1956-57_33k_ES_PAN_2
  2
NAME
  10
427876.289
  20
4638311.223
 40
33.63102
  0
SEQEND
  0
POLYLINE
  8
Unknown_Area_Type
  70
1
  66
1
  0
VERTEX
  8
Unknown_Area_Type
  10
429149.416
  20
4639066.669
  0
VERTEX
  8
Unknown_Area_Type
  10
428382.500
  20
4639646.500
  0
VERTEX
  8
Unknown_Area_Type
  10
428380.500
  20
4639647.000
  0
VERTEX
  8
Unknown_Area_Type
  10
428373.500
  20
4639643.500
  0
VERTEX
  8
Unknown_Area_Type
  10
427665.500
  20
4639276.500
  0
VERTEX
  8
Unknown_Area_Type
  10
427664.500
  20
4639276.000
  0
VERTEX
  8
Unknown_Area_Type
  10
426297.500
  20
4638567.000
  0
VERTEX
  8
Unknown_Area_Type
  10
427382.000
  20
4636848.000
  0
VERTEX
  8
Unknown_Area_Type
  10
427403.500
  20
4636814.000
  0
VERTEX
  8
Unknown_Area_Type
  10
427406.500
  20
4636811.000
  0
VERTEX
  8
Unknown_Area_Type
  10
429138.456
  20
4637965.778
  0
VERTEX
  8
Unknown_Area_Type
  10
429144.406
  20
4638563.531
  0
VERTEX
  8
Unknown_Area_Type
  10
429149.416
  20
4639066.669
  0
SEQEND
  8
Unknown_Area_Type
  0
INSERT
  8
FeatureAttribs
  2
FEATURE
  41
1
  42
1
  43
1
  50
0
  10
416756.948
  20
4650352.848
 66
1
  0
ATTRIB
  8
FeatureAttribs
 70
0
  1
PNOA-H_AMS_1956-57_33k_ES_PAN_2
  2
NAME
  10
416756.948
  20
4650352.848
 40
33.63102
  0
SEQEND
  0
POLYLINE
  8
Unknown_Area_Type
  70
1
  66
1
  0
VERTEX
  8
Unknown_Area_Type
  10
418267.402
  20
4650458.244
  0
VERTEX
  8
Unknown_Area_Type
  10
418261.229
  20
4650247.452
  0
VERTEX
  8
Unknown_Area_Type
  10
415456.535
  20
4650280.210
  0
VERTEX
  8
Unknown_Area_Type
  10
415247.352
  20
4650282.755
  0
VERTEX
  8
Unknown_Area_Type
  10
415252.930
  20
4650458.244
  0
VERTEX
  8
Unknown_Area_Type
  10
418267.402
  20
4650458.244
  0
SEQEND
  8
Unknown_Area_Type
  0
INSERT
  8
FeatureAttribs
  2
FEATURE
  41
1
  42
1
  43
1
  50
0
  10
416739.046
  20
4649013.983
 66
1
  0
ATTRIB
  8
FeatureAttribs
 70
0
  1
PNOA-H_AMS_1956-57_33k_ES_PAN_2
  2
NAME
  10
416739.046
  20
4649013.983
 40
33.63102
  0
SEQEND
  0
POLYLINE
  8
Unknown_Area_Type
  70
1
  66
1
  0
VERTEX
  8
Unknown_Area_Type
  10
418261.229
  20
4650247.452
  0
VERTEX
  8
Unknown_Area_Type
  10
418192.000
  20
4647883.500
  0
VERTEX
  8
Unknown_Area_Type
  10
417182.000
  20
4647563.500
  0
VERTEX
  8
Unknown_Area_Type
  10
415175.500
  20
4648022.500
  0
VERTEX
  8
Unknown_Area_Type
  10
415247.352
  20
4650282.755
  0
VERTEX
  8
Unknown_Area_Type
  10
415456.535
  20
4650280.210
  0
VERTEX
  8
Unknown_Area_Type
  10
418261.229
  20
4650247.452
  0
SEQEND
  8
Unknown_Area_Type
  0
INSERT
  8
FeatureAttribs
  2
FEATURE
  41
1
  42
1
  43
1
  50
0
  10
416739.046
  20
4649013.983
 66
1
  0
ATTRIB
  8
FeatureAttribs
 70
0
  1
PNOA-H_AMS_1956-57_33k_ES_PAN_2
  2
NAME
  10
416739.046
  20
4649013.983
 40
33.63102
  0
SEQEND
  0
POLYLINE
  8
Unknown_Area_Type
  70
1
  66
1
  0
VERTEX
  8
Unknown_Area_Type
  10
418261.229
  20
4650247.452
  0
VERTEX
  8
Unknown_Area_Type
  10
415456.535
  20
4650280.210
  0
VERTEX
  8
Unknown_Area_Type
  10
415247.352
  20
4650282.755
  0
VERTEX
  8
Unknown_Area_Type
  10
415175.500
  20
4648022.500
  0
VERTEX
  8
Unknown_Area_Type
  10
417182.000
  20
4647563.500
  0
VERTEX
  8
Unknown_Area_Type
  10
418192.000
  20
4647883.500
  0
VERTEX
  8
Unknown_Area_Type
  10
418261.229
  20
4650247.452
  0
SEQEND
  8
Unknown_Area_Type
  0
INSERT
  8
FeatureAttribs
  2
FEATURE
  41
1
  42
1
  43
1
  50
0
  10
401652.991
  20
4650458.235
 66
1
  0
ATTRIB
  8
FeatureAttribs
 70
0
  1
PNOA-H_AMS_1956-57_33k_ES_PAN_2
  2
NAME
  10
401652.991
  20
4650458.235
 40
33.63102
  0
SEQEND
  0
POLYLINE
  8
Unknown_Area_Type
  70
1
  66
1
  0
VERTEX
  8
Unknown_Area_Type
  10
401653.325
  20
4650458.244
  0
VERTEX
  8
Unknown_Area_Type
  10
401653.325
  20
4650458.225
  0
VERTEX
  8
Unknown_Area_Type
  10
401651.990
  20
4650458.244
  0
VERTEX
  8
Unknown_Area_Type
  10
401653.325
  20
4650458.244
  0
SEQEND
  8
Unknown_Area_Type
  0
INSERT
  8
FeatureAttribs
  2
FEATURE
  41
1
  42
1
  43
1
  50
0
  10
402923.323
  20
4650446.693
 66
1
  0
ATTRIB
  8
FeatureAttribs
 70
0
  1
PNOA-H_AMS_1956-57_33k_ES_PAN_2
  2
NAME
  10
402923.323
  20
4650446.693
 40
33.63102
  0
SEQEND
  0
POLYLINE
  8
Unknown_Area_Type
  70
1
  66
1
  0
VERTEX
  8
Unknown_Area_Type
  10
403346.903
  20
4650458.244
  0
VERTEX
  8
Unknown_Area_Type
  10
403347.222
  20
4650435.143
  0
VERTEX
  8
Unknown_Area_Type
  10
401653.325
  20
4650458.225
  0
VERTEX
  8
Unknown_Area_Type
  10
401653.325
  20
4650458.244
  0
VERTEX
  8
Unknown_Area_Type
  10
403346.903
  20
4650458.244
  0
SEQEND
  8
Unknown_Area_Type
  0
INSERT
  8
FeatureAttribs
  2
FEATURE
  41
1
  42
1
  43
1
  50
0
  10
401517.525
  20
4649353.678
 66
1
  0
ATTRIB
  8
FeatureAttribs
 70
0
  1
PNOA-H_AMS_1956-57_33k_ES_PAN_2
  2
NAME
  10
401517.525
  20
4649353.678
 40
33.63102
  0
SEQEND
  0
POLYLINE
  8
Unknown_Area_Type
  70
1
  66
1
  0
VERTEX
  8
Unknown_Area_Type
  10
401622.690
  20
4648249.111
  0
VERTEX
  8
Unknown_Area_Type
  10
401397.043
  20
4648285.083
  0
VERTEX
  8
Unknown_Area_Type
  10
401397.043
  20
4650458.244
  0
VERTEX
  8
Unknown_Area_Type
  10
401651.990
  20
4650458.244
  0
VERTEX
  8
Unknown_Area_Type
  10
401653.325
  20
4650458.225
  0
VERTEX
  8
Unknown_Area_Type
  10
401622.690
  20
4648249.111
  0
SEQEND
  8
Unknown_Area_Type
  0
INSERT
  8
FeatureAttribs
  2
FEATURE
  41
1
  42
1
  43
1
  50
0
  10
402495.926
  20
4649305.856
 66
1
  0
ATTRIB
  8
FeatureAttribs
 70
0
  1
PNOA-H_AMS_1956-57_33k_ES_PAN_2
  2
NAME
  10
402495.926
  20
4649305.856
 40
33.63102
  0
SEQEND
  0
POLYLINE
  8
Unknown_Area_Type
  70
1
  66
1
  0
VERTEX
  8
Unknown_Area_Type
  10
403347.222
  20
4650435.143
  0
VERTEX
  8
Unknown_Area_Type
  10
403376.000
  20
4648349.500
  0
VERTEX
  8
Unknown_Area_Type
  10
402718.000
  20
4648074.500
  0
VERTEX
  8
Unknown_Area_Type
  10
401622.690
  20
4648249.111
  0
VERTEX
  8
Unknown_Area_Type
  10
401653.325
  20
4650458.225
  0
VERTEX
  8
Unknown_Area_Type
  10
403347.222
  20
4650435.143
  0
SEQEND
  8
Unknown_Area_Type
  0
INSERT
  8
FeatureAttribs
  2
FEATURE
  41
1
  42
1
  43
1
  50
0
  10
402495.926
  20
4649305.856
 66
1
  0
ATTRIB
  8
FeatureAttribs
 70
0
  1
PNOA-H_AMS_1956-57_33k_ES_PAN_2
  2
NAME
  10
402495.926
  20
4649305.856
 40
33.63102
  0
SEQEND
  0
POLYLINE
  8
Unknown_Area_Type
  70
1
  66
1
  0
VERTEX
  8
Unknown_Area_Type
  10
403347.222
  20
4650435.143
  0
VERTEX
  8
Unknown_Area_Type
  10
401653.325
  20
4650458.225
  0
VERTEX
  8
Unknown_Area_Type
  10
401622.690
  20
4648249.111
  0
VERTEX
  8
Unknown_Area_Type
  10
402718.000
  20
4648074.500
  0
VERTEX
  8
Unknown_Area_Type
  10
403376.000
  20
4648349.500
  0
VERTEX
  8
Unknown_Area_Type
  10
403347.222
  20
4650435.143
  0
SEQEND
  8
Unknown_Area_Type
  0
INSERT
  8
FeatureAttribs
  2
FEATURE
  41
1
  42
1
  43
1
  50
0
  10
429242.685
  20
4646720.206
 66
1
  0
ATTRIB
  8
FeatureAttribs
 70
0
  1
PNOA-H_AMS_1956-57_33k_ES_PAN_2
  2
NAME
  10
429242.685
  20
4646720.206
 40
33.63102
  0
SEQEND
  0
POLYLINE
  8
Unknown_Area_Type
  70
1
  66
1
  0
VERTEX
  8
Unknown_Area_Type
  10
429259.697
  20
4645575.058
  0
VERTEX
  8
Unknown_Area_Type
  10
429214.445
  20
4645593.979
  0
VERTEX
  8
Unknown_Area_Type
  10
429236.598
  20
4647815.946
  0
VERTEX
  8
Unknown_Area_Type
  10
429236.987
  20
4647854.981
  0
VERTEX
  8
Unknown_Area_Type
  10
429259.697
  20
4647865.354
  0
VERTEX
  8
Unknown_Area_Type
  10
429259.697
  20
4645575.058
  0
SEQEND
  8
Unknown_Area_Type
  0
INSERT
  8
FeatureAttribs
  2
FEATURE
  41
1
  42
1
  43
1
  50
0
  10
429139.944
  20
4646659.349
 66
1
  0
ATTRIB
  8
FeatureAttribs
 70
0
  1
PNOA-H_AMS_1956-57_33k_ES_PAN_2
  2
NAME
  10
429139.944
  20
4646659.349
 40
33.63102
  0
SEQEND
  0
POLYLINE
  8
Unknown_Area_Type
  70
1
  66
1
  0
VERTEX
  8
Unknown_Area_Type
  10
429214.445
  20
4645593.979
  0
VERTEX
  8
Unknown_Area_Type
  10
429013.500
  20
4645678.000
  0
VERTEX
  8
Unknown_Area_Type
  10
429098.000
  20
4647791.500
  0
VERTEX
  8
Unknown_Area_Type
  10
429236.987
  20
4647854.981
  0
VERTEX
  8
Unknown_Area_Type
  10
429236.598
  20
4647815.946
  0
VERTEX
  8
Unknown_Area_Type
  10
429214.445
  20
4645593.979
  0
SEQEND
  8
Unknown_Area_Type
  0
INSERT
  8
FeatureAttribs
  2
FEATURE
  41
1
  42
1
  43
1
  50
0
  10
429139.944
  20
4646659.349
 66
1
  0
ATTRIB
  8
FeatureAttribs
 70
0
  1
PNOA-H_AMS_1956-57_33k_ES_PAN_2
  2
NAME
  10
429139.944
  20
4646659.349
 40
33.63102
  0
SEQEND
  0
POLYLINE
  8
Unknown_Area_Type
  70
1
  66
1
  0
VERTEX
  8
Unknown_Area_Type
  10
429214.445
  20
4645593.979
  0
VERTEX
  8
Unknown_Area_Type
  10
429236.598
  20
4647815.946
  0
VERTEX
  8
Unknown_Area_Type
  10
429236.987
  20
4647854.981
  0
VERTEX
  8
Unknown_Area_Type
  10
429098.000
  20
4647791.500
  0
VERTEX
  8
Unknown_Area_Type
  10
429013.500
  20
4645678.000
  0
VERTEX
  8
Unknown_Area_Type
  10
429214.445
  20
4645593.979
  0
SEQEND
  8
Unknown_Area_Type
  0
INSERT
  8
FeatureAttribs
  2
FEATURE
  41
1
  42
1
  43
1
  50
0
  10
401451.371
  20
4639804.877
 66
1
  0
ATTRIB
  8
FeatureAttribs
 70
0
  1
PNOA-H_AMS_1956-57_33k_ES_PAN_2
  2
NAME
  10
401451.371
  20
4639804.877
 40
33.63102
  0
SEQEND
  0
POLYLINE
  8
Unknown_Area_Type
  70
1
  66
1
  0
VERTEX
  8
Unknown_Area_Type
  10
401525.520
  20
4641236.467
  0
VERTEX
  8
Unknown_Area_Type
  10
401525.093
  20
4641205.673
  0
VERTEX
  8
Unknown_Area_Type
  10
401493.068
  20
4638892.556
  0
VERTEX
  8
Unknown_Area_Type
  10
401484.772
  20
4638293.105
  0
VERTEX
  8
Unknown_Area_Type
  10
401397.043
  20
4638291.254
  0
VERTEX
  8
Unknown_Area_Type
  10
401397.043
  20
4641297.442
  0
VERTEX
  8
Unknown_Area_Type
  10
401423.000
  20
4641318.500
  0
VERTEX
  8
Unknown_Area_Type
  10
401424.500
  20
4641318.500
  0
VERTEX
  8
Unknown_Area_Type
  10
401525.520
  20
4641236.467
  0
SEQEND
  8
Unknown_Area_Type
  0
INSERT
  8
FeatureAttribs
  2
FEATURE
  41
1
  42
1
  43
1
  50
0
  10
402104.812
  20
4639529.969
 66
1
  0
ATTRIB
  8
FeatureAttribs
 70
0
  1
PNOA-H_AMS_1956-57_33k_ES_PAN_2
  2
NAME
  10
402104.812
  20
4639529.969
 40
33.63102
  0
SEQEND
  0
POLYLINE
  8
Unknown_Area_Type
  70
1
  66
1
  0
VERTEX
  8
Unknown_Area_Type
  10
401525.520
  20
4641236.467
  0
VERTEX
  8
Unknown_Area_Type
  10
402818.500
  20
4640186.500
  0
VERTEX
  8
Unknown_Area_Type
  10
402783.000
  20
4638320.500
  0
VERTEX
  8
Unknown_Area_Type
  10
401484.772
  20
4638293.105
  0
VERTEX
  8
Unknown_Area_Type
  10
401493.068
  20
4638892.556
  0
VERTEX
  8
Unknown_Area_Type
  10
401525.093
  20
4641205.673
  0
VERTEX
  8
Unknown_Area_Type
  10
401525.520
  20
4641236.467
  0
SEQEND
  8
Unknown_Area_Type
  0
INSERT
  8
FeatureAttribs
  2
FEATURE
  41
1
  42
1
  43
1
  50
0
  10
402104.812
  20
4639529.969
 66
1
  0
ATTRIB
  8
FeatureAttribs
 70
0
  1
PNOA-H_AMS_1956-57_33k_ES_PAN_2
  2
NAME
  10
402104.812
  20
4639529.969
 40
33.63102
  0
SEQEND
  0
POLYLINE
  8
Unknown_Area_Type
  70
1
  66
1
  0
VERTEX
  8
Unknown_Area_Type
  10
401525.520
  20
4641236.467
  0
VERTEX
  8
Unknown_Area_Type
  10
401525.093
  20
4641205.673
  0
VERTEX
  8
Unknown_Area_Type
  10
401493.068
  20
4638892.556
  0
VERTEX
  8
Unknown_Area_Type
  10
401484.772
  20
4638293.105
  0
VERTEX
  8
Unknown_Area_Type
  10
402783.000
  20
4638320.500
  0
VERTEX
  8
Unknown_Area_Type
  10
402818.500
  20
4640186.500
  0
VERTEX
  8
Unknown_Area_Type
  10
401525.520
  20
4641236.467
  0
SEQEND
  8
Unknown_Area_Type
  0
INSERT
  8
FeatureAttribs
  2
FEATURE
  41
1
  42
1
  43
1
  50
0
  10
406876.081
  20
4639456.613
 66
1
  0
ATTRIB
  8
FeatureAttribs
 70
0
  1
PNOA-H_AMS_1956-57_33k_ES_PAN_2
  2
NAME
  10
406876.081
  20
4639456.613
 40
33.63102
  0
SEQEND
  0
POLYLINE
  8
Unknown_Area_Type
  70
1
  66
1
  0
VERTEX
  8
Unknown_Area_Type
  10
407185.000
  20
4641135.000
  0
VERTEX
  8
Unknown_Area_Type
  10
407229.500
  20
4641158.500
  0
VERTEX
  8
Unknown_Area_Type
  10
408322.000
  20
4640117.000
  0
VERTEX
  8
Unknown_Area_Type
  10
408257.000
  20
4638286.500
  0
VERTEX
  8
Unknown_Area_Type
  10
405675.000
  20
4638128.500
  0
VERTEX
  8
Unknown_Area_Type
  10
405428.500
  20
4638312.500
  0
VERTEX
  8
Unknown_Area_Type
  10
405474.500
  20
4640219.500
  0
VERTEX
  8
Unknown_Area_Type
  10
407184.000
  20
4641134.500
  0
VERTEX
  8
Unknown_Area_Type
  10
407185.000
  20
4641135.000
  0
SEQEND
  8
Unknown_Area_Type
  0
INSERT
  8
FeatureAttribs
  2
FEATURE
  41
1
  42
1
  43
1
  50
0
  10
406876.081
  20
4639456.613
 66
1
  0
ATTRIB
  8
FeatureAttribs
 70
0
  1
PNOA-H_AMS_1956-57_33k_ES_PAN_2
  2
NAME
  10
406876.081
  20
4639456.613
 40
33.63102
  0
SEQEND
  0
POLYLINE
  8
Unknown_Area_Type
  70
1
  66
1
  0
VERTEX
  8
Unknown_Area_Type
  10
407185.000
  20
4641135.000
  0
VERTEX
  8
Unknown_Area_Type
  10
407184.000
  20
4641134.500
  0
VERTEX
  8
Unknown_Area_Type
  10
405474.500
  20
4640219.500
  0
VERTEX
  8
Unknown_Area_Type
  10
405428.500
  20
4638312.500
  0
VERTEX
  8
Unknown_Area_Type
  10
405675.000
  20
4638128.500
  0
VERTEX
  8
Unknown_Area_Type
  10
408257.000
  20
4638286.500
  0
VERTEX
  8
Unknown_Area_Type
  10
408322.000
  20
4640117.000
  0
VERTEX
  8
Unknown_Area_Type
  10
407229.500
  20
4641158.500
  0
VERTEX
  8
Unknown_Area_Type
  10
407185.000
  20
4641135.000
  0
SEQEND
  8
Unknown_Area_Type
  0
INSERT
  8
FeatureAttribs
  2
FEATURE
  41
1
  42
1
  43
1
  50
0
  10
404141.206
  20
4639566.239
 66
1
  0
ATTRIB
  8
FeatureAttribs
 70
0
  1
PNOA-H_AMS_1956-57_33k_ES_PAN_2
  2
NAME
  10
404141.206
  20
4639566.239
 40
33.63102
  0
SEQEND
  0
POLYLINE
  8
Unknown_Area_Type
  70
1
  66
1
  0
VERTEX
  8
Unknown_Area_Type
  10
402818.000
  20
4640170.500
  0
VERTEX
  8
Unknown_Area_Type
  10
402818.500
  20
4640186.500
  0
VERTEX
  8
Unknown_Area_Type
  10
402821.000
  20
4640189.000
  0
VERTEX
  8
Unknown_Area_Type
  10
403346.500
  20
4640682.000
  0
VERTEX
  8
Unknown_Area_Type
  10
404392.000
  20
4641370.000
  0
VERTEX
  8
Unknown_Area_Type
  10
405038.000
  20
4640746.500
  0
VERTEX
  8
Unknown_Area_Type
  10
405137.500
  20
4640627.000
  0
VERTEX
  8
Unknown_Area_Type
  10
405138.000
  20
4640626.000
  0
VERTEX
  8
Unknown_Area_Type
  10
405474.500
  20
4640220.000
  0
VERTEX
  8
Unknown_Area_Type
  10
405428.500
  20
4638313.000
  0
VERTEX
  8
Unknown_Area_Type
  10
402932.000
  20
4638208.500
  0
VERTEX
  8
Unknown_Area_Type
  10
402783.000
  20
4638320.500
  0
VERTEX
  8
Unknown_Area_Type
  10
402818.000
  20
4640170.500
  0
SEQEND
  8
Unknown_Area_Type
  0
INSERT
  8
FeatureAttribs
  2
FEATURE
  41
1
  42
1
  43
1
  50
0
  10
404141.206
  20
4639566.239
 66
1
  0
ATTRIB
  8
FeatureAttribs
 70
0
  1
PNOA-H_AMS_1956-57_33k_ES_PAN_2
  2
NAME
  10
404141.206
  20
4639566.239
 40
33.63102
  0
SEQEND
  0
POLYLINE
  8
Unknown_Area_Type
  70
1
  66
1
  0
VERTEX
  8
Unknown_Area_Type
  10
402818.000
  20
4640170.500
  0
VERTEX
  8
Unknown_Area_Type
  10
402783.000
  20
4638320.500
  0
VERTEX
  8
Unknown_Area_Type
  10
402932.000
  20
4638208.500
  0
VERTEX
  8
Unknown_Area_Type
  10
405428.500
  20
4638313.000
  0
VERTEX
  8
Unknown_Area_Type
  10
405474.500
  20
4640220.000
  0
VERTEX
  8
Unknown_Area_Type
  10
405138.000
  20
4640626.000
  0
VERTEX
  8
Unknown_Area_Type
  10
405137.500
  20
4640627.000
  0
VERTEX
  8
Unknown_Area_Type
  10
405038.000
  20
4640746.500
  0
VERTEX
  8
Unknown_Area_Type
  10
404392.000
  20
4641370.000
  0
VERTEX
  8
Unknown_Area_Type
  10
403346.500
  20
4640682.000
  0
VERTEX
  8
Unknown_Area_Type
  10
402821.000
  20
4640189.000
  0
VERTEX
  8
Unknown_Area_Type
  10
402818.500
  20
4640186.500
  0
VERTEX
  8
Unknown_Area_Type
  10
402818.000
  20
4640170.500
  0
SEQEND
  8
Unknown_Area_Type
  0
INSERT
  8
FeatureAttribs
  2
FEATURE
  41
1
  42
1
  43
1
  50
0
  10
409812.142
  20
4639352.277
 66
1
  0
ATTRIB
  8
FeatureAttribs
 70
0
  1
PNOA-H_AMS_1956-57_33k_ES_PAN_2
  2
NAME
  10
409812.142
  20
4639352.277
 40
33.63102
  0
SEQEND
  0
POLYLINE
  8
Unknown_Area_Type
  70
1
  66
1
  0
VERTEX
  8
Unknown_Area_Type
  10
411282.000
  20
4640132.000
  0
VERTEX
  8
Unknown_Area_Type
  10
411317.500
  20
4640105.500
  0
VERTEX
  8
Unknown_Area_Type
  10
411317.500
  20
4640096.000
  0
VERTEX
  8
Unknown_Area_Type
  10
411232.500
  20
4638238.500
  0
VERTEX
  8
Unknown_Area_Type
  10
411069.000
  20
4638108.500
  0
VERTEX
  8
Unknown_Area_Type
  10
408396.000
  20
4638171.000
  0
VERTEX
  8
Unknown_Area_Type
  10
408392.000
  20
4638171.500
  0
VERTEX
  8
Unknown_Area_Type
  10
408389.500
  20
4638173.500
  0
VERTEX
  8
Unknown_Area_Type
  10
408257.000
  20
4638286.000
  0
VERTEX
  8
Unknown_Area_Type
  10
408322.000
  20
4640117.500
  0
VERTEX
  8
Unknown_Area_Type
  10
408442.000
  20
4640207.500
  0
VERTEX
  8
Unknown_Area_Type
  10
410236.500
  20
4640930.000
  0
VERTEX
  8
Unknown_Area_Type
  10
411281.500
  20
4640133.000
  0
VERTEX
  8
Unknown_Area_Type
  10
411282.000
  20
4640132.000
  0
SEQEND
  8
Unknown_Area_Type
  0
INSERT
  8
FeatureAttribs
  2
FEATURE
  41
1
  42
1
  43
1
  50
0
  10
409812.142
  20
4639352.277
 66
1
  0
ATTRIB
  8
FeatureAttribs
 70
0
  1
PNOA-H_AMS_1956-57_33k_ES_PAN_2
  2
NAME
  10
409812.142
  20
4639352.277
 40
33.63102
  0
SEQEND
  0
POLYLINE
  8
Unknown_Area_Type
  70
1
  66
1
  0
VERTEX
  8
Unknown_Area_Type
  10
411282.000
  20
4640132.000
  0
VERTEX
  8
Unknown_Area_Type
  10
411281.500
  20
4640133.000
  0
VERTEX
  8
Unknown_Area_Type
  10
410236.500
  20
4640930.000
  0
VERTEX
  8
Unknown_Area_Type
  10
408442.000
  20
4640207.500
  0
VERTEX
  8
Unknown_Area_Type
  10
408322.000
  20
4640117.500
  0
VERTEX
  8
Unknown_Area_Type
  10
408257.000
  20
4638286.000
  0
VERTEX
  8
Unknown_Area_Type
  10
408389.500
  20
4638173.500
  0
VERTEX
  8
Unknown_Area_Type
  10
408392.000
  20
4638171.500
  0
VERTEX
  8
Unknown_Area_Type
  10
408396.000
  20
4638171.000
  0
VERTEX
  8
Unknown_Area_Type
  10
411069.000
  20
4638108.500
  0
VERTEX
  8
Unknown_Area_Type
  10
411232.500
  20
4638238.500
  0
VERTEX
  8
Unknown_Area_Type
  10
411317.500
  20
4640096.000
  0
VERTEX
  8
Unknown_Area_Type
  10
411317.500
  20
4640105.500
  0
VERTEX
  8
Unknown_Area_Type
  10
411282.000
  20
4640132.000
  0
SEQEND
  8
Unknown_Area_Type
  0
INSERT
  8
FeatureAttribs
  2
FEATURE
  41
1
  42
1
  43
1
  50
0
  10
415603.991
  20
4639205.989
 66
1
  0
ATTRIB
  8
FeatureAttribs
 70
0
  1
PNOA-H_AMS_1956-57_33k_ES_PAN_2
  2
NAME
  10
415603.991
  20
4639205.989
 40
33.63102
  0
SEQEND
  0
POLYLINE
  8
Unknown_Area_Type
  70
1
  66
1
  0
VERTEX
  8
Unknown_Area_Type
  10
415362.000
  20
4640395.000
  0
VERTEX
  8
Unknown_Area_Type
  10
416324.000
  20
4640417.500
  0
VERTEX
  8
Unknown_Area_Type
  10
416959.500
  20
4640078.500
  0
VERTEX
  8
Unknown_Area_Type
  10
417048.000
  20
4638303.500
  0
VERTEX
  8
Unknown_Area_Type
  10
416585.500
  20
4637938.000
  0
VERTEX
  8
Unknown_Area_Type
  10
414145.000
  20
4638236.000
  0
VERTEX
  8
Unknown_Area_Type
  10
414207.000
  20
4640101.500
  0
VERTEX
  8
Unknown_Area_Type
  10
414539.500
  20
4640375.500
  0
VERTEX
  8
Unknown_Area_Type
  10
415340.500
  20
4640394.500
  0
VERTEX
  8
Unknown_Area_Type
  10
415362.000
  20
4640395.000
  0
SEQEND
  8
Unknown_Area_Type
  0
INSERT
  8
FeatureAttribs
  2
FEATURE
  41
1
  42
1
  43
1
  50
0
  10
415603.991
  20
4639205.989
 66
1
  0
ATTRIB
  8
FeatureAttribs
 70
0
  1
PNOA-H_AMS_1956-57_33k_ES_PAN_2
  2
NAME
  10
415603.991
  20
4639205.989
 40
33.63102
  0
SEQEND
  0
POLYLINE
  8
Unknown_Area_Type
  70
1
  66
1
  0
VERTEX
  8
Unknown_Area_Type
  10
415362.000
  20
4640395.000
  0
VERTEX
  8
Unknown_Area_Type
  10
415340.500
  20
4640394.500
  0
VERTEX
  8
Unknown_Area_Type
  10
414539.500
  20
4640375.500
  0
VERTEX
  8
Unknown_Area_Type
  10
414207.000
  20
4640101.500
  0
VERTEX
  8
Unknown_Area_Type
  10
414145.000
  20
4638236.000
  0
VERTEX
  8
Unknown_Area_Type
  10
416585.500
  20
4637938.000
  0
VERTEX
  8
Unknown_Area_Type
  10
417048.000
  20
4638303.500
  0
VERTEX
  8
Unknown_Area_Type
  10
416959.500
  20
4640078.500
  0
VERTEX
  8
Unknown_Area_Type
  10
416324.000
  20
4640417.500
  0
VERTEX
  8
Unknown_Area_Type
  10
415362.000
  20
4640395.000
  0
SEQEND
  8
Unknown_Area_Type
  0
INSERT
  8
FeatureAttribs
  2
FEATURE
  41
1
  42
1
  43
1
  50
0
  10
412762.729
  20
4639261.971
 66
1
  0
ATTRIB
  8
FeatureAttribs
 70
0
  1
PNOA-H_AMS_1956-57_33k_ES_PAN_2
  2
NAME
  10
412762.729
  20
4639261.971
 40
33.63102
  0
SEQEND
  0
POLYLINE
  8
Unknown_Area_Type
  70
1
  66
1
  0
VERTEX
  8
Unknown_Area_Type
  10
413291.000
  20
4640674.000
  0
VERTEX
  8
Unknown_Area_Type
  10
414207.000
  20
4640102.000
  0
VERTEX
  8
Unknown_Area_Type
  10
414145.000
  20
4638236.000
  0
VERTEX
  8
Unknown_Area_Type
  10
413808.000
  20
4637967.500
  0
VERTEX
  8
Unknown_Area_Type
  10
411232.500
  20
4638238.500
  0
VERTEX
  8
Unknown_Area_Type
  10
411317.500
  20
4640105.000
  0
VERTEX
  8
Unknown_Area_Type
  10
411476.000
  20
4640233.000
  0
VERTEX
  8
Unknown_Area_Type
  10
411478.500
  20
4640234.000
  0
VERTEX
  8
Unknown_Area_Type
  10
413289.000
  20
4640673.500
  0
VERTEX
  8
Unknown_Area_Type
  10
413291.000
  20
4640674.000
  0
SEQEND
  8
Unknown_Area_Type
  0
INSERT
  8
FeatureAttribs
  2
FEATURE
  41
1
  42
1
  43
1
  50
0
  10
412762.729
  20
4639261.971
 66
1
  0
ATTRIB
  8
FeatureAttribs
 70
0
  1
PNOA-H_AMS_1956-57_33k_ES_PAN_2
  2
NAME
  10
412762.729
  20
4639261.971
 40
33.63102
  0
SEQEND
  0
POLYLINE
  8
Unknown_Area_Type
  70
1
  66
1
  0
VERTEX
  8
Unknown_Area_Type
  10
413291.000
  20
4640674.000
  0
VERTEX
  8
Unknown_Area_Type
  10
413289.000
  20
4640673.500
  0
VERTEX
  8
Unknown_Area_Type
  10
411478.500
  20
4640234.000
  0
VERTEX
  8
Unknown_Area_Type
  10
411476.000
  20
4640233.000
  0
VERTEX
  8
Unknown_Area_Type
  10
411317.500
  20
4640105.000
  0
VERTEX
  8
Unknown_Area_Type
  10
411232.500
  20
4638238.500
  0
VERTEX
  8
Unknown_Area_Type
  10
413808.000
  20
4637967.500
  0
VERTEX
  8
Unknown_Area_Type
  10
414145.000
  20
4638236.000
  0
VERTEX
  8
Unknown_Area_Type
  10
414207.000
  20
4640102.000
  0
VERTEX
  8
Unknown_Area_Type
  10
413291.000
  20
4640674.000
  0
SEQEND
  8
Unknown_Area_Type
  0
INSERT
  8
FeatureAttribs
  2
FEATURE
  41
1
  42
1
  43
1
  50
0
  10
421083.933
  20
4639463.816
 66
1
  0
ATTRIB
  8
FeatureAttribs
 70
0
  1
PNOA-H_AMS_1956-57_33k_ES_PAN_2
  2
NAME
  10
421083.933
  20
4639463.816
 40
33.63102
  0
SEQEND
  0
POLYLINE
  8
Unknown_Area_Type
  70
1
  66
1
  0
VERTEX
  8
Unknown_Area_Type
  10
420309.000
  20
4641204.500
  0
VERTEX
  8
Unknown_Area_Type
  10
422534.500
  20
4639848.500
  0
VERTEX
  8
Unknown_Area_Type
  10
422605.000
  20
4638608.500
  0
VERTEX
  8
Unknown_Area_Type
  10
421949.500
  20
4638152.500
  0
VERTEX
  8
Unknown_Area_Type
  10
419840.500
  20
4638453.500
  0
VERTEX
  8
Unknown_Area_Type
  10
419726.500
  20
4639954.000
  0
VERTEX
  8
Unknown_Area_Type
  10
420308.500
  20
4641203.000
  0
VERTEX
  8
Unknown_Area_Type
  10
420309.000
  20
4641204.500
  0
SEQEND
  8
Unknown_Area_Type
  0
INSERT
  8
FeatureAttribs
  2
FEATURE
  41
1
  42
1
  43
1
  50
0
  10
421083.933
  20
4639463.816
 66
1
  0
ATTRIB
  8
FeatureAttribs
 70
0
  1
PNOA-H_AMS_1956-57_33k_ES_PAN_2
  2
NAME
  10
421083.933
  20
4639463.816
 40
33.63102
  0
SEQEND
  0
POLYLINE
  8
Unknown_Area_Type
  70
1
  66
1
  0
VERTEX
  8
Unknown_Area_Type
  10
420309.000
  20
4641204.500
  0
VERTEX
  8
Unknown_Area_Type
  10
420308.500
  20
4641203.000
  0
VERTEX
  8
Unknown_Area_Type
  10
419726.500
  20
4639954.000
  0
VERTEX
  8
Unknown_Area_Type
  10
419840.500
  20
4638453.500
  0
VERTEX
  8
Unknown_Area_Type
  10
421949.500
  20
4638152.500
  0
VERTEX
  8
Unknown_Area_Type
  10
422605.000
  20
4638608.500
  0
VERTEX
  8
Unknown_Area_Type
  10
422534.500
  20
4639848.500
  0
VERTEX
  8
Unknown_Area_Type
  10
420309.000
  20
4641204.500
  0
SEQEND
  8
Unknown_Area_Type
  0
INSERT
  8
FeatureAttribs
  2
FEATURE
  41
1
  42
1
  43
1
  50
0
  10
401493.715
  20
4645918.761
 66
1
  0
ATTRIB
  8
FeatureAttribs
 70
0
  1
PNOA-H_AMS_1956-57_33k_ES_PAN_2
  2
NAME
  10
401493.715
  20
4645918.761
 40
33.63102
  0
SEQEND
  0
POLYLINE
  8
Unknown_Area_Type
  70
1
  66
1
  0
VERTEX
  8
Unknown_Area_Type
  10
401622.689
  20
4648249.073
  0
VERTEX
  8
Unknown_Area_Type
  10
401621.247
  20
4648145.075
  0
VERTEX
  8
Unknown_Area_Type
  10
401589.183
  20
4645831.933
  0
VERTEX
  8
Unknown_Area_Type
  10
401557.648
  20
4643556.053
  0
VERTEX
  8
Unknown_Area_Type
  10
401547.500
  20
4643552.500
  0
VERTEX
  8
Unknown_Area_Type
  10
401397.043
  20
4643588.107
  0
VERTEX
  8
Unknown_Area_Type
  10
401397.043
  20
4648285.021
  0
VERTEX
  8
Unknown_Area_Type
  10
401622.689
  20
4648249.073
  0
SEQEND
  8
Unknown_Area_Type
  0
INSERT
  8
FeatureAttribs
  2
FEATURE
  41
1
  42
1
  43
1
  50
0
  10
402087.972
  20
4646018.111
 66
1
  0
ATTRIB
  8
FeatureAttribs
 70
0
  1
PNOA-H_AMS_1956-57_33k_ES_PAN_2
  2
NAME
  10
402087.972
  20
4646018.111
 40
33.63102
  0
SEQEND
  0
POLYLINE
  8
Unknown_Area_Type
  70
1
  66
1
  0
VERTEX
  8
Unknown_Area_Type
  10
401622.689
  20
4648249.073
  0
VERTEX
  8
Unknown_Area_Type
  10
402718.500
  20
4648074.500
  0
VERTEX
  8
Unknown_Area_Type
  10
402490.000
  20
4643947.000
  0
VERTEX
  8
Unknown_Area_Type
  10
401776.000
  20
4643632.500
  0
VERTEX
  8
Unknown_Area_Type
  10
401557.648
  20
4643556.053
  0
VERTEX
  8
Unknown_Area_Type
  10
401589.183
  20
4645831.933
  0
VERTEX
  8
Unknown_Area_Type
  10
401621.247
  20
4648145.075
  0
VERTEX
  8
Unknown_Area_Type
  10
401622.689
  20
4648249.073
  0
SEQEND
  8
Unknown_Area_Type
  0
INSERT
  8
FeatureAttribs
  2
FEATURE
  41
1
  42
1
  43
1
  50
0
  10
402087.972
  20
4646018.111
 66
1
  0
ATTRIB
  8
FeatureAttribs
 70
0
  1
PNOA-H_AMS_1956-57_33k_ES_PAN_2
  2
NAME
  10
402087.972
  20
4646018.111
 40
33.63102
  0
SEQEND
  0
POLYLINE
  8
Unknown_Area_Type
  70
1
  66
1
  0
VERTEX
  8
Unknown_Area_Type
  10
401622.689
  20
4648249.073
  0
VERTEX
  8
Unknown_Area_Type
  10
401621.247
  20
4648145.075
  0
VERTEX
  8
Unknown_Area_Type
  10
401589.183
  20
4645831.933
  0
VERTEX
  8
Unknown_Area_Type
  10
401557.648
  20
4643556.053
  0
VERTEX
  8
Unknown_Area_Type
  10
401776.000
  20
4643632.500
  0
VERTEX
  8
Unknown_Area_Type
  10
402490.000
  20
4643947.000
  0
VERTEX
  8
Unknown_Area_Type
  10
402718.500
  20
4648074.500
  0
VERTEX
  8
Unknown_Area_Type
  10
401622.689
  20
4648249.073
  0
SEQEND
  8
Unknown_Area_Type
  0
INSERT
  8
FeatureAttribs
  2
FEATURE
  41
1
  42
1
  43
1
  50
0
  10
418349.473
  20
4639266.556
 66
1
  0
ATTRIB
  8
FeatureAttribs
 70
0
  1
PNOA-H_AMS_1956-57_33k_ES_PAN_2
  2
NAME
  10
418349.473
  20
4639266.556
 40
33.63102
  0
SEQEND
  0
POLYLINE
  8
Unknown_Area_Type
  70
1
  66
1
  0
VERTEX
  8
Unknown_Area_Type
  10
419474.000
  20
4640042.500
  0
VERTEX
  8
Unknown_Area_Type
  10
419726.500
  20
4639953.000
  0
VERTEX
  8
Unknown_Area_Type
  10
419840.500
  20
4638453.000
  0
VERTEX
  8
Unknown_Area_Type
  10
419269.000
  20
4638020.500
  0
VERTEX
  8
Unknown_Area_Type
  10
419266.000
  20
4638019.500
  0
VERTEX
  8
Unknown_Area_Type
  10
419254.000
  20
4638021.000
  0
VERTEX
  8
Unknown_Area_Type
  10
417048.000
  20
4638303.500
  0
VERTEX
  8
Unknown_Area_Type
  10
416959.500
  20
4640078.500
  0
VERTEX
  8
Unknown_Area_Type
  10
417599.000
  20
4640709.000
  0
VERTEX
  8
Unknown_Area_Type
  10
419472.500
  20
4640043.000
  0
VERTEX
  8
Unknown_Area_Type
  10
419474.000
  20
4640042.500
  0
SEQEND
  8
Unknown_Area_Type
  0
INSERT
  8
FeatureAttribs
  2
FEATURE
  41
1
  42
1
  43
1
  50
0
  10
418349.473
  20
4639266.556
 66
1
  0
ATTRIB
  8
FeatureAttribs
 70
0
  1
PNOA-H_AMS_1956-57_33k_ES_PAN_2
  2
NAME
  10
418349.473
  20
4639266.556
 40
33.63102
  0
SEQEND
  0
POLYLINE
  8
Unknown_Area_Type
  70
1
  66
1
  0
VERTEX
  8
Unknown_Area_Type
  10
419474.000
  20
4640042.500
  0
VERTEX
  8
Unknown_Area_Type
  10
419472.500
  20
4640043.000
  0
VERTEX
  8
Unknown_Area_Type
  10
417599.000
  20
4640709.000
  0
VERTEX
  8
Unknown_Area_Type
  10
416959.500
  20
4640078.500
  0
VERTEX
  8
Unknown_Area_Type
  10
417048.000
  20
4638303.500
  0
VERTEX
  8
Unknown_Area_Type
  10
419254.000
  20
4638021.000
  0
VERTEX
  8
Unknown_Area_Type
  10
419266.000
  20
4638019.500
  0
VERTEX
  8
Unknown_Area_Type
  10
419269.000
  20
4638020.500
  0
VERTEX
  8
Unknown_Area_Type
  10
419840.500
  20
4638453.000
  0
VERTEX
  8
Unknown_Area_Type
  10
419726.500
  20
4639953.000
  0
VERTEX
  8
Unknown_Area_Type
  10
419474.000
  20
4640042.500
  0
SEQEND
  8
Unknown_Area_Type
  0
INSERT
  8
FeatureAttribs
  2
FEATURE
  41
1
  42
1
  43
1
  50
0
  10
423901.047
  20
4639595.418
 66
1
  0
ATTRIB
  8
FeatureAttribs
 70
0
  1
PNOA-H_AMS_1956-57_33k_ES_PAN_2
  2
NAME
  10
423901.047
  20
4639595.418
 40
33.63102
  0
SEQEND
  0
POLYLINE
  8
Unknown_Area_Type
  70
1
  66
1
  0
VERTEX
  8
Unknown_Area_Type
  10
423313.000
  20
4641526.000
  0
VERTEX
  8
Unknown_Area_Type
  10
425434.000
  20
4639671.500
  0
VERTEX
  8
Unknown_Area_Type
  10
425483.500
  20
4638777.500
  0
VERTEX
  8
Unknown_Area_Type
  10
425483.500
  20
4638773.500
  0
VERTEX
  8
Unknown_Area_Type
  10
425482.500
  20
4638772.500
  0
VERTEX
  8
Unknown_Area_Type
  10
424636.000
  20
4638237.000
  0
VERTEX
  8
Unknown_Area_Type
  10
422605.000
  20
4638608.500
  0
VERTEX
  8
Unknown_Area_Type
  10
422534.500
  20
4639848.500
  0
VERTEX
  8
Unknown_Area_Type
  10
423313.000
  20
4641525.000
  0
VERTEX
  8
Unknown_Area_Type
  10
423313.000
  20
4641526.000
  0
SEQEND
  8
Unknown_Area_Type
  0
INSERT
  8
FeatureAttribs
  2
FEATURE
  41
1
  42
1
  43
1
  50
0
  10
423901.047
  20
4639595.418
 66
1
  0
ATTRIB
  8
FeatureAttribs
 70
0
  1
PNOA-H_AMS_1956-57_33k_ES_PAN_2
  2
NAME
  10
423901.047
  20
4639595.418
 40
33.63102
  0
SEQEND
  0
POLYLINE
  8
Unknown_Area_Type
  70
1
  66
1
  0
VERTEX
  8
Unknown_Area_Type
  10
423313.000
  20
4641526.000
  0
VERTEX
  8
Unknown_Area_Type
  10
423313.000
  20
4641525.000
  0
VERTEX
  8
Unknown_Area_Type
  10
422534.500
  20
4639848.500
  0
VERTEX
  8
Unknown_Area_Type
  10
422605.000
  20
4638608.500
  0
VERTEX
  8
Unknown_Area_Type
  10
424636.000
  20
4638237.000
  0
VERTEX
  8
Unknown_Area_Type
  10
425482.500
  20
4638772.500
  0
VERTEX
  8
Unknown_Area_Type
  10
425483.500
  20
4638773.500
  0
VERTEX
  8
Unknown_Area_Type
  10
425483.500
  20
4638777.500
  0
VERTEX
  8
Unknown_Area_Type
  10
425434.000
  20
4639671.500
  0
VERTEX
  8
Unknown_Area_Type
  10
423313.000
  20
4641526.000
  0
SEQEND
  8
Unknown_Area_Type
  0
INSERT
  8
FeatureAttribs
  2
FEATURE
  41
1
  42
1
  43
1
  50
0
  10
426643.144
  20
4639922.852
 66
1
  0
ATTRIB
  8
FeatureAttribs
 70
0
  1
PNOA-H_AMS_1956-57_33k_ES_PAN_2
  2
NAME
  10
426643.144
  20
4639922.852
 40
33.63102
  0
SEQEND
  0
POLYLINE
  8
Unknown_Area_Type
  70
1
  66
1
  0
VERTEX
  8
Unknown_Area_Type
  10
426294.500
  20
4641748.000
  0
VERTEX
  8
Unknown_Area_Type
  10
427665.500
  20
4640393.500
  0
VERTEX
  8
Unknown_Area_Type
  10
427666.000
  20
4640392.500
  0
VERTEX
  8
Unknown_Area_Type
  10
428378.500
  20
4639689.000
  0
VERTEX
  8
Unknown_Area_Type
  10
428381.000
  20
4639654.500
  0
VERTEX
  8
Unknown_Area_Type
  10
428380.500
  20
4639646.500
  0
VERTEX
  8
Unknown_Area_Type
  10
426298.000
  20
4638567.000
  0
VERTEX
  8
Unknown_Area_Type
  10
425483.500
  20
4638773.500
  0
VERTEX
  8
Unknown_Area_Type
  10
425434.000
  20
4639671.500
  0
VERTEX
  8
Unknown_Area_Type
  10
426294.500
  20
4641748.000
  0
SEQEND
  8
Unknown_Area_Type
  0
INSERT
  8
FeatureAttribs
  2
FEATURE
  41
1
  42
1
  43
1
  50
0
  10
426643.144
  20
4639922.852
 66
1
  0
ATTRIB
  8
FeatureAttribs
 70
0
  1
PNOA-H_AMS_1956-57_33k_ES_PAN_2
  2
NAME
  10
426643.144
  20
4639922.852
 40
33.63102
  0
SEQEND
  0
POLYLINE
  8
Unknown_Area_Type
  70
1
  66
1
  0
VERTEX
  8
Unknown_Area_Type
  10
426294.500
  20
4641748.000
  0
VERTEX
  8
Unknown_Area_Type
  10
425434.000
  20
4639671.500
  0
VERTEX
  8
Unknown_Area_Type
  10
425483.500
  20
4638773.500
  0
VERTEX
  8
Unknown_Area_Type
  10
426298.000
  20
4638567.000
  0
VERTEX
  8
Unknown_Area_Type
  10
428380.500
  20
4639646.500
  0
VERTEX
  8
Unknown_Area_Type
  10
428381.000
  20
4639654.500
  0
VERTEX
  8
Unknown_Area_Type
  10
428378.500
  20
4639689.000
  0
VERTEX
  8
Unknown_Area_Type
  10
427666.000
  20
4640392.500
  0
VERTEX
  8
Unknown_Area_Type
  10
427665.500
  20
4640393.500
  0
VERTEX
  8
Unknown_Area_Type
  10
426294.500
  20
4641748.000
  0
SEQEND
  8
Unknown_Area_Type
  0
INSERT
  8
FeatureAttribs
  2
FEATURE
  41
1
  42
1
  43
1
  50
0
  10
426999.987
  20
4644117.384
 66
1
  0
ATTRIB
  8
FeatureAttribs
 70
0
  1
PNOA-H_AMS_1956-57_33k_ES_PAN_2
  2
NAME
  10
426999.987
  20
4644117.384
 40
33.63102
  0
SEQEND
  0
POLYLINE
  8
Unknown_Area_Type
  70
1
  66
1
  0
VERTEX
  8
Unknown_Area_Type
  10
425784.000
  20
4645747.500
  0
VERTEX
  8
Unknown_Area_Type
  10
425784.000
  20
4645756.500
  0
VERTEX
  8
Unknown_Area_Type
  10
428541.500
  20
4644947.500
  0
VERTEX
  8
Unknown_Area_Type
  10
428451.500
  20
4643086.000
  0
VERTEX
  8
Unknown_Area_Type
  10
426270.500
  20
4642655.500
  0
VERTEX
  8
Unknown_Area_Type
  10
425638.500
  20
4643071.500
  0
VERTEX
  8
Unknown_Area_Type
  10
425784.000
  20
4645747.500
  0
SEQEND
  8
Unknown_Area_Type
  0
INSERT
  8
FeatureAttribs
  2
FEATURE
  41
1
  42
1
  43
1
  50
0
  10
426999.987
  20
4644117.384
 66
1
  0
ATTRIB
  8
FeatureAttribs
 70
0
  1
PNOA-H_AMS_1956-57_33k_ES_PAN_2
  2
NAME
  10
426999.987
  20
4644117.384
 40
33.63102
  0
SEQEND
  0
POLYLINE
  8
Unknown_Area_Type
  70
1
  66
1
  0
VERTEX
  8
Unknown_Area_Type
  10
425784.000
  20
4645747.500
  0
VERTEX
  8
Unknown_Area_Type
  10
425638.500
  20
4643071.500
  0
VERTEX
  8
Unknown_Area_Type
  10
426270.500
  20
4642655.500
  0
VERTEX
  8
Unknown_Area_Type
  10
428451.500
  20
4643086.000
  0
VERTEX
  8
Unknown_Area_Type
  10
428541.500
  20
4644947.500
  0
VERTEX
  8
Unknown_Area_Type
  10
425784.000
  20
4645756.500
  0
VERTEX
  8
Unknown_Area_Type
  10
425784.000
  20
4645747.500
  0
SEQEND
  8
Unknown_Area_Type
  0
INSERT
  8
FeatureAttribs
  2
FEATURE
  41
1
  42
1
  43
1
  50
0
  10
429211.563
  20
4640473.880
 66
1
  0
ATTRIB
  8
FeatureAttribs
 70
0
  1
PNOA-H_AMS_1956-57_33k_ES_PAN_2
  2
NAME
  10
429211.563
  20
4640473.880
 40
33.63102
  0
SEQEND
  0
POLYLINE
  8
Unknown_Area_Type
  70
1
  66
1
  0
VERTEX
  8
Unknown_Area_Type
  10
429259.697
  20
4641931.059
  0
VERTEX
  8
Unknown_Area_Type
  10
429259.697
  20
4638982.761
  0
VERTEX
  8
Unknown_Area_Type
  10
429149.411
  20
4639066.130
  0
VERTEX
  8
Unknown_Area_Type
  10
429167.440
  20
4640876.623
  0
VERTEX
  8
Unknown_Area_Type
  10
429176.875
  20
4641823.671
  0
VERTEX
  8
Unknown_Area_Type
  10
429229.000
  20
4641963.000
  0
VERTEX
  8
Unknown_Area_Type
  10
429229.500
  20
4641965.000
  0
VERTEX
  8
Unknown_Area_Type
  10
429259.697
  20
4641931.059
  0
SEQEND
  8
Unknown_Area_Type
  0
INSERT
  8
FeatureAttribs
  2
FEATURE
  41
1
  42
1
  43
1
  50
0
  10
428897.770
  20
4640182.696
 66
1
  0
ATTRIB
  8
FeatureAttribs
 70
0
  1
PNOA-H_AMS_1956-57_33k_ES_PAN_2
  2
NAME
  10
428897.770
  20
4640182.696
 40
33.63102
  0
SEQEND
  0
POLYLINE
  8
Unknown_Area_Type
  70
1
  66
1
  0
VERTEX
  8
Unknown_Area_Type
  10
429149.411
  20
4639066.130
  0
VERTEX
  8
Unknown_Area_Type
  10
428381.000
  20
4639647.000
  0
VERTEX
  8
Unknown_Area_Type
  10
428378.500
  20
4639686.000
  0
VERTEX
  8
Unknown_Area_Type
  10
428378.500
  20
4639689.500
  0
VERTEX
  8
Unknown_Area_Type
  10
428380.500
  20
4639695.000
  0
VERTEX
  8
Unknown_Area_Type
  10
429176.875
  20
4641823.671
  0
VERTEX
  8
Unknown_Area_Type
  10
429167.440
  20
4640876.623
  0
VERTEX
  8
Unknown_Area_Type
  10
429149.411
  20
4639066.130
  0
SEQEND
  8
Unknown_Area_Type
  0
INSERT
  8
FeatureAttribs
  2
FEATURE
  41
1
  42
1
  43
1
  50
0
  10
428897.770
  20
4640182.696
 66
1
  0
ATTRIB
  8
FeatureAttribs
 70
0
  1
PNOA-H_AMS_1956-57_33k_ES_PAN_2
  2
NAME
  10
428897.770
  20
4640182.696
 40
33.63102
  0
SEQEND
  0
POLYLINE
  8
Unknown_Area_Type
  70
1
  66
1
  0
VERTEX
  8
Unknown_Area_Type
  10
429149.411
  20
4639066.130
  0
VERTEX
  8
Unknown_Area_Type
  10
429167.440
  20
4640876.623
  0
VERTEX
  8
Unknown_Area_Type
  10
429176.875
  20
4641823.671
  0
VERTEX
  8
Unknown_Area_Type
  10
428380.500
  20
4639695.000
  0
VERTEX
  8
Unknown_Area_Type
  10
428378.500
  20
4639689.500
  0
VERTEX
  8
Unknown_Area_Type
  10
428378.500
  20
4639686.000
  0
VERTEX
  8
Unknown_Area_Type
  10
428381.000
  20
4639647.000
  0
VERTEX
  8
Unknown_Area_Type
  10
429149.411
  20
4639066.130
  0
SEQEND
  8
Unknown_Area_Type
  0
INSERT
  8
FeatureAttribs
  2
FEATURE
  41
1
  42
1
  43
1
  50
0
  10
406924.228
  20
4645883.585
 66
1
  0
ATTRIB
  8
FeatureAttribs
 70
0
  1
PNOA-H_AMS_1956-57_33k_ES_PAN_2
  2
NAME
  10
406924.228
  20
4645883.585
 40
33.63102
  0
SEQEND
  0
POLYLINE
  8
Unknown_Area_Type
  70
1
  66
1
  0
VERTEX
  8
Unknown_Area_Type
  10
408275.500
  20
4644104.000
  0
VERTEX
  8
Unknown_Area_Type
  10
408263.000
  20
4643822.000
  0
VERTEX
  8
Unknown_Area_Type
  10
407127.000
  20
4643388.000
  0
VERTEX
  8
Unknown_Area_Type
  10
405397.500
  20
4643912.000
  0
VERTEX
  8
Unknown_Area_Type
  10
405592.500
  20
4648020.500
  0
VERTEX
  8
Unknown_Area_Type
  10
406193.000
  20
4648278.500
  0
VERTEX
  8
Unknown_Area_Type
  10
408450.500
  20
4647998.500
  0
VERTEX
  8
Unknown_Area_Type
  10
408275.500
  20
4644111.000
  0
VERTEX
  8
Unknown_Area_Type
  10
408275.500
  20
4644104.000
  0
SEQEND
  8
Unknown_Area_Type
  0
INSERT
  8
FeatureAttribs
  2
FEATURE
  41
1
  42
1
  43
1
  50
0
  10
406924.228
  20
4645883.585
 66
1
  0
ATTRIB
  8
FeatureAttribs
 70
0
  1
PNOA-H_AMS_1956-57_33k_ES_PAN_2
  2
NAME
  10
406924.228
  20
4645883.585
 40
33.63102
  0
SEQEND
  0
POLYLINE
  8
Unknown_Area_Type
  70
1
  66
1
  0
VERTEX
  8
Unknown_Area_Type
  10
408275.500
  20
4644104.000
  0
VERTEX
  8
Unknown_Area_Type
  10
408275.500
  20
4644111.000
  0
VERTEX
  8
Unknown_Area_Type
  10
408450.500
  20
4647998.500
  0
VERTEX
  8
Unknown_Area_Type
  10
406193.000
  20
4648278.500
  0
VERTEX
  8
Unknown_Area_Type
  10
405592.500
  20
4648020.500
  0
VERTEX
  8
Unknown_Area_Type
  10
405397.500
  20
4643912.000
  0
VERTEX
  8
Unknown_Area_Type
  10
407127.000
  20
4643388.000
  0
VERTEX
  8
Unknown_Area_Type
  10
408263.000
  20
4643822.000
  0
VERTEX
  8
Unknown_Area_Type
  10
408275.500
  20
4644104.000
  0
SEQEND
  8
Unknown_Area_Type
  0
INSERT
  8
FeatureAttribs
  2
FEATURE
  41
1
  42
1
  43
1
  50
0
  10
409765.658
  20
4645803.711
 66
1
  0
ATTRIB
  8
FeatureAttribs
 70
0
  1
PNOA-H_AMS_1956-57_33k_ES_PAN_2
  2
NAME
  10
409765.658
  20
4645803.711
 40
33.63102
  0
SEQEND
  0
POLYLINE
  8
Unknown_Area_Type
  70
1
  66
1
  0
VERTEX
  8
Unknown_Area_Type
  10
411282.000
  20
4647842.500
  0
VERTEX
  8
Unknown_Area_Type
  10
411296.500
  20
4647840.500
  0
VERTEX
  8
Unknown_Area_Type
  10
411296.500
  20
4647836.000
  0
VERTEX
  8
Unknown_Area_Type
  10
411108.000
  20
4643780.000
  0
VERTEX
  8
Unknown_Area_Type
  10
410036.000
  20
4643364.500
  0
VERTEX
  8
Unknown_Area_Type
  10
409323.500
  20
4643464.500
  0
VERTEX
  8
Unknown_Area_Type
  10
408263.000
  20
4643822.000
  0
VERTEX
  8
Unknown_Area_Type
  10
408450.500
  20
4647998.500
  0
VERTEX
  8
Unknown_Area_Type
  10
409009.500
  20
4648224.500
  0
VERTEX
  8
Unknown_Area_Type
  10
411279.000
  20
4647843.000
  0
VERTEX
  8
Unknown_Area_Type
  10
411282.000
  20
4647842.500
  0
SEQEND
  8
Unknown_Area_Type
  0
INSERT
  8
FeatureAttribs
  2
FEATURE
  41
1
  42
1
  43
1
  50
0
  10
409765.658
  20
4645803.711
 66
1
  0
ATTRIB
  8
FeatureAttribs
 70
0
  1
PNOA-H_AMS_1956-57_33k_ES_PAN_2
  2
NAME
  10
409765.658
  20
4645803.711
 40
33.63102
  0
SEQEND
  0
POLYLINE
  8
Unknown_Area_Type
  70
1
  66
1
  0
VERTEX
  8
Unknown_Area_Type
  10
411282.000
  20
4647842.500
  0
VERTEX
  8
Unknown_Area_Type
  10
411279.000
  20
4647843.000
  0
VERTEX
  8
Unknown_Area_Type
  10
409009.500
  20
4648224.500
  0
VERTEX
  8
Unknown_Area_Type
  10
408450.500
  20
4647998.500
  0
VERTEX
  8
Unknown_Area_Type
  10
408263.000
  20
4643822.000
  0
VERTEX
  8
Unknown_Area_Type
  10
409323.500
  20
4643464.500
  0
VERTEX
  8
Unknown_Area_Type
  10
410036.000
  20
4643364.500
  0
VERTEX
  8
Unknown_Area_Type
  10
411108.000
  20
4643780.000
  0
VERTEX
  8
Unknown_Area_Type
  10
411296.500
  20
4647836.000
  0
VERTEX
  8
Unknown_Area_Type
  10
411296.500
  20
4647840.500
  0
VERTEX
  8
Unknown_Area_Type
  10
411282.000
  20
4647842.500
  0
SEQEND
  8
Unknown_Area_Type
  0
INSERT
  8
FeatureAttribs
  2
FEATURE
  41
1
  42
1
  43
1
  50
0
  10
426853.358
  20
4631637.556
 66
1
  0
ATTRIB
  8
FeatureAttribs
 70
0
  1
PNOA-H_AMS_1956-57_33k_ES_PAN_2
  2
NAME
  10
426853.358
  20
4631637.556
 40
33.63102
  0
SEQEND
  0
POLYLINE
  8
Unknown_Area_Type
  70
1
  66
1
  0
VERTEX
  8
Unknown_Area_Type
  10
427221.800
  20
4631643.187
  0
VERTEX
  8
Unknown_Area_Type
  10
427213.656
  20
4631624.287
  0
VERTEX
  8
Unknown_Area_Type
  10
426502.627
  20
4631624.287
  0
VERTEX
  8
Unknown_Area_Type
  10
426472.059
  20
4631650.825
  0
VERTEX
  8
Unknown_Area_Type
  10
427221.800
  20
4631643.187
  0
SEQEND
  8
Unknown_Area_Type
  0
INSERT
  8
FeatureAttribs
  2
FEATURE
  41
1
  42
1
  43
1
  50
0
  10
426392.815
  20
4633361.586
 66
1
  0
ATTRIB
  8
FeatureAttribs
 70
0
  1
PNOA-H_AMS_1956-57_33k_ES_PAN_2
  2
NAME
  10
426392.815
  20
4633361.586
 40
33.63102
  0
SEQEND
  0
POLYLINE
  8
Unknown_Area_Type
  70
1
  66
1
  0
VERTEX
  8
Unknown_Area_Type
  10
427221.800
  20
4631643.187
  0
VERTEX
  8
Unknown_Area_Type
  10
426472.059
  20
4631650.825
  0
VERTEX
  8
Unknown_Area_Type
  10
424675.500
  20
4633210.500
  0
VERTEX
  8
Unknown_Area_Type
  10
424479.000
  20
4634266.000
  0
VERTEX
  8
Unknown_Area_Type
  10
424710.000
  20
4634428.000
  0
VERTEX
  8
Unknown_Area_Type
  10
424714.500
  20
4634431.000
  0
VERTEX
  8
Unknown_Area_Type
  10
424719.500
  20
4634431.500
  0
VERTEX
  8
Unknown_Area_Type
  10
427458.000
  20
4634683.500
  0
VERTEX
  8
Unknown_Area_Type
  10
427463.000
  20
4634682.000
  0
VERTEX
  8
Unknown_Area_Type
  10
427664.500
  20
4634576.000
  0
VERTEX
  8
Unknown_Area_Type
  10
427666.000
  20
4634575.500
  0
VERTEX
  8
Unknown_Area_Type
  10
427976.000
  20
4634413.500
  0
VERTEX
  8
Unknown_Area_Type
  10
427976.000
  20
4633393.500
  0
VERTEX
  8
Unknown_Area_Type
  10
427221.800
  20
4631643.187
  0
SEQEND
  8
Unknown_Area_Type
  0
INSERT
  8
FeatureAttribs
  2
FEATURE
  41
1
  42
1
  43
1
  50
0
  10
426392.815
  20
4633361.586
 66
1
  0
ATTRIB
  8
FeatureAttribs
 70
0
  1
PNOA-H_AMS_1956-57_33k_ES_PAN_2
  2
NAME
  10
426392.815
  20
4633361.586
 40
33.63102
  0
SEQEND
  0
POLYLINE
  8
Unknown_Area_Type
  70
1
  66
1
  0
VERTEX
  8
Unknown_Area_Type
  10
427221.800
  20
4631643.187
  0
VERTEX
  8
Unknown_Area_Type
  10
427976.000
  20
4633393.500
  0
VERTEX
  8
Unknown_Area_Type
  10
427976.000
  20
4634413.500
  0
VERTEX
  8
Unknown_Area_Type
  10
427666.000
  20
4634575.500
  0
VERTEX
  8
Unknown_Area_Type
  10
427664.500
  20
4634576.000
  0
VERTEX
  8
Unknown_Area_Type
  10
427463.000
  20
4634682.000
  0
VERTEX
  8
Unknown_Area_Type
  10
427458.000
  20
4634683.500
  0
VERTEX
  8
Unknown_Area_Type
  10
424719.500
  20
4634431.500
  0
VERTEX
  8
Unknown_Area_Type
  10
424714.500
  20
4634431.000
  0
VERTEX
  8
Unknown_Area_Type
  10
424710.000
  20
4634428.000
  0
VERTEX
  8
Unknown_Area_Type
  10
424479.000
  20
4634266.000
  0
VERTEX
  8
Unknown_Area_Type
  10
424675.500
  20
4633210.500
  0
VERTEX
  8
Unknown_Area_Type
  10
426472.059
  20
4631650.825
  0
VERTEX
  8
Unknown_Area_Type
  10
427221.800
  20
4631643.187
  0
SEQEND
  8
Unknown_Area_Type
  0
INSERT
  8
FeatureAttribs
  2
FEATURE
  41
1
  42
1
  43
1
  50
0
  10
415600.885
  20
4645603.359
 66
1
  0
ATTRIB
  8
FeatureAttribs
 70
0
  1
PNOA-H_AMS_1956-57_33k_ES_PAN_2
  2
NAME
  10
415600.885
  20
4645603.359
 40
33.63102
  0
SEQEND
  0
POLYLINE
  8
Unknown_Area_Type
  70
1
  66
1
  0
VERTEX
  8
Unknown_Area_Type
  10
415378.000
  20
4647976.000
  0
VERTEX
  8
Unknown_Area_Type
  10
417181.000
  20
4647563.500
  0
VERTEX
  8
Unknown_Area_Type
  10
416976.000
  20
4643566.000
  0
VERTEX
  8
Unknown_Area_Type
  10
415635.500
  20
4643202.500
  0
VERTEX
  8
Unknown_Area_Type
  10
415168.000
  20
4643207.500
  0
VERTEX
  8
Unknown_Area_Type
  10
414063.000
  20
4643712.000
  0
VERTEX
  8
Unknown_Area_Type
  10
414223.500
  20
4647679.000
  0
VERTEX
  8
Unknown_Area_Type
  10
415175.500
  20
4648022.500
  0
VERTEX
  8
Unknown_Area_Type
  10
415377.000
  20
4647976.000
  0
VERTEX
  8
Unknown_Area_Type
  10
415378.000
  20
4647976.000
  0
SEQEND
  8
Unknown_Area_Type
  0
INSERT
  8
FeatureAttribs
  2
FEATURE
  41
1
  42
1
  43
1
  50
0
  10
415600.885
  20
4645603.359
 66
1
  0
ATTRIB
  8
FeatureAttribs
 70
0
  1
PNOA-H_AMS_1956-57_33k_ES_PAN_2
  2
NAME
  10
415600.885
  20
4645603.359
 40
33.63102
  0
SEQEND
  0
POLYLINE
  8
Unknown_Area_Type
  70
1
  66
1
  0
VERTEX
  8
Unknown_Area_Type
  10
415378.000
  20
4647976.000
  0
VERTEX
  8
Unknown_Area_Type
  10
415377.000
  20
4647976.000
  0
VERTEX
  8
Unknown_Area_Type
  10
415175.500
  20
4648022.500
  0
VERTEX
  8
Unknown_Area_Type
  10
414223.500
  20
4647679.000
  0
VERTEX
  8
Unknown_Area_Type
  10
414063.000
  20
4643712.000
  0
VERTEX
  8
Unknown_Area_Type
  10
415168.000
  20
4643207.500
  0
VERTEX
  8
Unknown_Area_Type
  10
415635.500
  20
4643202.500
  0
VERTEX
  8
Unknown_Area_Type
  10
416976.000
  20
4643566.000
  0
VERTEX
  8
Unknown_Area_Type
  10
417181.000
  20
4647563.500
  0
VERTEX
  8
Unknown_Area_Type
  10
415378.000
  20
4647976.000
  0
SEQEND
  8
Unknown_Area_Type
  0
INSERT
  8
FeatureAttribs
  2
FEATURE
  41
1
  42
1
  43
1
  50
0
  10
429229.587
  20
4644092.243
 66
1
  0
ATTRIB
  8
FeatureAttribs
 70
0
  1
PNOA-H_AMS_1956-57_33k_ES_PAN_2
  2
NAME
  10
429229.587
  20
4644092.243
 40
33.63102
  0
SEQEND
  0
POLYLINE
  8
Unknown_Area_Type
  70
1
  66
1
  0
VERTEX
  8
Unknown_Area_Type
  10
429259.697
  20
4642599.990
  0
VERTEX
  8
Unknown_Area_Type
  10
429219.500
  20
4642590.500
  0
VERTEX
  8
Unknown_Area_Type
  10
429184.737
  20
4642612.928
  0
VERTEX
  8
Unknown_Area_Type
  10
429190.483
  20
4643189.722
  0
VERTEX
  8
Unknown_Area_Type
  10
429213.536
  20
4645502.830
  0
VERTEX
  8
Unknown_Area_Type
  10
429214.445
  20
4645593.987
  0
VERTEX
  8
Unknown_Area_Type
  10
429259.697
  20
4645575.067
  0
VERTEX
  8
Unknown_Area_Type
  10
429259.697
  20
4642599.990
  0
SEQEND
  8
Unknown_Area_Type
  0
INSERT
  8
FeatureAttribs
  2
FEATURE
  41
1
  42
1
  43
1
  50
0
  10
428877.276
  20
4644109.475
 66
1
  0
ATTRIB
  8
FeatureAttribs
 70
0
  1
PNOA-H_AMS_1956-57_33k_ES_PAN_2
  2
NAME
  10
428877.276
  20
4644109.475
 40
33.63102
  0
SEQEND
  0
POLYLINE
  8
Unknown_Area_Type
  70
1
  66
1
  0
VERTEX
  8
Unknown_Area_Type
  10
429214.445
  20
4645593.987
  0
VERTEX
  8
Unknown_Area_Type
  10
429213.536
  20
4645502.830
  0
VERTEX
  8
Unknown_Area_Type
  10
429190.483
  20
4643189.722
  0
VERTEX
  8
Unknown_Area_Type
  10
429184.737
  20
4642612.928
  0
VERTEX
  8
Unknown_Area_Type
  10
428451.500
  20
4643086.000
  0
VERTEX
  8
Unknown_Area_Type
  10
428541.500
  20
4644948.000
  0
VERTEX
  8
Unknown_Area_Type
  10
429013.500
  20
4645678.000
  0
VERTEX
  8
Unknown_Area_Type
  10
429214.445
  20
4645593.987
  0
SEQEND
  8
Unknown_Area_Type
  0
INSERT
  8
FeatureAttribs
  2
FEATURE
  41
1
  42
1
  43
1
  50
0
  10
428877.276
  20
4644109.475
 66
1
  0
ATTRIB
  8
FeatureAttribs
 70
0
  1
PNOA-H_AMS_1956-57_33k_ES_PAN_2
  2
NAME
  10
428877.276
  20
4644109.475
 40
33.63102
  0
SEQEND
  0
POLYLINE
  8
Unknown_Area_Type
  70
1
  66
1
  0
VERTEX
  8
Unknown_Area_Type
  10
429214.445
  20
4645593.987
  0
VERTEX
  8
Unknown_Area_Type
  10
429013.500
  20
4645678.000
  0
VERTEX
  8
Unknown_Area_Type
  10
428541.500
  20
4644948.000
  0
VERTEX
  8
Unknown_Area_Type
  10
428451.500
  20
4643086.000
  0
VERTEX
  8
Unknown_Area_Type
  10
429184.737
  20
4642612.928
  0
VERTEX
  8
Unknown_Area_Type
  10
429190.483
  20
4643189.722
  0
VERTEX
  8
Unknown_Area_Type
  10
429213.536
  20
4645502.830
  0
VERTEX
  8
Unknown_Area_Type
  10
429214.445
  20
4645593.987
  0
SEQEND
  8
Unknown_Area_Type
  0
INSERT
  8
FeatureAttribs
  2
FEATURE
  41
1
  42
1
  43
1
  50
0
  10
421399.983
  20
4645269.118
 66
1
  0
ATTRIB
  8
FeatureAttribs
 70
0
  1
PNOA-H_AMS_1956-57_33k_ES_PAN_2
  2
NAME
  10
421399.983
  20
4645269.118
 40
33.63102
  0
SEQEND
  0
POLYLINE
  8
Unknown_Area_Type
  70
1
  66
1
  0
VERTEX
  8
Unknown_Area_Type
  10
421522.000
  20
4647687.500
  0
VERTEX
  8
Unknown_Area_Type
  10
422976.000
  20
4647320.500
  0
VERTEX
  8
Unknown_Area_Type
  10
422782.500
  20
4643108.500
  0
VERTEX
  8
Unknown_Area_Type
  10
420274.500
  20
4642833.500
  0
VERTEX
  8
Unknown_Area_Type
  10
420270.000
  20
4642833.500
  0
VERTEX
  8
Unknown_Area_Type
  10
419850.000
  20
4643113.000
  0
VERTEX
  8
Unknown_Area_Type
  10
420075.500
  20
4647444.500
  0
VERTEX
  8
Unknown_Area_Type
  10
421159.500
  20
4647779.000
  0
VERTEX
  8
Unknown_Area_Type
  10
421521.000
  20
4647687.500
  0
VERTEX
  8
Unknown_Area_Type
  10
421522.000
  20
4647687.500
  0
SEQEND
  8
Unknown_Area_Type
  0
INSERT
  8
FeatureAttribs
  2
FEATURE
  41
1
  42
1
  43
1
  50
0
  10
421399.983
  20
4645269.118
 66
1
  0
ATTRIB
  8
FeatureAttribs
 70
0
  1
PNOA-H_AMS_1956-57_33k_ES_PAN_2
  2
NAME
  10
421399.983
  20
4645269.118
 40
33.63102
  0
SEQEND
  0
POLYLINE
  8
Unknown_Area_Type
  70
1
  66
1
  0
VERTEX
  8
Unknown_Area_Type
  10
421522.000
  20
4647687.500
  0
VERTEX
  8
Unknown_Area_Type
  10
421521.000
  20
4647687.500
  0
VERTEX
  8
Unknown_Area_Type
  10
421159.500
  20
4647779.000
  0
VERTEX
  8
Unknown_Area_Type
  10
420075.500
  20
4647444.500
  0
VERTEX
  8
Unknown_Area_Type
  10
419850.000
  20
4643113.000
  0
VERTEX
  8
Unknown_Area_Type
  10
420270.000
  20
4642833.500
  0
VERTEX
  8
Unknown_Area_Type
  10
420274.500
  20
4642833.500
  0
VERTEX
  8
Unknown_Area_Type
  10
422782.500
  20
4643108.500
  0
VERTEX
  8
Unknown_Area_Type
  10
422976.000
  20
4647320.500
  0
VERTEX
  8
Unknown_Area_Type
  10
421522.000
  20
4647687.500
  0
SEQEND
  8
Unknown_Area_Type
  0
INSERT
  8
FeatureAttribs
  2
FEATURE
  41
1
  42
1
  43
1
  50
0
  10
412657.293
  20
4645699.387
 66
1
  0
ATTRIB
  8
FeatureAttribs
 70
0
  1
PNOA-H_AMS_1956-57_33k_ES_PAN_2
  2
NAME
  10
412657.293
  20
4645699.387
 40
33.63102
  0
SEQEND
  0
POLYLINE
  8
Unknown_Area_Type
  70
1
  66
1
  0
VERTEX
  8
Unknown_Area_Type
  10
411281.500
  20
4647523.500
  0
VERTEX
  8
Unknown_Area_Type
  10
411296.500
  20
4647840.500
  0
VERTEX
  8
Unknown_Area_Type
  10
412042.000
  20
4648127.000
  0
VERTEX
  8
Unknown_Area_Type
  10
414223.500
  20
4647679.000
  0
VERTEX
  8
Unknown_Area_Type
  10
414063.000
  20
4643712.000
  0
VERTEX
  8
Unknown_Area_Type
  10
412882.000
  20
4643291.500
  0
VERTEX
  8
Unknown_Area_Type
  10
412263.000
  20
4643332.000
  0
VERTEX
  8
Unknown_Area_Type
  10
411108.000
  20
4643780.000
  0
VERTEX
  8
Unknown_Area_Type
  10
411281.500
  20
4647513.000
  0
VERTEX
  8
Unknown_Area_Type
  10
411281.500
  20
4647523.500
  0
SEQEND
  8
Unknown_Area_Type
  0
INSERT
  8
FeatureAttribs
  2
FEATURE
  41
1
  42
1
  43
1
  50
0
  10
412657.293
  20
4645699.387
 66
1
  0
ATTRIB
  8
FeatureAttribs
 70
0
  1
PNOA-H_AMS_1956-57_33k_ES_PAN_2
  2
NAME
  10
412657.293
  20
4645699.387
 40
33.63102
  0
SEQEND
  0
POLYLINE
  8
Unknown_Area_Type
  70
1
  66
1
  0
VERTEX
  8
Unknown_Area_Type
  10
411281.500
  20
4647523.500
  0
VERTEX
  8
Unknown_Area_Type
  10
411281.500
  20
4647513.000
  0
VERTEX
  8
Unknown_Area_Type
  10
411108.000
  20
4643780.000
  0
VERTEX
  8
Unknown_Area_Type
  10
412263.000
  20
4643332.000
  0
VERTEX
  8
Unknown_Area_Type
  10
412882.000
  20
4643291.500
  0
VERTEX
  8
Unknown_Area_Type
  10
414063.000
  20
4643712.000
  0
VERTEX
  8
Unknown_Area_Type
  10
414223.500
  20
4647679.000
  0
VERTEX
  8
Unknown_Area_Type
  10
412042.000
  20
4648127.000
  0
VERTEX
  8
Unknown_Area_Type
  10
411296.500
  20
4647840.500
  0
VERTEX
  8
Unknown_Area_Type
  10
411281.500
  20
4647523.500
  0
SEQEND
  8
Unknown_Area_Type
  0
INSERT
  8
FeatureAttribs
  2
FEATURE
  41
1
  42
1
  43
1
  50
0
  10
404045.722
  20
4645942.864
 66
1
  0
ATTRIB
  8
FeatureAttribs
 70
0
  1
PNOA-H_AMS_1956-57_33k_ES_PAN_2
  2
NAME
  10
404045.722
  20
4645942.864
 40
33.63102
  0
SEQEND
  0
POLYLINE
  8
Unknown_Area_Type
  70
1
  66
1
  0
VERTEX
  8
Unknown_Area_Type
  10
402718.500
  20
4648074.500
  0
VERTEX
  8
Unknown_Area_Type
  10
403374.000
  20
4648349.000
  0
VERTEX
  8
Unknown_Area_Type
  10
403375.000
  20
4648349.500
  0
VERTEX
  8
Unknown_Area_Type
  10
405592.500
  20
4648020.500
  0
VERTEX
  8
Unknown_Area_Type
  10
405397.000
  20
4643911.500
  0
VERTEX
  8
Unknown_Area_Type
  10
404399.000
  20
4643476.000
  0
VERTEX
  8
Unknown_Area_Type
  10
402490.000
  20
4643947.500
  0
VERTEX
  8
Unknown_Area_Type
  10
402718.500
  20
4648074.500
  0
SEQEND
  8
Unknown_Area_Type
  0
INSERT
  8
FeatureAttribs
  2
FEATURE
  41
1
  42
1
  43
1
  50
0
  10
404045.722
  20
4645942.864
 66
1
  0
ATTRIB
  8
FeatureAttribs
 70
0
  1
PNOA-H_AMS_1956-57_33k_ES_PAN_2
  2
NAME
  10
404045.722
  20
4645942.864
 40
33.63102
  0
SEQEND
  0
POLYLINE
  8
Unknown_Area_Type
  70
1
  66
1
  0
VERTEX
  8
Unknown_Area_Type
  10
402718.500
  20
4648074.500
  0
VERTEX
  8
Unknown_Area_Type
  10
402490.000
  20
4643947.500
  0
VERTEX
  8
Unknown_Area_Type
  10
404399.000
  20
4643476.000
  0
VERTEX
  8
Unknown_Area_Type
  10
405397.000
  20
4643911.500
  0
VERTEX
  8
Unknown_Area_Type
  10
405592.500
  20
4648020.500
  0
VERTEX
  8
Unknown_Area_Type
  10
403375.000
  20
4648349.500
  0
VERTEX
  8
Unknown_Area_Type
  10
403374.000
  20
4648349.000
  0
VERTEX
  8
Unknown_Area_Type
  10
402718.500
  20
4648074.500
  0
SEQEND
  8
Unknown_Area_Type
  0
INSERT
  8
FeatureAttribs
  2
FEATURE
  41
1
  42
1
  43
1
  50
0
  10
429174.975
  20
4633121.567
 66
1
  0
ATTRIB
  8
FeatureAttribs
 70
0
  1
PNOA-H_AMS_1956-57_33k_ES_PAN_2
  2
NAME
  10
429174.975
  20
4633121.567
 40
33.63102
  0
SEQEND
  0
POLYLINE
  8
Unknown_Area_Type
  70
1
  66
1
  0
VERTEX
  8
Unknown_Area_Type
  10
429259.697
  20
4634618.846
  0
VERTEX
  8
Unknown_Area_Type
  10
429259.697
  20
4631624.287
  0
VERTEX
  8
Unknown_Area_Type
  10
429091.957
  20
4631624.287
  0
VERTEX
  8
Unknown_Area_Type
  10
429075.619
  20
4631650.196
  0
VERTEX
  8
Unknown_Area_Type
  10
429098.367
  20
4633937.373
  0
VERTEX
  8
Unknown_Area_Type
  10
429104.900
  20
4634594.024
  0
VERTEX
  8
Unknown_Area_Type
  10
429259.697
  20
4634618.846
  0
SEQEND
  8
Unknown_Area_Type
  0
INSERT
  8
FeatureAttribs
  2
FEATURE
  41
1
  42
1
  43
1
  50
0
  10
428623.841
  20
4633451.424
 66
1
  0
ATTRIB
  8
FeatureAttribs
 70
0
  1
PNOA-H_AMS_1956-57_33k_ES_PAN_2
  2
NAME
  10
428623.841
  20
4633451.424
 40
33.63102
  0
SEQEND
  0
POLYLINE
  8
Unknown_Area_Type
  70
1
  66
1
  0
VERTEX
  8
Unknown_Area_Type
  10
429104.900
  20
4634594.024
  0
VERTEX
  8
Unknown_Area_Type
  10
429098.367
  20
4633937.373
  0
VERTEX
  8
Unknown_Area_Type
  10
429075.619
  20
4631650.196
  0
VERTEX
  8
Unknown_Area_Type
  10
427976.000
  20
4633394.000
  0
VERTEX
  8
Unknown_Area_Type
  10
427976.000
  20
4634413.000
  0
VERTEX
  8
Unknown_Area_Type
  10
429104.900
  20
4634594.024
  0
SEQEND
  8
Unknown_Area_Type
  0
INSERT
  8
FeatureAttribs
  2
FEATURE
  41
1
  42
1
  43
1
  50
0
  10
428623.841
  20
4633451.424
 66
1
  0
ATTRIB
  8
FeatureAttribs
 70
0
  1
PNOA-H_AMS_1956-57_33k_ES_PAN_2
  2
NAME
  10
428623.841
  20
4633451.424
 40
33.63102
  0
SEQEND
  0
POLYLINE
  8
Unknown_Area_Type
  70
1
  66
1
  0
VERTEX
  8
Unknown_Area_Type
  10
429104.900
  20
4634594.024
  0
VERTEX
  8
Unknown_Area_Type
  10
427976.000
  20
4634413.000
  0
VERTEX
  8
Unknown_Area_Type
  10
427976.000
  20
4633394.000
  0
VERTEX
  8
Unknown_Area_Type
  10
429075.619
  20
4631650.196
  0
VERTEX
  8
Unknown_Area_Type
  10
429098.367
  20
4633937.373
  0
VERTEX
  8
Unknown_Area_Type
  10
429104.900
  20
4634594.024
  0
SEQEND
  8
Unknown_Area_Type
  0
INSERT
  8
FeatureAttribs
  2
FEATURE
  41
1
  42
1
  43
1
  50
0
  10
418527.132
  20
4645408.750
 66
1
  0
ATTRIB
  8
FeatureAttribs
 70
0
  1
PNOA-H_AMS_1956-57_33k_ES_PAN_2
  2
NAME
  10
418527.132
  20
4645408.750
 40
33.63102
  0
SEQEND
  0
POLYLINE
  8
Unknown_Area_Type
  70
1
  66
1
  0
VERTEX
  8
Unknown_Area_Type
  10
417425.000
  20
4647641.000
  0
VERTEX
  8
Unknown_Area_Type
  10
418184.000
  20
4647881.500
  0
VERTEX
  8
Unknown_Area_Type
  10
418194.000
  20
4647883.500
  0
VERTEX
  8
Unknown_Area_Type
  10
420075.500
  20
4647444.500
  0
VERTEX
  8
Unknown_Area_Type
  10
419850.000
  20
4643113.000
  0
VERTEX
  8
Unknown_Area_Type
  10
418093.000
  20
4642976.000
  0
VERTEX
  8
Unknown_Area_Type
  10
416976.000
  20
4643566.000
  0
VERTEX
  8
Unknown_Area_Type
  10
417181.000
  20
4647563.500
  0
VERTEX
  8
Unknown_Area_Type
  10
417423.500
  20
4647640.500
  0
VERTEX
  8
Unknown_Area_Type
  10
417425.000
  20
4647641.000
  0
SEQEND
  8
Unknown_Area_Type
  0
INSERT
  8
FeatureAttribs
  2
FEATURE
  41
1
  42
1
  43
1
  50
0
  10
418527.132
  20
4645408.750
 66
1
  0
ATTRIB
  8
FeatureAttribs
 70
0
  1
PNOA-H_AMS_1956-57_33k_ES_PAN_2
  2
NAME
  10
418527.132
  20
4645408.750
 40
33.63102
  0
SEQEND
  0
POLYLINE
  8
Unknown_Area_Type
  70
1
  66
1
  0
VERTEX
  8
Unknown_Area_Type
  10
417425.000
  20
4647641.000
  0
VERTEX
  8
Unknown_Area_Type
  10
417423.500
  20
4647640.500
  0
VERTEX
  8
Unknown_Area_Type
  10
417181.000
  20
4647563.500
  0
VERTEX
  8
Unknown_Area_Type
  10
416976.000
  20
4643566.000
  0
VERTEX
  8
Unknown_Area_Type
  10
418093.000
  20
4642976.000
  0
VERTEX
  8
Unknown_Area_Type
  10
419850.000
  20
4643113.000
  0
VERTEX
  8
Unknown_Area_Type
  10
420075.500
  20
4647444.500
  0
VERTEX
  8
Unknown_Area_Type
  10
418194.000
  20
4647883.500
  0
VERTEX
  8
Unknown_Area_Type
  10
418184.000
  20
4647881.500
  0
VERTEX
  8
Unknown_Area_Type
  10
417425.000
  20
4647641.000
  0
SEQEND
  8
Unknown_Area_Type
  0
INSERT
  8
FeatureAttribs
  2
FEATURE
  41
1
  42
1
  43
1
  50
0
  10
424241.727
  20
4645126.199
 66
1
  0
ATTRIB
  8
FeatureAttribs
 70
0
  1
PNOA-H_AMS_1956-57_33k_ES_PAN_2
  2
NAME
  10
424241.727
  20
4645126.199
 40
33.63102
  0
SEQEND
  0
POLYLINE
  8
Unknown_Area_Type
  70
1
  66
1
  0
VERTEX
  8
Unknown_Area_Type
  10
423569.000
  20
4647493.000
  0
VERTEX
  8
Unknown_Area_Type
  10
424137.500
  20
4647657.500
  0
VERTEX
  8
Unknown_Area_Type
  10
425137.500
  20
4647416.000
  0
VERTEX
  8
Unknown_Area_Type
  10
425784.000
  20
4645758.000
  0
VERTEX
  8
Unknown_Area_Type
  10
425638.500
  20
4643072.000
  0
VERTEX
  8
Unknown_Area_Type
  10
423300.500
  20
4642755.000
  0
VERTEX
  8
Unknown_Area_Type
  10
422782.500
  20
4643108.500
  0
VERTEX
  8
Unknown_Area_Type
  10
422976.000
  20
4647320.500
  0
VERTEX
  8
Unknown_Area_Type
  10
423567.500
  20
4647492.500
  0
VERTEX
  8
Unknown_Area_Type
  10
423569.000
  20
4647493.000
  0
SEQEND
  8
Unknown_Area_Type
  0
INSERT
  8
FeatureAttribs
  2
FEATURE
  41
1
  42
1
  43
1
  50
0
  10
424241.727
  20
4645126.199
 66
1
  0
ATTRIB
  8
FeatureAttribs
 70
0
  1
PNOA-H_AMS_1956-57_33k_ES_PAN_2
  2
NAME
  10
424241.727
  20
4645126.199
 40
33.63102
  0
SEQEND
  0
POLYLINE
  8
Unknown_Area_Type
  70
1
  66
1
  0
VERTEX
  8
Unknown_Area_Type
  10
423569.000
  20
4647493.000
  0
VERTEX
  8
Unknown_Area_Type
  10
423567.500
  20
4647492.500
  0
VERTEX
  8
Unknown_Area_Type
  10
422976.000
  20
4647320.500
  0
VERTEX
  8
Unknown_Area_Type
  10
422782.500
  20
4643108.500
  0
VERTEX
  8
Unknown_Area_Type
  10
423300.500
  20
4642755.000
  0
VERTEX
  8
Unknown_Area_Type
  10
425638.500
  20
4643072.000
  0
VERTEX
  8
Unknown_Area_Type
  10
425784.000
  20
4645758.000
  0
VERTEX
  8
Unknown_Area_Type
  10
425137.500
  20
4647416.000
  0
VERTEX
  8
Unknown_Area_Type
  10
424137.500
  20
4647657.500
  0
VERTEX
  8
Unknown_Area_Type
  10
423569.000
  20
4647493.000
  0
SEQEND
  8
Unknown_Area_Type
  0
INSERT
  8
FeatureAttribs
  2
FEATURE
  41
1
  42
1
  43
1
  50
0
  10
401400.110
  20
4634265.377
 66
1
  0
ATTRIB
  8
FeatureAttribs
 70
0
  1
PNOA-H_AMS_1956-57_33k_ES_PAN_2
  2
NAME
  10
401400.110
  20
4634265.377
 40
33.63102
  0
SEQEND
  0
POLYLINE
  8
Unknown_Area_Type
  70
1
  66
1
  0
VERTEX
  8
Unknown_Area_Type
  10
401397.043
  20
4634356.116
  0
VERTEX
  8
Unknown_Area_Type
  10
401409.000
  20
4634351.500
  0
VERTEX
  8
Unknown_Area_Type
  10
401397.043
  20
4634174.639
  0
VERTEX
  8
Unknown_Area_Type
  10
401397.043
  20
4634356.116
  0
SEQEND
  8
Unknown_Area_Type
  0
INSERT
  8
FeatureAttribs
  2
FEATURE
  41
1
  42
1
  43
1
  50
0
  10
401427.269
  20
4636322.107
 66
1
  0
ATTRIB
  8
FeatureAttribs
 70
0
  1
PNOA-H_AMS_1956-57_33k_ES_PAN_2
  2
NAME
  10
401427.269
  20
4636322.107
 40
33.63102
  0
SEQEND
  0
POLYLINE
  8
Unknown_Area_Type
  70
1
  66
1
  0
VERTEX
  8
Unknown_Area_Type
  10
401430.294
  20
4634355.738
  0
VERTEX
  8
Unknown_Area_Type
  10
401410.000
  20
4634351.000
  0
VERTEX
  8
Unknown_Area_Type
  10
401397.043
  20
4634356.001
  0
VERTEX
  8
Unknown_Area_Type
  10
401397.043
  20
4638291.355
  0
VERTEX
  8
Unknown_Area_Type
  10
401484.773
  20
4638293.213
  0
VERTEX
  8
Unknown_Area_Type
  10
401461.056
  20
4636579.446
  0
VERTEX
  8
Unknown_Area_Type
  10
401430.294
  20
4634355.738
  0
SEQEND
  8
Unknown_Area_Type
  0
INSERT
  8
FeatureAttribs
  2
FEATURE
  41
1
  42
1
  43
1
  50
0
  10
402179.189
  20
4636407.654
 66
1
  0
ATTRIB
  8
FeatureAttribs
 70
0
  1
PNOA-H_AMS_1956-57_33k_ES_PAN_2
  2
NAME
  10
402179.189
  20
4636407.654
 40
33.63102
  0
SEQEND
  0
POLYLINE
  8
Unknown_Area_Type
  70
1
  66
1
  0
VERTEX
  8
Unknown_Area_Type
  10
401484.773
  20
4638293.213
  0
VERTEX
  8
Unknown_Area_Type
  10
402749.000
  20
4638320.000
  0
VERTEX
  8
Unknown_Area_Type
  10
402772.500
  20
4638320.500
  0
VERTEX
  8
Unknown_Area_Type
  10
402783.500
  20
4638320.500
  0
VERTEX
  8
Unknown_Area_Type
  10
402785.000
  20
4638319.500
  0
VERTEX
  8
Unknown_Area_Type
  10
402932.500
  20
4638208.500
  0
VERTEX
  8
Unknown_Area_Type
  10
402913.500
  20
4634702.000
  0
VERTEX
  8
Unknown_Area_Type
  10
401430.294
  20
4634355.738
  0
VERTEX
  8
Unknown_Area_Type
  10
401461.056
  20
4636579.446
  0
VERTEX
  8
Unknown_Area_Type
  10
401484.773
  20
4638293.213
  0
SEQEND
  8
Unknown_Area_Type
  0
INSERT
  8
FeatureAttribs
  2
FEATURE
  41
1
  42
1
  43
1
  50
0
  10
402179.189
  20
4636407.654
 66
1
  0
ATTRIB
  8
FeatureAttribs
 70
0
  1
PNOA-H_AMS_1956-57_33k_ES_PAN_2
  2
NAME
  10
402179.189
  20
4636407.654
 40
33.63102
  0
SEQEND
  0
POLYLINE
  8
Unknown_Area_Type
  70
1
  66
1
  0
VERTEX
  8
Unknown_Area_Type
  10
401484.773
  20
4638293.213
  0
VERTEX
  8
Unknown_Area_Type
  10
401461.056
  20
4636579.446
  0
VERTEX
  8
Unknown_Area_Type
  10
401430.294
  20
4634355.738
  0
VERTEX
  8
Unknown_Area_Type
  10
402913.500
  20
4634702.000
  0
VERTEX
  8
Unknown_Area_Type
  10
402932.500
  20
4638208.500
  0
VERTEX
  8
Unknown_Area_Type
  10
402785.000
  20
4638319.500
  0
VERTEX
  8
Unknown_Area_Type
  10
402783.500
  20
4638320.500
  0
VERTEX
  8
Unknown_Area_Type
  10
402772.500
  20
4638320.500
  0
VERTEX
  8
Unknown_Area_Type
  10
402749.000
  20
4638320.000
  0
VERTEX
  8
Unknown_Area_Type
  10
401484.773
  20
4638293.213
  0
SEQEND
  8
Unknown_Area_Type
  0
INSERT
  8
FeatureAttribs
  2
FEATURE
  41
1
  42
1
  43
1
  50
0
  10
425527.962
  20
4631647.441
 66
1
  0
ATTRIB
  8
FeatureAttribs
 70
0
  1
PNOA-H_AMS_1956-57_33k_ES_PAN_2
  2
NAME
  10
425527.962
  20
4631647.441
 40
33.63102
  0
SEQEND
  0
POLYLINE
  8
Unknown_Area_Type
  70
1
  66
1
  0
VERTEX
  8
Unknown_Area_Type
  10
426472.835
  20
4631650.817
  0
VERTEX
  8
Unknown_Area_Type
  10
426503.406
  20
4631624.287
  0
VERTEX
  8
Unknown_Area_Type
  10
424577.768
  20
4631624.287
  0
VERTEX
  8
Unknown_Area_Type
  10
424580.631
  20
4631670.594
  0
VERTEX
  8
Unknown_Area_Type
  10
425615.592
  20
4631659.549
  0
VERTEX
  8
Unknown_Area_Type
  10
426472.835
  20
4631650.817
  0
SEQEND
  8
Unknown_Area_Type
  0
INSERT
  8
FeatureAttribs
  2
FEATURE
  41
1
  42
1
  43
1
  50
0
  10
425243.142
  20
4632177.134
 66
1
  0
ATTRIB
  8
FeatureAttribs
 70
0
  1
PNOA-H_AMS_1956-57_33k_ES_PAN_2
  2
NAME
  10
425243.142
  20
4632177.134
 40
33.63102
  0
SEQEND
  0
POLYLINE
  8
Unknown_Area_Type
  70
1
  66
1
  0
VERTEX
  8
Unknown_Area_Type
  10
426472.835
  20
4631650.817
  0
VERTEX
  8
Unknown_Area_Type
  10
425615.592
  20
4631659.549
  0
VERTEX
  8
Unknown_Area_Type
  10
424580.631
  20
4631670.594
  0
VERTEX
  8
Unknown_Area_Type
  10
424675.500
  20
4633205.000
  0
VERTEX
  8
Unknown_Area_Type
  10
424675.500
  20
4633210.500
  0
VERTEX
  8
Unknown_Area_Type
  10
426472.835
  20
4631650.817
  0
SEQEND
  8
Unknown_Area_Type
  0
INSERT
  8
FeatureAttribs
  2
FEATURE
  41
1
  42
1
  43
1
  50
0
  10
425243.142
  20
4632177.134
 66
1
  0
ATTRIB
  8
FeatureAttribs
 70
0
  1
PNOA-H_AMS_1956-57_33k_ES_PAN_2
  2
NAME
  10
425243.142
  20
4632177.134
 40
33.63102
  0
SEQEND
  0
POLYLINE
  8
Unknown_Area_Type
  70
1
  66
1
  0
VERTEX
  8
Unknown_Area_Type
  10
426472.835
  20
4631650.817
  0
VERTEX
  8
Unknown_Area_Type
  10
424675.500
  20
4633210.500
  0
VERTEX
  8
Unknown_Area_Type
  10
424675.500
  20
4633205.000
  0
VERTEX
  8
Unknown_Area_Type
  10
424580.631
  20
4631670.594
  0
VERTEX
  8
Unknown_Area_Type
  10
425615.592
  20
4631659.549
  0
VERTEX
  8
Unknown_Area_Type
  10
426472.835
  20
4631650.817
  0
SEQEND
  8
Unknown_Area_Type
  0
INSERT
  8
FeatureAttribs
  2
FEATURE
  41
1
  42
1
  43
1
  50
0
  10
429079.791
  20
4631637.702
 66
1
  0
ATTRIB
  8
FeatureAttribs
 70
0
  1
PNOA-H_AMS_1956-57_33k_ES_PAN_2
  2
NAME
  10
429079.791
  20
4631637.702
 40
33.63102
  0
SEQEND
  0
POLYLINE
  8
Unknown_Area_Type
  70
1
  66
1
  0
VERTEX
  8
Unknown_Area_Type
  10
429092.548
  20
4631624.287
  0
VERTEX
  8
Unknown_Area_Type
  10
429077.303
  20
4631624.287
  0
VERTEX
  8
Unknown_Area_Type
  10
429075.361
  20
4631624.306
  0
VERTEX
  8
Unknown_Area_Type
  10
429075.628
  20
4631651.117
  0
VERTEX
  8
Unknown_Area_Type
  10
429092.548
  20
4631624.287
  0
SEQEND
  8
Unknown_Area_Type
  0
INSERT
  8
FeatureAttribs
  2
FEATURE
  41
1
  42
1
  43
1
  50
0
  10
427683.241
  20
4631633.740
 66
1
  0
ATTRIB
  8
FeatureAttribs
 70
0
  1
PNOA-H_AMS_1956-57_33k_ES_PAN_2
  2
NAME
  10
427683.241
  20
4631633.740
 40
33.63102
  0
SEQEND
  0
POLYLINE
  8
Unknown_Area_Type
  70
1
  66
1
  0
VERTEX
  8
Unknown_Area_Type
  10
427221.303
  20
4631643.192
  0
VERTEX
  8
Unknown_Area_Type
  10
429075.361
  20
4631624.306
  0
VERTEX
  8
Unknown_Area_Type
  10
429075.361
  20
4631624.287
  0
VERTEX
  8
Unknown_Area_Type
  10
427213.149
  20
4631624.287
  0
VERTEX
  8
Unknown_Area_Type
  10
427221.303
  20
4631643.192
  0
SEQEND
  8
Unknown_Area_Type
  0
INSERT
  8
FeatureAttribs
  2
FEATURE
  41
1
  42
1
  43
1
  50
0
  10
429075.847
  20
4631624.297
 66
1
  0
ATTRIB
  8
FeatureAttribs
 70
0
  1
PNOA-H_AMS_1956-57_33k_ES_PAN_2
  2
NAME
  10
429075.847
  20
4631624.297
 40
33.63102
  0
SEQEND
  0
POLYLINE
  8
Unknown_Area_Type
  70
1
  66
1
  0
VERTEX
  8
Unknown_Area_Type
  10
429075.361
  20
4631624.306
  0
VERTEX
  8
Unknown_Area_Type
  10
429077.303
  20
4631624.287
  0
VERTEX
  8
Unknown_Area_Type
  10
429075.361
  20
4631624.287
  0
VERTEX
  8
Unknown_Area_Type
  10
429075.361
  20
4631624.306
  0
SEQEND
  8
Unknown_Area_Type
  0
INSERT
  8
FeatureAttribs
  2
FEATURE
  41
1
  42
1
  43
1
  50
0
  10
428096.646
  20
4632220.590
 66
1
  0
ATTRIB
  8
FeatureAttribs
 70
0
  1
PNOA-H_AMS_1956-57_33k_ES_PAN_2
  2
NAME
  10
428096.646
  20
4632220.590
 40
33.63102
  0
SEQEND
  0
POLYLINE
  8
Unknown_Area_Type
  70
1
  66
1
  0
VERTEX
  8
Unknown_Area_Type
  10
429075.628
  20
4631651.117
  0
VERTEX
  8
Unknown_Area_Type
  10
429075.361
  20
4631624.306
  0
VERTEX
  8
Unknown_Area_Type
  10
427221.303
  20
4631643.192
  0
VERTEX
  8
Unknown_Area_Type
  10
427665.500
  20
4632673.000
  0
VERTEX
  8
Unknown_Area_Type
  10
427665.500
  20
4632674.000
  0
VERTEX
  8
Unknown_Area_Type
  10
427976.500
  20
4633394.000
  0
VERTEX
  8
Unknown_Area_Type
  10
429075.628
  20
4631651.117
  0
SEQEND
  8
Unknown_Area_Type
  0
INSERT
  8
FeatureAttribs
  2
FEATURE
  41
1
  42
1
  43
1
  50
0
  10
428096.646
  20
4632220.590
 66
1
  0
ATTRIB
  8
FeatureAttribs
 70
0
  1
PNOA-H_AMS_1956-57_33k_ES_PAN_2
  2
NAME
  10
428096.646
  20
4632220.590
 40
33.63102
  0
SEQEND
  0
POLYLINE
  8
Unknown_Area_Type
  70
1
  66
1
  0
VERTEX
  8
Unknown_Area_Type
  10
429075.628
  20
4631651.117
  0
VERTEX
  8
Unknown_Area_Type
  10
427976.500
  20
4633394.000
  0
VERTEX
  8
Unknown_Area_Type
  10
427665.500
  20
4632674.000
  0
VERTEX
  8
Unknown_Area_Type
  10
427665.500
  20
4632673.000
  0
VERTEX
  8
Unknown_Area_Type
  10
427221.303
  20
4631643.192
  0
VERTEX
  8
Unknown_Area_Type
  10
429075.361
  20
4631624.306
  0
VERTEX
  8
Unknown_Area_Type
  10
429075.628
  20
4631651.117
  0
SEQEND
  8
Unknown_Area_Type
  0
INSERT
  8
FeatureAttribs
  2
FEATURE
  41
1
  42
1
  43
1
  50
0
  10
420777.019
  20
4631675.254
 66
1
  0
ATTRIB
  8
FeatureAttribs
 70
0
  1
PNOA-H_AMS_1956-57_33k_ES_PAN_2
  2
NAME
  10
420777.019
  20
4631675.254
 40
33.63102
  0
SEQEND
  0
POLYLINE
  8
Unknown_Area_Type
  70
1
  66
1
  0
VERTEX
  8
Unknown_Area_Type
  10
422063.098
  20
4631624.287
  0
VERTEX
  8
Unknown_Area_Type
  10
419486.045
  20
4631624.287
  0
VERTEX
  8
Unknown_Area_Type
  10
419489.241
  20
4631726.221
  0
VERTEX
  8
Unknown_Area_Type
  10
422067.831
  20
4631697.452
  0
VERTEX
  8
Unknown_Area_Type
  10
422063.098
  20
4631624.287
  0
SEQEND
  8
Unknown_Area_Type
  0
INSERT
  8
FeatureAttribs
  2
FEATURE
  41
1
  42
1
  43
1
  50
0
  10
420848.511
  20
4633015.322
 66
1
  0
ATTRIB
  8
FeatureAttribs
 70
0
  1
PNOA-H_AMS_1956-57_33k_ES_PAN_2
  2
NAME
  10
420848.511
  20
4633015.322
 40
33.63102
  0
SEQEND
  0
POLYLINE
  8
Unknown_Area_Type
  70
1
  66
1
  0
VERTEX
  8
Unknown_Area_Type
  10
422067.831
  20
4631697.452
  0
VERTEX
  8
Unknown_Area_Type
  10
419489.241
  20
4631726.221
  0
VERTEX
  8
Unknown_Area_Type
  10
419569.000
  20
4634270.000
  0
VERTEX
  8
Unknown_Area_Type
  10
422054.000
  20
4634340.500
  0
VERTEX
  8
Unknown_Area_Type
  10
422232.500
  20
4634247.000
  0
VERTEX
  8
Unknown_Area_Type
  10
422075.500
  20
4631818.500
  0
VERTEX
  8
Unknown_Area_Type
  10
422075.500
  20
4631816.000
  0
VERTEX
  8
Unknown_Area_Type
  10
422067.831
  20
4631697.452
  0
SEQEND
  8
Unknown_Area_Type
  0
INSERT
  8
FeatureAttribs
  2
FEATURE
  41
1
  42
1
  43
1
  50
0
  10
420848.511
  20
4633015.322
 66
1
  0
ATTRIB
  8
FeatureAttribs
 70
0
  1
PNOA-H_AMS_1956-57_33k_ES_PAN_2
  2
NAME
  10
420848.511
  20
4633015.322
 40
33.63102
  0
SEQEND
  0
POLYLINE
  8
Unknown_Area_Type
  70
1
  66
1
  0
VERTEX
  8
Unknown_Area_Type
  10
422067.831
  20
4631697.452
  0
VERTEX
  8
Unknown_Area_Type
  10
422075.500
  20
4631816.000
  0
VERTEX
  8
Unknown_Area_Type
  10
422075.500
  20
4631818.500
  0
VERTEX
  8
Unknown_Area_Type
  10
422232.500
  20
4634247.000
  0
VERTEX
  8
Unknown_Area_Type
  10
422054.000
  20
4634340.500
  0
VERTEX
  8
Unknown_Area_Type
  10
419569.000
  20
4634270.000
  0
VERTEX
  8
Unknown_Area_Type
  10
419489.241
  20
4631726.221
  0
VERTEX
  8
Unknown_Area_Type
  10
422067.831
  20
4631697.452
  0
SEQEND
  8
Unknown_Area_Type
  0
INSERT
  8
FeatureAttribs
  2
FEATURE
  41
1
  42
1
  43
1
  50
0
  10
423322.598
  20
4631660.870
 66
1
  0
ATTRIB
  8
FeatureAttribs
 70
0
  1
PNOA-H_AMS_1956-57_33k_ES_PAN_2
  2
NAME
  10
423322.598
  20
4631660.870
 40
33.63102
  0
SEQEND
  0
POLYLINE
  8
Unknown_Area_Type
  70
1
  66
1
  0
VERTEX
  8
Unknown_Area_Type
  10
424577.551
  20
4631624.287
  0
VERTEX
  8
Unknown_Area_Type
  10
422063.026
  20
4631624.287
  0
VERTEX
  8
Unknown_Area_Type
  10
422067.754
  20
4631697.453
  0
VERTEX
  8
Unknown_Area_Type
  10
422155.818
  20
4631696.470
  0
VERTEX
  8
Unknown_Area_Type
  10
424580.407
  20
4631670.596
  0
VERTEX
  8
Unknown_Area_Type
  10
424577.551
  20
4631624.287
  0
SEQEND
  8
Unknown_Area_Type
  0
INSERT
  8
FeatureAttribs
  2
FEATURE
  41
1
  42
1
  43
1
  50
0
  10
423382.563
  20
4632949.457
 66
1
  0
ATTRIB
  8
FeatureAttribs
 70
0
  1
PNOA-H_AMS_1956-57_33k_ES_PAN_2
  2
NAME
  10
423382.563
  20
4632949.457
 40
33.63102
  0
SEQEND
  0
POLYLINE
  8
Unknown_Area_Type
  70
1
  66
1
  0
VERTEX
  8
Unknown_Area_Type
  10
424580.407
  20
4631670.596
  0
VERTEX
  8
Unknown_Area_Type
  10
422155.818
  20
4631696.470
  0
VERTEX
  8
Unknown_Area_Type
  10
422067.754
  20
4631697.453
  0
VERTEX
  8
Unknown_Area_Type
  10
422232.500
  20
4634246.500
  0
VERTEX
  8
Unknown_Area_Type
  10
424398.000
  20
4634265.500
  0
VERTEX
  8
Unknown_Area_Type
  10
424455.500
  20
4634266.000
  0
VERTEX
  8
Unknown_Area_Type
  10
424479.000
  20
4634266.000
  0
VERTEX
  8
Unknown_Area_Type
  10
424479.500
  20
4634264.000
  0
VERTEX
  8
Unknown_Area_Type
  10
424675.500
  20
4633212.500
  0
VERTEX
  8
Unknown_Area_Type
  10
424580.407
  20
4631670.596
  0
SEQEND
  8
Unknown_Area_Type
  0
INSERT
  8
FeatureAttribs
  2
FEATURE
  41
1
  42
1
  43
1
  50
0
  10
423382.563
  20
4632949.457
 66
1
  0
ATTRIB
  8
FeatureAttribs
 70
0
  1
PNOA-H_AMS_1956-57_33k_ES_PAN_2
  2
NAME
  10
423382.563
  20
4632949.457
 40
33.63102
  0
SEQEND
  0
POLYLINE
  8
Unknown_Area_Type
  70
1
  66
1
  0
VERTEX
  8
Unknown_Area_Type
  10
424580.407
  20
4631670.596
  0
VERTEX
  8
Unknown_Area_Type
  10
424675.500
  20
4633212.500
  0
VERTEX
  8
Unknown_Area_Type
  10
424479.500
  20
4634264.000
  0
VERTEX
  8
Unknown_Area_Type
  10
424479.000
  20
4634266.000
  0
VERTEX
  8
Unknown_Area_Type
  10
424455.500
  20
4634266.000
  0
VERTEX
  8
Unknown_Area_Type
  10
424398.000
  20
4634265.500
  0
VERTEX
  8
Unknown_Area_Type
  10
422232.500
  20
4634246.500
  0
VERTEX
  8
Unknown_Area_Type
  10
422067.754
  20
4631697.453
  0
VERTEX
  8
Unknown_Area_Type
  10
422155.818
  20
4631696.470
  0
VERTEX
  8
Unknown_Area_Type
  10
424580.407
  20
4631670.596
  0
SEQEND
  8
Unknown_Area_Type
  0
INSERT
  8
FeatureAttribs
  2
FEATURE
  41
1
  42
1
  43
1
  50
0
  10
415535.806
  20
4631706.105
 66
1
  0
ATTRIB
  8
FeatureAttribs
 70
0
  1
PNOA-H_AMS_1956-57_33k_ES_PAN_2
  2
NAME
  10
415535.806
  20
4631706.105
 40
33.63102
  0
SEQEND
  0
POLYLINE
  8
Unknown_Area_Type
  70
1
  66
1
  0
VERTEX
  8
Unknown_Area_Type
  10
416874.128
  20
4631624.287
  0
VERTEX
  8
Unknown_Area_Type
  10
414194.358
  20
4631624.287
  0
VERTEX
  8
Unknown_Area_Type
  10
414199.493
  20
4631787.922
  0
VERTEX
  8
Unknown_Area_Type
  10
415236.256
  20
4631775.349
  0
VERTEX
  8
Unknown_Area_Type
  10
416875.029
  20
4631756.270
  0
VERTEX
  8
Unknown_Area_Type
  10
416874.128
  20
4631624.287
  0
SEQEND
  8
Unknown_Area_Type
  0
INSERT
  8
FeatureAttribs
  2
FEATURE
  41
1
  42
1
  43
1
  50
0
  10
415575.046
  20
4633034.478
 66
1
  0
ATTRIB
  8
FeatureAttribs
 70
0
  1
PNOA-H_AMS_1956-57_33k_ES_PAN_2
  2
NAME
  10
415575.046
  20
4633034.478
 40
33.63102
  0
SEQEND
  0
POLYLINE
  8
Unknown_Area_Type
  70
1
  66
1
  0
VERTEX
  8
Unknown_Area_Type
  10
416875.029
  20
4631756.270
  0
VERTEX
  8
Unknown_Area_Type
  10
415236.256
  20
4631775.349
  0
VERTEX
  8
Unknown_Area_Type
  10
414199.493
  20
4631787.922
  0
VERTEX
  8
Unknown_Area_Type
  10
414276.000
  20
4634226.000
  0
VERTEX
  8
Unknown_Area_Type
  10
416610.500
  20
4634384.000
  0
VERTEX
  8
Unknown_Area_Type
  10
416618.000
  20
4634384.500
  0
VERTEX
  8
Unknown_Area_Type
  10
416620.500
  20
4634384.500
  0
VERTEX
  8
Unknown_Area_Type
  10
416628.500
  20
4634380.500
  0
VERTEX
  8
Unknown_Area_Type
  10
416892.000
  20
4634241.500
  0
VERTEX
  8
Unknown_Area_Type
  10
416875.029
  20
4631756.270
  0
SEQEND
  8
Unknown_Area_Type
  0
INSERT
  8
FeatureAttribs
  2
FEATURE
  41
1
  42
1
  43
1
  50
0
  10
415575.046
  20
4633034.478
 66
1
  0
ATTRIB
  8
FeatureAttribs
 70
0
  1
PNOA-H_AMS_1956-57_33k_ES_PAN_2
  2
NAME
  10
415575.046
  20
4633034.478
 40
33.63102
  0
SEQEND
  0
POLYLINE
  8
Unknown_Area_Type
  70
1
  66
1
  0
VERTEX
  8
Unknown_Area_Type
  10
416875.029
  20
4631756.270
  0
VERTEX
  8
Unknown_Area_Type
  10
416892.000
  20
4634241.500
  0
VERTEX
  8
Unknown_Area_Type
  10
416628.500
  20
4634380.500
  0
VERTEX
  8
Unknown_Area_Type
  10
416620.500
  20
4634384.500
  0
VERTEX
  8
Unknown_Area_Type
  10
416618.000
  20
4634384.500
  0
VERTEX
  8
Unknown_Area_Type
  10
416610.500
  20
4634384.000
  0
VERTEX
  8
Unknown_Area_Type
  10
414276.000
  20
4634226.000
  0
VERTEX
  8
Unknown_Area_Type
  10
414199.493
  20
4631787.922
  0
VERTEX
  8
Unknown_Area_Type
  10
415236.256
  20
4631775.349
  0
VERTEX
  8
Unknown_Area_Type
  10
416875.029
  20
4631756.270
  0
SEQEND
  8
Unknown_Area_Type
  0
INSERT
  8
FeatureAttribs
  2
FEATURE
  41
1
  42
1
  43
1
  50
0
  10
401405.363
  20
4633154.611
 66
1
  0
ATTRIB
  8
FeatureAttribs
 70
0
  1
PNOA-H_AMS_1956-57_33k_ES_PAN_2
  2
NAME
  10
401405.363
  20
4633154.611
 40
33.63102
  0
SEQEND
  0
POLYLINE
  8
Unknown_Area_Type
  70
1
  66
1
  0
VERTEX
  8
Unknown_Area_Type
  10
401430.297
  20
4634355.972
  0
VERTEX
  8
Unknown_Area_Type
  10
401429.057
  20
4634266.344
  0
VERTEX
  8
Unknown_Area_Type
  10
401397.071
  20
4631953.251
  0
VERTEX
  8
Unknown_Area_Type
  10
401397.043
  20
4631953.251
  0
VERTEX
  8
Unknown_Area_Type
  10
401397.043
  20
4634174.165
  0
VERTEX
  8
Unknown_Area_Type
  10
401409.000
  20
4634351.000
  0
VERTEX
  8
Unknown_Area_Type
  10
401430.297
  20
4634355.972
  0
SEQEND
  8
Unknown_Area_Type
  0
INSERT
  8
FeatureAttribs
  2
FEATURE
  41
1
  42
1
  43
1
  50
0
  10
401397.057
  20
4631952.747
 66
1
  0
ATTRIB
  8
FeatureAttribs
 70
0
  1
PNOA-H_AMS_1956-57_33k_ES_PAN_2
  2
NAME
  10
401397.057
  20
4631952.747
 40
33.63102
  0
SEQEND
  0
POLYLINE
  8
Unknown_Area_Type
  70
1
  66
1
  0
VERTEX
  8
Unknown_Area_Type
  10
401397.043
  20
4631953.251
  0
VERTEX
  8
Unknown_Area_Type
  10
401397.071
  20
4631953.251
  0
VERTEX
  8
Unknown_Area_Type
  10
401397.043
  20
4631951.235
  0
VERTEX
  8
Unknown_Area_Type
  10
401397.043
  20
4631953.251
  0
SEQEND
  8
Unknown_Area_Type
  0
INSERT
  8
FeatureAttribs
  2
FEATURE
  41
1
  42
1
  43
1
  50
0
  10
402566.943
  20
4631788.769
 66
1
  0
ATTRIB
  8
FeatureAttribs
 70
0
  1
PNOA-H_AMS_1956-57_33k_ES_PAN_2
  2
NAME
  10
402566.943
  20
4631788.769
 40
33.63102
  0
SEQEND
  0
POLYLINE
  8
Unknown_Area_Type
  70
1
  66
1
  0
VERTEX
  8
Unknown_Area_Type
  10
403730.732
  20
4631624.287
  0
VERTEX
  8
Unknown_Area_Type
  10
401397.043
  20
4631624.287
  0
VERTEX
  8
Unknown_Area_Type
  10
401397.043
  20
4631951.235
  0
VERTEX
  8
Unknown_Area_Type
  10
401397.071
  20
4631953.251
  0
VERTEX
  8
Unknown_Area_Type
  10
403741.769
  20
4631921.403
  0
VERTEX
  8
Unknown_Area_Type
  10
403730.732
  20
4631624.287
  0
SEQEND
  8
Unknown_Area_Type
  0
INSERT
  8
FeatureAttribs
  2
FEATURE
  41
1
  42
1
  43
1
  50
0
  10
402608.148
  20
4633236.307
 66
1
  0
ATTRIB
  8
FeatureAttribs
 70
0
  1
PNOA-H_AMS_1956-57_33k_ES_PAN_2
  2
NAME
  10
402608.148
  20
4633236.307
 40
33.63102
  0
SEQEND
  0
POLYLINE
  8
Unknown_Area_Type
  70
1
  66
1
  0
VERTEX
  8
Unknown_Area_Type
  10
403741.769
  20
4631921.403
  0
VERTEX
  8
Unknown_Area_Type
  10
401397.071
  20
4631953.251
  0
VERTEX
  8
Unknown_Area_Type
  10
401429.057
  20
4634266.344
  0
VERTEX
  8
Unknown_Area_Type
  10
401430.297
  20
4634355.972
  0
VERTEX
  8
Unknown_Area_Type
  10
402912.500
  20
4634702.000
  0
VERTEX
  8
Unknown_Area_Type
  10
402914.500
  20
4634702.000
  0
VERTEX
  8
Unknown_Area_Type
  10
403088.500
  20
4634627.000
  0
VERTEX
  8
Unknown_Area_Type
  10
403090.000
  20
4634626.500
  0
VERTEX
  8
Unknown_Area_Type
  10
403830.500
  20
4634310.000
  0
VERTEX
  8
Unknown_Area_Type
  10
403741.769
  20
4631921.403
  0
SEQEND
  8
Unknown_Area_Type
  0
INSERT
  8
FeatureAttribs
  2
FEATURE
  41
1
  42
1
  43
1
  50
0
  10
402608.148
  20
4633236.307
 66
1
  0
ATTRIB
  8
FeatureAttribs
 70
0
  1
PNOA-H_AMS_1956-57_33k_ES_PAN_2
  2
NAME
  10
402608.148
  20
4633236.307
 40
33.63102
  0
SEQEND
  0
POLYLINE
  8
Unknown_Area_Type
  70
1
  66
1
  0
VERTEX
  8
Unknown_Area_Type
  10
403741.769
  20
4631921.403
  0
VERTEX
  8
Unknown_Area_Type
  10
403830.500
  20
4634310.000
  0
VERTEX
  8
Unknown_Area_Type
  10
403090.000
  20
4634626.500
  0
VERTEX
  8
Unknown_Area_Type
  10
403088.500
  20
4634627.000
  0
VERTEX
  8
Unknown_Area_Type
  10
402914.500
  20
4634702.000
  0
VERTEX
  8
Unknown_Area_Type
  10
402912.500
  20
4634702.000
  0
VERTEX
  8
Unknown_Area_Type
  10
401430.297
  20
4634355.972
  0
VERTEX
  8
Unknown_Area_Type
  10
401429.057
  20
4634266.344
  0
VERTEX
  8
Unknown_Area_Type
  10
401397.071
  20
4631953.251
  0
VERTEX
  8
Unknown_Area_Type
  10
403741.769
  20
4631921.403
  0
SEQEND
  8
Unknown_Area_Type
  0
INSERT
  8
FeatureAttribs
  2
FEATURE
  41
1
  42
1
  43
1
  50
0
  10
405008.624
  20
4631772.845
 66
1
  0
ATTRIB
  8
FeatureAttribs
 70
0
  1
PNOA-H_AMS_1956-57_33k_ES_PAN_2
  2
NAME
  10
405008.624
  20
4631772.845
 40
33.63102
  0
SEQEND
  0
POLYLINE
  8
Unknown_Area_Type
  70
1
  66
1
  0
VERTEX
  8
Unknown_Area_Type
  10
406274.349
  20
4631624.287
  0
VERTEX
  8
Unknown_Area_Type
  10
403730.732
  20
4631624.287
  0
VERTEX
  8
Unknown_Area_Type
  10
403741.769
  20
4631921.403
  0
VERTEX
  8
Unknown_Area_Type
  10
404856.876
  20
4631906.257
  0
VERTEX
  8
Unknown_Area_Type
  10
406286.130
  20
4631887.537
  0
VERTEX
  8
Unknown_Area_Type
  10
406274.349
  20
4631624.287
  0
SEQEND
  8
Unknown_Area_Type
  0
INSERT
  8
FeatureAttribs
  2
FEATURE
  41
1
  42
1
  43
1
  50
0
  10
405073.743
  20
4633180.041
 66
1
  0
ATTRIB
  8
FeatureAttribs
 70
0
  1
PNOA-H_AMS_1956-57_33k_ES_PAN_2
  2
NAME
  10
405073.743
  20
4633180.041
 40
33.63102
  0
SEQEND
  0
POLYLINE
  8
Unknown_Area_Type
  70
1
  66
1
  0
VERTEX
  8
Unknown_Area_Type
  10
406286.130
  20
4631887.537
  0
VERTEX
  8
Unknown_Area_Type
  10
404856.876
  20
4631906.257
  0
VERTEX
  8
Unknown_Area_Type
  10
403741.769
  20
4631921.403
  0
VERTEX
  8
Unknown_Area_Type
  10
403830.500
  20
4634310.000
  0
VERTEX
  8
Unknown_Area_Type
  10
405603.000
  20
4634611.500
  0
VERTEX
  8
Unknown_Area_Type
  10
405606.000
  20
4634612.000
  0
VERTEX
  8
Unknown_Area_Type
  10
405609.500
  20
4634612.000
  0
VERTEX
  8
Unknown_Area_Type
  10
405620.000
  20
4634607.000
  0
VERTEX
  8
Unknown_Area_Type
  10
406391.000
  20
4634231.000
  0
VERTEX
  8
Unknown_Area_Type
  10
406286.130
  20
4631887.537
  0
SEQEND
  8
Unknown_Area_Type
  0
INSERT
  8
FeatureAttribs
  2
FEATURE
  41
1
  42
1
  43
1
  50
0
  10
405073.743
  20
4633180.041
 66
1
  0
ATTRIB
  8
FeatureAttribs
 70
0
  1
PNOA-H_AMS_1956-57_33k_ES_PAN_2
  2
NAME
  10
405073.743
  20
4633180.041
 40
33.63102
  0
SEQEND
  0
POLYLINE
  8
Unknown_Area_Type
  70
1
  66
1
  0
VERTEX
  8
Unknown_Area_Type
  10
406286.130
  20
4631887.537
  0
VERTEX
  8
Unknown_Area_Type
  10
406391.000
  20
4634231.000
  0
VERTEX
  8
Unknown_Area_Type
  10
405620.000
  20
4634607.000
  0
VERTEX
  8
Unknown_Area_Type
  10
405609.500
  20
4634612.000
  0
VERTEX
  8
Unknown_Area_Type
  10
405606.000
  20
4634612.000
  0
VERTEX
  8
Unknown_Area_Type
  10
405603.000
  20
4634611.500
  0
VERTEX
  8
Unknown_Area_Type
  10
403830.500
  20
4634310.000
  0
VERTEX
  8
Unknown_Area_Type
  10
403741.769
  20
4631921.403
  0
VERTEX
  8
Unknown_Area_Type
  10
404856.876
  20
4631906.257
  0
VERTEX
  8
Unknown_Area_Type
  10
406286.130
  20
4631887.537
  0
SEQEND
  8
Unknown_Area_Type
  0
INSERT
  8
FeatureAttribs
  2
FEATURE
  41
1
  42
1
  43
1
  50
0
  10
412855.826
  20
4631722.437
 66
1
  0
ATTRIB
  8
FeatureAttribs
 70
0
  1
PNOA-H_AMS_1956-57_33k_ES_PAN_2
  2
NAME
  10
412855.826
  20
4631722.437
 40
33.63102
  0
SEQEND
  0
POLYLINE
  8
Unknown_Area_Type
  70
1
  66
1
  0
VERTEX
  8
Unknown_Area_Type
  10
414194.346
  20
4631624.287
  0
VERTEX
  8
Unknown_Area_Type
  10
411512.059
  20
4631624.287
  0
VERTEX
  8
Unknown_Area_Type
  10
411516.390
  20
4631820.586
  0
VERTEX
  8
Unknown_Area_Type
  10
411776.468
  20
4631817.306
  0
VERTEX
  8
Unknown_Area_Type
  10
414199.482
  20
4631787.922
  0
VERTEX
  8
Unknown_Area_Type
  10
414194.346
  20
4631624.287
  0
SEQEND
  8
Unknown_Area_Type
  0
INSERT
  8
FeatureAttribs
  2
FEATURE
  41
1
  42
1
  43
1
  50
0
  10
412909.709
  20
4633064.059
 66
1
  0
ATTRIB
  8
FeatureAttribs
 70
0
  1
PNOA-H_AMS_1956-57_33k_ES_PAN_2
  2
NAME
  10
412909.709
  20
4633064.059
 40
33.63102
  0
SEQEND
  0
POLYLINE
  8
Unknown_Area_Type
  70
1
  66
1
  0
VERTEX
  8
Unknown_Area_Type
  10
414199.482
  20
4631787.922
  0
VERTEX
  8
Unknown_Area_Type
  10
411776.468
  20
4631817.306
  0
VERTEX
  8
Unknown_Area_Type
  10
411516.390
  20
4631820.586
  0
VERTEX
  8
Unknown_Area_Type
  10
411569.000
  20
4634205.000
  0
VERTEX
  8
Unknown_Area_Type
  10
413884.000
  20
4634428.500
  0
VERTEX
  8
Unknown_Area_Type
  10
413889.000
  20
4634429.000
  0
VERTEX
  8
Unknown_Area_Type
  10
413893.500
  20
4634429.000
  0
VERTEX
  8
Unknown_Area_Type
  10
413897.500
  20
4634427.000
  0
VERTEX
  8
Unknown_Area_Type
  10
414276.000
  20
4634226.000
  0
VERTEX
  8
Unknown_Area_Type
  10
414199.482
  20
4631787.922
  0
SEQEND
  8
Unknown_Area_Type
  0
INSERT
  8
FeatureAttribs
  2
FEATURE
  41
1
  42
1
  43
1
  50
0
  10
412909.709
  20
4633064.059
 66
1
  0
ATTRIB
  8
FeatureAttribs
 70
0
  1
PNOA-H_AMS_1956-57_33k_ES_PAN_2
  2
NAME
  10
412909.709
  20
4633064.059
 40
33.63102
  0
SEQEND
  0
POLYLINE
  8
Unknown_Area_Type
  70
1
  66
1
  0
VERTEX
  8
Unknown_Area_Type
  10
414199.482
  20
4631787.922
  0
VERTEX
  8
Unknown_Area_Type
  10
414276.000
  20
4634226.000
  0
VERTEX
  8
Unknown_Area_Type
  10
413897.500
  20
4634427.000
  0
VERTEX
  8
Unknown_Area_Type
  10
413893.500
  20
4634429.000
  0
VERTEX
  8
Unknown_Area_Type
  10
413889.000
  20
4634429.000
  0
VERTEX
  8
Unknown_Area_Type
  10
413884.000
  20
4634428.500
  0
VERTEX
  8
Unknown_Area_Type
  10
411569.000
  20
4634205.000
  0
VERTEX
  8
Unknown_Area_Type
  10
411516.390
  20
4631820.586
  0
VERTEX
  8
Unknown_Area_Type
  10
411776.468
  20
4631817.306
  0
VERTEX
  8
Unknown_Area_Type
  10
414199.482
  20
4631787.922
  0
SEQEND
  8
Unknown_Area_Type
  0
INSERT
  8
FeatureAttribs
  2
FEATURE
  41
1
  42
1
  43
1
  50
0
  10
418181.350
  20
4631690.279
 66
1
  0
ATTRIB
  8
FeatureAttribs
 70
0
  1
PNOA-H_AMS_1956-57_33k_ES_PAN_2
  2
NAME
  10
418181.350
  20
4631690.279
 40
33.63102
  0
SEQEND
  0
POLYLINE
  8
Unknown_Area_Type
  70
1
  66
1
  0
VERTEX
  8
Unknown_Area_Type
  10
419486.056
  20
4631624.287
  0
VERTEX
  8
Unknown_Area_Type
  10
416874.125
  20
4631624.287
  0
VERTEX
  8
Unknown_Area_Type
  10
416875.027
  20
4631756.270
  0
VERTEX
  8
Unknown_Area_Type
  10
418696.040
  20
4631735.070
  0
VERTEX
  8
Unknown_Area_Type
  10
419489.251
  20
4631726.221
  0
VERTEX
  8
Unknown_Area_Type
  10
419486.056
  20
4631624.287
  0
SEQEND
  8
Unknown_Area_Type
  0
INSERT
  8
FeatureAttribs
  2
FEATURE
  41
1
  42
1
  43
1
  50
0
  10
418219.938
  20
4633030.659
 66
1
  0
ATTRIB
  8
FeatureAttribs
 70
0
  1
PNOA-H_AMS_1956-57_33k_ES_PAN_2
  2
NAME
  10
418219.938
  20
4633030.659
 40
33.63102
  0
SEQEND
  0
POLYLINE
  8
Unknown_Area_Type
  70
1
  66
1
  0
VERTEX
  8
Unknown_Area_Type
  10
419489.251
  20
4631726.221
  0
VERTEX
  8
Unknown_Area_Type
  10
418696.040
  20
4631735.070
  0
VERTEX
  8
Unknown_Area_Type
  10
416875.027
  20
4631756.270
  0
VERTEX
  8
Unknown_Area_Type
  10
416892.000
  20
4634241.500
  0
VERTEX
  8
Unknown_Area_Type
  10
417414.000
  20
4634270.000
  0
VERTEX
  8
Unknown_Area_Type
  10
417423.500
  20
4634270.500
  0
VERTEX
  8
Unknown_Area_Type
  10
419368.500
  20
4634375.000
  0
VERTEX
  8
Unknown_Area_Type
  10
419569.000
  20
4634270.000
  0
VERTEX
  8
Unknown_Area_Type
  10
419489.251
  20
4631726.221
  0
SEQEND
  8
Unknown_Area_Type
  0
INSERT
  8
FeatureAttribs
  2
FEATURE
  41
1
  42
1
  43
1
  50
0
  10
418219.938
  20
4633030.659
 66
1
  0
ATTRIB
  8
FeatureAttribs
 70
0
  1
PNOA-H_AMS_1956-57_33k_ES_PAN_2
  2
NAME
  10
418219.938
  20
4633030.659
 40
33.63102
  0
SEQEND
  0
POLYLINE
  8
Unknown_Area_Type
  70
1
  66
1
  0
VERTEX
  8
Unknown_Area_Type
  10
419489.251
  20
4631726.221
  0
VERTEX
  8
Unknown_Area_Type
  10
419569.000
  20
4634270.000
  0
VERTEX
  8
Unknown_Area_Type
  10
419368.500
  20
4634375.000
  0
VERTEX
  8
Unknown_Area_Type
  10
417423.500
  20
4634270.500
  0
VERTEX
  8
Unknown_Area_Type
  10
417414.000
  20
4634270.000
  0
VERTEX
  8
Unknown_Area_Type
  10
416892.000
  20
4634241.500
  0
VERTEX
  8
Unknown_Area_Type
  10
416875.027
  20
4631756.270
  0
VERTEX
  8
Unknown_Area_Type
  10
418696.040
  20
4631735.070
  0
VERTEX
  8
Unknown_Area_Type
  10
419489.251
  20
4631726.221
  0
SEQEND
  8
Unknown_Area_Type
  0
INSERT
  8
FeatureAttribs
  2
FEATURE
  41
1
  42
1
  43
1
  50
0
  10
429190.887
  20
4636320.342
 66
1
  0
ATTRIB
  8
FeatureAttribs
 70
0
  1
PNOA-H_AMS_1956-57_33k_ES_PAN_2
  2
NAME
  10
429190.887
  20
4636320.342
 40
33.63102
  0
SEQEND
  0
POLYLINE
  8
Unknown_Area_Type
  70
1
  66
1
  0
VERTEX
  8
Unknown_Area_Type
  10
429259.697
  20
4634618.504
  0
VERTEX
  8
Unknown_Area_Type
  10
429104.897
  20
4634593.703
  0
VERTEX
  8
Unknown_Area_Type
  10
429121.382
  20
4636250.448
  0
VERTEX
  8
Unknown_Area_Type
  10
429138.460
  20
4637966.166
  0
VERTEX
  8
Unknown_Area_Type
  10
429259.697
  20
4638046.981
  0
VERTEX
  8
Unknown_Area_Type
  10
429259.697
  20
4634618.504
  0
SEQEND
  8
Unknown_Area_Type
  0
INSERT
  8
FeatureAttribs
  2
FEATURE
  41
1
  42
1
  43
1
  50
0
  10
428332.856
  20
4635984.841
 66
1
  0
ATTRIB
  8
FeatureAttribs
 70
0
  1
PNOA-H_AMS_1956-57_33k_ES_PAN_2
  2
NAME
  10
428332.856
  20
4635984.841
 40
33.63102
  0
SEQEND
  0
POLYLINE
  8
Unknown_Area_Type
  70
1
  66
1
  0
VERTEX
  8
Unknown_Area_Type
  10
429104.897
  20
4634593.703
  0
VERTEX
  8
Unknown_Area_Type
  10
427977.000
  20
4634413.000
  0
VERTEX
  8
Unknown_Area_Type
  10
427460.000
  20
4634683.000
  0
VERTEX
  8
Unknown_Area_Type
  10
427406.000
  20
4636794.000
  0
VERTEX
  8
Unknown_Area_Type
  10
427406.000
  20
4636811.000
  0
VERTEX
  8
Unknown_Area_Type
  10
427407.000
  20
4636812.000
  0
VERTEX
  8
Unknown_Area_Type
  10
429138.460
  20
4637966.166
  0
VERTEX
  8
Unknown_Area_Type
  10
429121.382
  20
4636250.448
  0
VERTEX
  8
Unknown_Area_Type
  10
429104.897
  20
4634593.703
  0
SEQEND
  8
Unknown_Area_Type
  0
INSERT
  8
FeatureAttribs
  2
FEATURE
  41
1
  42
1
  43
1
  50
0
  10
428332.856
  20
4635984.841
 66
1
  0
ATTRIB
  8
FeatureAttribs
 70
0
  1
PNOA-H_AMS_1956-57_33k_ES_PAN_2
  2
NAME
  10
428332.856
  20
4635984.841
 40
33.63102
  0
SEQEND
  0
POLYLINE
  8
Unknown_Area_Type
  70
1
  66
1
  0
VERTEX
  8
Unknown_Area_Type
  10
429104.897
  20
4634593.703
  0
VERTEX
  8
Unknown_Area_Type
  10
429121.382
  20
4636250.448
  0
VERTEX
  8
Unknown_Area_Type
  10
429138.460
  20
4637966.166
  0
VERTEX
  8
Unknown_Area_Type
  10
427407.000
  20
4636812.000
  0
VERTEX
  8
Unknown_Area_Type
  10
427406.000
  20
4636811.000
  0
VERTEX
  8
Unknown_Area_Type
  10
427406.000
  20
4636794.000
  0
VERTEX
  8
Unknown_Area_Type
  10
427460.000
  20
4634683.000
  0
VERTEX
  8
Unknown_Area_Type
  10
427977.000
  20
4634413.000
  0
VERTEX
  8
Unknown_Area_Type
  10
429104.897
  20
4634593.703
  0
SEQEND
  8
Unknown_Area_Type
  0
INSERT
  8
FeatureAttribs
  2
FEATURE
  41
1
  42
1
  43
1
  50
0
  10
407582.975
  20
4631755.912
 66
1
  0
ATTRIB
  8
FeatureAttribs
 70
0
  1
PNOA-H_AMS_1956-57_33k_ES_PAN_2
  2
NAME
  10
407582.975
  20
4631755.912
 40
33.63102
  0
SEQEND
  0
POLYLINE
  8
Unknown_Area_Type
  70
1
  66
1
  0
VERTEX
  8
Unknown_Area_Type
  10
408882.272
  20
4631624.287
  0
VERTEX
  8
Unknown_Area_Type
  10
406274.349
  20
4631624.287
  0
VERTEX
  8
Unknown_Area_Type
  10
406286.130
  20
4631887.537
  0
VERTEX
  8
Unknown_Area_Type
  10
408316.675
  20
4631860.942
  0
VERTEX
  8
Unknown_Area_Type
  10
408888.268
  20
4631853.733
  0
VERTEX
  8
Unknown_Area_Type
  10
408882.272
  20
4631624.287
  0
SEQEND
  8
Unknown_Area_Type
  0
INSERT
  8
FeatureAttribs
  2
FEATURE
  41
1
  42
1
  43
1
  50
0
  10
407646.128
  20
4633117.726
 66
1
  0
ATTRIB
  8
FeatureAttribs
 70
0
  1
PNOA-H_AMS_1956-57_33k_ES_PAN_2
  2
NAME
  10
407646.128
  20
4633117.726
 40
33.63102
  0
SEQEND
  0
POLYLINE
  8
Unknown_Area_Type
  70
1
  66
1
  0
VERTEX
  8
Unknown_Area_Type
  10
408888.268
  20
4631853.733
  0
VERTEX
  8
Unknown_Area_Type
  10
408316.675
  20
4631860.942
  0
VERTEX
  8
Unknown_Area_Type
  10
406286.130
  20
4631887.537
  0
VERTEX
  8
Unknown_Area_Type
  10
406391.000
  20
4634231.000
  0
VERTEX
  8
Unknown_Area_Type
  10
408355.500
  20
4634511.000
  0
VERTEX
  8
Unknown_Area_Type
  10
408359.000
  20
4634511.500
  0
VERTEX
  8
Unknown_Area_Type
  10
408363.000
  20
4634511.500
  0
VERTEX
  8
Unknown_Area_Type
  10
408950.000
  20
4634216.000
  0
VERTEX
  8
Unknown_Area_Type
  10
408888.268
  20
4631853.733
  0
SEQEND
  8
Unknown_Area_Type
  0
INSERT
  8
FeatureAttribs
  2
FEATURE
  41
1
  42
1
  43
1
  50
0
  10
407646.128
  20
4633117.726
 66
1
  0
ATTRIB
  8
FeatureAttribs
 70
0
  1
PNOA-H_AMS_1956-57_33k_ES_PAN_2
  2
NAME
  10
407646.128
  20
4633117.726
 40
33.63102
  0
SEQEND
  0
POLYLINE
  8
Unknown_Area_Type
  70
1
  66
1
  0
VERTEX
  8
Unknown_Area_Type
  10
408888.268
  20
4631853.733
  0
VERTEX
  8
Unknown_Area_Type
  10
408950.000
  20
4634216.000
  0
VERTEX
  8
Unknown_Area_Type
  10
408363.000
  20
4634511.500
  0
VERTEX
  8
Unknown_Area_Type
  10
408359.000
  20
4634511.500
  0
VERTEX
  8
Unknown_Area_Type
  10
408355.500
  20
4634511.000
  0
VERTEX
  8
Unknown_Area_Type
  10
406391.000
  20
4634231.000
  0
VERTEX
  8
Unknown_Area_Type
  10
406286.130
  20
4631887.537
  0
VERTEX
  8
Unknown_Area_Type
  10
408316.675
  20
4631860.942
  0
VERTEX
  8
Unknown_Area_Type
  10
408888.268
  20
4631853.733
  0
SEQEND
  8
Unknown_Area_Type
  0
INSERT
  8
FeatureAttribs
  2
FEATURE
  41
1
  42
1
  43
1
  50
0
  10
410199.930
  20
4631739.010
 66
1
  0
ATTRIB
  8
FeatureAttribs
 70
0
  1
PNOA-H_AMS_1956-57_33k_ES_PAN_2
  2
NAME
  10
410199.930
  20
4631739.010
 40
33.63102
  0
SEQEND
  0
POLYLINE
  8
Unknown_Area_Type
  70
1
  66
1
  0
VERTEX
  8
Unknown_Area_Type
  10
411512.059
  20
4631624.287
  0
VERTEX
  8
Unknown_Area_Type
  10
408882.272
  20
4631624.287
  0
VERTEX
  8
Unknown_Area_Type
  10
408888.268
  20
4631853.733
  0
VERTEX
  8
Unknown_Area_Type
  10
411516.390
  20
4631820.586
  0
VERTEX
  8
Unknown_Area_Type
  10
411512.059
  20
4631624.287
  0
SEQEND
  8
Unknown_Area_Type
  0
INSERT
  8
FeatureAttribs
  2
FEATURE
  41
1
  42
1
  43
1
  50
0
  10
410247.371
  20
4633080.622
 66
1
  0
ATTRIB
  8
FeatureAttribs
 70
0
  1
PNOA-H_AMS_1956-57_33k_ES_PAN_2
  2
NAME
  10
410247.371
  20
4633080.622
 40
33.63102
  0
SEQEND
  0
POLYLINE
  8
Unknown_Area_Type
  70
1
  66
1
  0
VERTEX
  8
Unknown_Area_Type
  10
411516.390
  20
4631820.586
  0
VERTEX
  8
Unknown_Area_Type
  10
408888.268
  20
4631853.733
  0
VERTEX
  8
Unknown_Area_Type
  10
408950.000
  20
4634216.000
  0
VERTEX
  8
Unknown_Area_Type
  10
409224.500
  20
4634243.500
  0
VERTEX
  8
Unknown_Area_Type
  10
409229.500
  20
4634244.000
  0
VERTEX
  8
Unknown_Area_Type
  10
411130.500
  20
4634434.000
  0
VERTEX
  8
Unknown_Area_Type
  10
411569.000
  20
4634205.000
  0
VERTEX
  8
Unknown_Area_Type
  10
411516.390
  20
4631820.586
  0
SEQEND
  8
Unknown_Area_Type
  0
INSERT
  8
FeatureAttribs
  2
FEATURE
  41
1
  42
1
  43
1
  50
0
  10
410247.371
  20
4633080.622
 66
1
  0
ATTRIB
  8
FeatureAttribs
 70
0
  1
PNOA-H_AMS_1956-57_33k_ES_PAN_2
  2
NAME
  10
410247.371
  20
4633080.622
 40
33.63102
  0
SEQEND
  0
POLYLINE
  8
Unknown_Area_Type
  70
1
  66
1
  0
VERTEX
  8
Unknown_Area_Type
  10
411516.390
  20
4631820.586
  0
VERTEX
  8
Unknown_Area_Type
  10
411569.000
  20
4634205.000
  0
VERTEX
  8
Unknown_Area_Type
  10
411130.500
  20
4634434.000
  0
VERTEX
  8
Unknown_Area_Type
  10
409229.500
  20
4634244.000
  0
VERTEX
  8
Unknown_Area_Type
  10
409224.500
  20
4634243.500
  0
VERTEX
  8
Unknown_Area_Type
  10
408950.000
  20
4634216.000
  0
VERTEX
  8
Unknown_Area_Type
  10
408888.268
  20
4631853.733
  0
VERTEX
  8
Unknown_Area_Type
  10
411516.390
  20
4631820.586
  0
SEQEND
  8
Unknown_Area_Type
  0
INSERT
  8
FeatureAttribs
  2
FEATURE
  41
1
  42
1
  43
1
  50
0
  10
425940.616
  20
4636435.469
 66
1
  0
ATTRIB
  8
FeatureAttribs
 70
0
  1
PNOA-H_AMS_1956-57_33k_ES_PAN_2
  2
NAME
  10
425940.616
  20
4636435.469
 40
33.63102
  0
SEQEND
  0
POLYLINE
  8
Unknown_Area_Type
  70
1
  66
1
  0
VERTEX
  8
Unknown_Area_Type
  10
425618.000
  20
4638739.500
  0
VERTEX
  8
Unknown_Area_Type
  10
426295.000
  20
4638568.000
  0
VERTEX
  8
Unknown_Area_Type
  10
426298.500
  20
4638566.000
  0
VERTEX
  8
Unknown_Area_Type
  10
427406.000
  20
4636811.000
  0
VERTEX
  8
Unknown_Area_Type
  10
427459.500
  20
4634683.500
  0
VERTEX
  8
Unknown_Area_Type
  10
424719.500
  20
4634431.000
  0
VERTEX
  8
Unknown_Area_Type
  10
424714.500
  20
4634431.000
  0
VERTEX
  8
Unknown_Area_Type
  10
424714.000
  20
4634445.500
  0
VERTEX
  8
Unknown_Area_Type
  10
424635.000
  20
4638237.000
  0
VERTEX
  8
Unknown_Area_Type
  10
425483.000
  20
4638773.500
  0
VERTEX
  8
Unknown_Area_Type
  10
425616.500
  20
4638739.500
  0
VERTEX
  8
Unknown_Area_Type
  10
425618.000
  20
4638739.500
  0
SEQEND
  8
Unknown_Area_Type
  0
INSERT
  8
FeatureAttribs
  2
FEATURE
  41
1
  42
1
  43
1
  50
0
  10
425940.616
  20
4636435.469
 66
1
  0
ATTRIB
  8
FeatureAttribs
 70
0
  1
PNOA-H_AMS_1956-57_33k_ES_PAN_2
  2
NAME
  10
425940.616
  20
4636435.469
 40
33.63102
  0
SEQEND
  0
POLYLINE
  8
Unknown_Area_Type
  70
1
  66
1
  0
VERTEX
  8
Unknown_Area_Type
  10
425618.000
  20
4638739.500
  0
VERTEX
  8
Unknown_Area_Type
  10
425616.500
  20
4638739.500
  0
VERTEX
  8
Unknown_Area_Type
  10
425483.000
  20
4638773.500
  0
VERTEX
  8
Unknown_Area_Type
  10
424635.000
  20
4638237.000
  0
VERTEX
  8
Unknown_Area_Type
  10
424714.000
  20
4634445.500
  0
VERTEX
  8
Unknown_Area_Type
  10
424714.500
  20
4634431.000
  0
VERTEX
  8
Unknown_Area_Type
  10
424719.500
  20
4634431.000
  0
VERTEX
  8
Unknown_Area_Type
  10
427459.500
  20
4634683.500
  0
VERTEX
  8
Unknown_Area_Type
  10
427406.000
  20
4636811.000
  0
VERTEX
  8
Unknown_Area_Type
  10
426298.500
  20
4638566.000
  0
VERTEX
  8
Unknown_Area_Type
  10
426295.000
  20
4638568.000
  0
VERTEX
  8
Unknown_Area_Type
  10
425618.000
  20
4638739.500
  0
SEQEND
  8
Unknown_Area_Type
  0
INSERT
  8
FeatureAttribs
  2
FEATURE
  41
1
  42
1
  43
1
  50
0
  10
417944.888
  20
4636224.342
 66
1
  0
ATTRIB
  8
FeatureAttribs
 70
0
  1
PNOA-H_AMS_1956-57_33k_ES_PAN_2
  2
NAME
  10
417944.888
  20
4636224.342
 40
33.63102
  0
SEQEND
  0
POLYLINE
  8
Unknown_Area_Type
  70
1
  66
1
  0
VERTEX
  8
Unknown_Area_Type
  10
417426.000
  20
4638255.000
  0
VERTEX
  8
Unknown_Area_Type
  10
419267.500
  20
4638019.500
  0
VERTEX
  8
Unknown_Area_Type
  10
419368.000
  20
4634375.000
  0
VERTEX
  8
Unknown_Area_Type
  10
416891.500
  20
4634241.500
  0
VERTEX
  8
Unknown_Area_Type
  10
416620.500
  20
4634384.000
  0
VERTEX
  8
Unknown_Area_Type
  10
416585.500
  20
4637938.500
  0
VERTEX
  8
Unknown_Area_Type
  10
417047.500
  20
4638303.500
  0
VERTEX
  8
Unknown_Area_Type
  10
417421.500
  20
4638255.500
  0
VERTEX
  8
Unknown_Area_Type
  10
417426.000
  20
4638255.000
  0
SEQEND
  8
Unknown_Area_Type
  0
INSERT
  8
FeatureAttribs
  2
FEATURE
  41
1
  42
1
  43
1
  50
0
  10
417944.888
  20
4636224.342
 66
1
  0
ATTRIB
  8
FeatureAttribs
 70
0
  1
PNOA-H_AMS_1956-57_33k_ES_PAN_2
  2
NAME
  10
417944.888
  20
4636224.342
 40
33.63102
  0
SEQEND
  0
POLYLINE
  8
Unknown_Area_Type
  70
1
  66
1
  0
VERTEX
  8
Unknown_Area_Type
  10
417426.000
  20
4638255.000
  0
VERTEX
  8
Unknown_Area_Type
  10
417421.500
  20
4638255.500
  0
VERTEX
  8
Unknown_Area_Type
  10
417047.500
  20
4638303.500
  0
VERTEX
  8
Unknown_Area_Type
  10
416585.500
  20
4637938.500
  0
VERTEX
  8
Unknown_Area_Type
  10
416620.500
  20
4634384.000
  0
VERTEX
  8
Unknown_Area_Type
  10
416891.500
  20
4634241.500
  0
VERTEX
  8
Unknown_Area_Type
  10
419368.000
  20
4634375.000
  0
VERTEX
  8
Unknown_Area_Type
  10
419267.500
  20
4638019.500
  0
VERTEX
  8
Unknown_Area_Type
  10
417426.000
  20
4638255.000
  0
SEQEND
  8
Unknown_Area_Type
  0
INSERT
  8
FeatureAttribs
  2
FEATURE
  41
1
  42
1
  43
1
  50
0
  10
415205.995
  20
4636205.293
 66
1
  0
ATTRIB
  8
FeatureAttribs
 70
0
  1
PNOA-H_AMS_1956-57_33k_ES_PAN_2
  2
NAME
  10
415205.995
  20
4636205.293
 40
33.63102
  0
SEQEND
  0
POLYLINE
  8
Unknown_Area_Type
  70
1
  66
1
  0
VERTEX
  8
Unknown_Area_Type
  10
415378.000
  20
4638085.500
  0
VERTEX
  8
Unknown_Area_Type
  10
416585.500
  20
4637938.000
  0
VERTEX
  8
Unknown_Area_Type
  10
416620.500
  20
4634384.500
  0
VERTEX
  8
Unknown_Area_Type
  10
414282.000
  20
4634226.000
  0
VERTEX
  8
Unknown_Area_Type
  10
414275.500
  20
4634226.000
  0
VERTEX
  8
Unknown_Area_Type
  10
414269.500
  20
4634229.000
  0
VERTEX
  8
Unknown_Area_Type
  10
413893.000
  20
4634429.000
  0
VERTEX
  8
Unknown_Area_Type
  10
413807.500
  20
4637967.500
  0
VERTEX
  8
Unknown_Area_Type
  10
414144.500
  20
4638236.000
  0
VERTEX
  8
Unknown_Area_Type
  10
415376.500
  20
4638085.500
  0
VERTEX
  8
Unknown_Area_Type
  10
415378.000
  20
4638085.500
  0
SEQEND
  8
Unknown_Area_Type
  0
INSERT
  8
FeatureAttribs
  2
FEATURE
  41
1
  42
1
  43
1
  50
0
  10
415205.995
  20
4636205.293
 66
1
  0
ATTRIB
  8
FeatureAttribs
 70
0
  1
PNOA-H_AMS_1956-57_33k_ES_PAN_2
  2
NAME
  10
415205.995
  20
4636205.293
 40
33.63102
  0
SEQEND
  0
POLYLINE
  8
Unknown_Area_Type
  70
1
  66
1
  0
VERTEX
  8
Unknown_Area_Type
  10
415378.000
  20
4638085.500
  0
VERTEX
  8
Unknown_Area_Type
  10
415376.500
  20
4638085.500
  0
VERTEX
  8
Unknown_Area_Type
  10
414144.500
  20
4638236.000
  0
VERTEX
  8
Unknown_Area_Type
  10
413807.500
  20
4637967.500
  0
VERTEX
  8
Unknown_Area_Type
  10
413893.000
  20
4634429.000
  0
VERTEX
  8
Unknown_Area_Type
  10
414269.500
  20
4634229.000
  0
VERTEX
  8
Unknown_Area_Type
  10
414275.500
  20
4634226.000
  0
VERTEX
  8
Unknown_Area_Type
  10
414282.000
  20
4634226.000
  0
VERTEX
  8
Unknown_Area_Type
  10
416620.500
  20
4634384.500
  0
VERTEX
  8
Unknown_Area_Type
  10
416585.500
  20
4637938.000
  0
VERTEX
  8
Unknown_Area_Type
  10
415378.000
  20
4638085.500
  0
SEQEND
  8
Unknown_Area_Type
  0
INSERT
  8
FeatureAttribs
  2
FEATURE
  41
1
  42
1
  43
1
  50
0
  10
423326.678
  20
4636344.597
 66
1
  0
ATTRIB
  8
FeatureAttribs
 70
0
  1
PNOA-H_AMS_1956-57_33k_ES_PAN_2
  2
NAME
  10
423326.678
  20
4636344.597
 40
33.63102
  0
SEQEND
  0
POLYLINE
  8
Unknown_Area_Type
  70
1
  66
1
  0
VERTEX
  8
Unknown_Area_Type
  10
423570.000
  20
4638432.000
  0
VERTEX
  8
Unknown_Area_Type
  10
424635.000
  20
4638237.000
  0
VERTEX
  8
Unknown_Area_Type
  10
424714.500
  20
4634430.500
  0
VERTEX
  8
Unknown_Area_Type
  10
424479.500
  20
4634266.000
  0
VERTEX
  8
Unknown_Area_Type
  10
422260.500
  20
4634246.500
  0
VERTEX
  8
Unknown_Area_Type
  10
422232.500
  20
4634246.500
  0
VERTEX
  8
Unknown_Area_Type
  10
422054.000
  20
4634340.000
  0
VERTEX
  8
Unknown_Area_Type
  10
422053.500
  20
4634345.000
  0
VERTEX
  8
Unknown_Area_Type
  10
421948.500
  20
4638152.500
  0
VERTEX
  8
Unknown_Area_Type
  10
422604.500
  20
4638608.500
  0
VERTEX
  8
Unknown_Area_Type
  10
423568.500
  20
4638432.000
  0
VERTEX
  8
Unknown_Area_Type
  10
423570.000
  20
4638432.000
  0
SEQEND
  8
Unknown_Area_Type
  0
INSERT
  8
FeatureAttribs
  2
FEATURE
  41
1
  42
1
  43
1
  50
0
  10
423326.678
  20
4636344.597
 66
1
  0
ATTRIB
  8
FeatureAttribs
 70
0
  1
PNOA-H_AMS_1956-57_33k_ES_PAN_2
  2
NAME
  10
423326.678
  20
4636344.597
 40
33.63102
  0
SEQEND
  0
POLYLINE
  8
Unknown_Area_Type
  70
1
  66
1
  0
VERTEX
  8
Unknown_Area_Type
  10
423570.000
  20
4638432.000
  0
VERTEX
  8
Unknown_Area_Type
  10
423568.500
  20
4638432.000
  0
VERTEX
  8
Unknown_Area_Type
  10
422604.500
  20
4638608.500
  0
VERTEX
  8
Unknown_Area_Type
  10
421948.500
  20
4638152.500
  0
VERTEX
  8
Unknown_Area_Type
  10
422053.500
  20
4634345.000
  0
VERTEX
  8
Unknown_Area_Type
  10
422054.000
  20
4634340.000
  0
VERTEX
  8
Unknown_Area_Type
  10
422232.500
  20
4634246.500
  0
VERTEX
  8
Unknown_Area_Type
  10
422260.500
  20
4634246.500
  0
VERTEX
  8
Unknown_Area_Type
  10
424479.500
  20
4634266.000
  0
VERTEX
  8
Unknown_Area_Type
  10
424714.500
  20
4634430.500
  0
VERTEX
  8
Unknown_Area_Type
  10
424635.000
  20
4638237.000
  0
VERTEX
  8
Unknown_Area_Type
  10
423570.000
  20
4638432.000
  0
SEQEND
  8
Unknown_Area_Type
  0
INSERT
  8
FeatureAttribs
  2
FEATURE
  41
1
  42
1
  43
1
  50
0
  10
409729.287
  20
4636224.795
 66
1
  0
ATTRIB
  8
FeatureAttribs
 70
0
  1
PNOA-H_AMS_1956-57_33k_ES_PAN_2
  2
NAME
  10
409729.287
  20
4636224.795
 40
33.63102
  0
SEQEND
  0
POLYLINE
  8
Unknown_Area_Type
  70
1
  66
1
  0
VERTEX
  8
Unknown_Area_Type
  10
409234.000
  20
4638151.500
  0
VERTEX
  8
Unknown_Area_Type
  10
411068.500
  20
4638108.500
  0
VERTEX
  8
Unknown_Area_Type
  10
411129.500
  20
4634434.000
  0
VERTEX
  8
Unknown_Area_Type
  10
408955.000
  20
4634216.000
  0
VERTEX
  8
Unknown_Area_Type
  10
408949.000
  20
4634216.000
  0
VERTEX
  8
Unknown_Area_Type
  10
408362.000
  20
4634511.500
  0
VERTEX
  8
Unknown_Area_Type
  10
408392.500
  20
4638171.500
  0
VERTEX
  8
Unknown_Area_Type
  10
409225.500
  20
4638151.500
  0
VERTEX
  8
Unknown_Area_Type
  10
409234.000
  20
4638151.500
  0
SEQEND
  8
Unknown_Area_Type
  0
INSERT
  8
FeatureAttribs
  2
FEATURE
  41
1
  42
1
  43
1
  50
0
  10
409729.287
  20
4636224.795
 66
1
  0
ATTRIB
  8
FeatureAttribs
 70
0
  1
PNOA-H_AMS_1956-57_33k_ES_PAN_2
  2
NAME
  10
409729.287
  20
4636224.795
 40
33.63102
  0
SEQEND
  0
POLYLINE
  8
Unknown_Area_Type
  70
1
  66
1
  0
VERTEX
  8
Unknown_Area_Type
  10
409234.000
  20
4638151.500
  0
VERTEX
  8
Unknown_Area_Type
  10
409225.500
  20
4638151.500
  0
VERTEX
  8
Unknown_Area_Type
  10
408392.500
  20
4638171.500
  0
VERTEX
  8
Unknown_Area_Type
  10
408362.000
  20
4634511.500
  0
VERTEX
  8
Unknown_Area_Type
  10
408949.000
  20
4634216.000
  0
VERTEX
  8
Unknown_Area_Type
  10
408955.000
  20
4634216.000
  0
VERTEX
  8
Unknown_Area_Type
  10
411129.500
  20
4634434.000
  0
VERTEX
  8
Unknown_Area_Type
  10
411068.500
  20
4638108.500
  0
VERTEX
  8
Unknown_Area_Type
  10
409234.000
  20
4638151.500
  0
SEQEND
  8
Unknown_Area_Type
  0
INSERT
  8
FeatureAttribs
  2
FEATURE
  41
1
  42
1
  43
1
  50
0
  10
420649.027
  20
4636298.742
 66
1
  0
ATTRIB
  8
FeatureAttribs
 70
0
  1
PNOA-H_AMS_1956-57_33k_ES_PAN_2
  2
NAME
  10
420649.027
  20
4636298.742
 40
33.63102
  0
SEQEND
  0
POLYLINE
  8
Unknown_Area_Type
  70
1
  66
1
  0
VERTEX
  8
Unknown_Area_Type
  10
419473.500
  20
4638176.000
  0
VERTEX
  8
Unknown_Area_Type
  10
419833.000
  20
4638448.000
  0
VERTEX
  8
Unknown_Area_Type
  10
419840.500
  20
4638453.500
  0
VERTEX
  8
Unknown_Area_Type
  10
419842.000
  20
4638453.500
  0
VERTEX
  8
Unknown_Area_Type
  10
421948.500
  20
4638152.500
  0
VERTEX
  8
Unknown_Area_Type
  10
422054.000
  20
4634340.500
  0
VERTEX
  8
Unknown_Area_Type
  10
419568.500
  20
4634270.000
  0
VERTEX
  8
Unknown_Area_Type
  10
419368.000
  20
4634375.000
  0
VERTEX
  8
Unknown_Area_Type
  10
419267.500
  20
4638020.000
  0
VERTEX
  8
Unknown_Area_Type
  10
419473.000
  20
4638175.000
  0
VERTEX
  8
Unknown_Area_Type
  10
419473.500
  20
4638176.000
  0
SEQEND
  8
Unknown_Area_Type
  0
INSERT
  8
FeatureAttribs
  2
FEATURE
  41
1
  42
1
  43
1
  50
0
  10
420649.027
  20
4636298.742
 66
1
  0
ATTRIB
  8
FeatureAttribs
 70
0
  1
PNOA-H_AMS_1956-57_33k_ES_PAN_2
  2
NAME
  10
420649.027
  20
4636298.742
 40
33.63102
  0
SEQEND
  0
POLYLINE
  8
Unknown_Area_Type
  70
1
  66
1
  0
VERTEX
  8
Unknown_Area_Type
  10
419473.500
  20
4638176.000
  0
VERTEX
  8
Unknown_Area_Type
  10
419473.000
  20
4638175.000
  0
VERTEX
  8
Unknown_Area_Type
  10
419267.500
  20
4638020.000
  0
VERTEX
  8
Unknown_Area_Type
  10
419368.000
  20
4634375.000
  0
VERTEX
  8
Unknown_Area_Type
  10
419568.500
  20
4634270.000
  0
VERTEX
  8
Unknown_Area_Type
  10
422054.000
  20
4634340.500
  0
VERTEX
  8
Unknown_Area_Type
  10
421948.500
  20
4638152.500
  0
VERTEX
  8
Unknown_Area_Type
  10
419842.000
  20
4638453.500
  0
VERTEX
  8
Unknown_Area_Type
  10
419840.500
  20
4638453.500
  0
VERTEX
  8
Unknown_Area_Type
  10
419833.000
  20
4638448.000
  0
VERTEX
  8
Unknown_Area_Type
  10
419473.500
  20
4638176.000
  0
SEQEND
  8
Unknown_Area_Type
  0
INSERT
  8
FeatureAttribs
  2
FEATURE
  41
1
  42
1
  43
1
  50
0
  10
407014.350
  20
4636291.407
 66
1
  0
ATTRIB
  8
FeatureAttribs
 70
0
  1
PNOA-H_AMS_1956-57_33k_ES_PAN_2
  2
NAME
  10
407014.350
  20
4636291.407
 40
33.63102
  0
SEQEND
  0
POLYLINE
  8
Unknown_Area_Type
  70
1
  66
1
  0
VERTEX
  8
Unknown_Area_Type
  10
408252.500
  20
4638286.500
  0
VERTEX
  8
Unknown_Area_Type
  10
408257.000
  20
4638286.500
  0
VERTEX
  8
Unknown_Area_Type
  10
408259.000
  20
4638285.000
  0
VERTEX
  8
Unknown_Area_Type
  10
408392.500
  20
4638171.500
  0
VERTEX
  8
Unknown_Area_Type
  10
408362.000
  20
4634511.500
  0
VERTEX
  8
Unknown_Area_Type
  10
406395.000
  20
4634231.000
  0
VERTEX
  8
Unknown_Area_Type
  10
406390.000
  20
4634231.000
  0
VERTEX
  8
Unknown_Area_Type
  10
406381.500
  20
4634235.000
  0
VERTEX
  8
Unknown_Area_Type
  10
405608.500
  20
4634612.000
  0
VERTEX
  8
Unknown_Area_Type
  10
405675.500
  20
4638128.500
  0
VERTEX
  8
Unknown_Area_Type
  10
408244.500
  20
4638286.000
  0
VERTEX
  8
Unknown_Area_Type
  10
408252.500
  20
4638286.500
  0
SEQEND
  8
Unknown_Area_Type
  0
INSERT
  8
FeatureAttribs
  2
FEATURE
  41
1
  42
1
  43
1
  50
0
  10
407014.350
  20
4636291.407
 66
1
  0
ATTRIB
  8
FeatureAttribs
 70
0
  1
PNOA-H_AMS_1956-57_33k_ES_PAN_2
  2
NAME
  10
407014.350
  20
4636291.407
 40
33.63102
  0
SEQEND
  0
POLYLINE
  8
Unknown_Area_Type
  70
1
  66
1
  0
VERTEX
  8
Unknown_Area_Type
  10
408252.500
  20
4638286.500
  0
VERTEX
  8
Unknown_Area_Type
  10
408244.500
  20
4638286.000
  0
VERTEX
  8
Unknown_Area_Type
  10
405675.500
  20
4638128.500
  0
VERTEX
  8
Unknown_Area_Type
  10
405608.500
  20
4634612.000
  0
VERTEX
  8
Unknown_Area_Type
  10
406381.500
  20
4634235.000
  0
VERTEX
  8
Unknown_Area_Type
  10
406390.000
  20
4634231.000
  0
VERTEX
  8
Unknown_Area_Type
  10
406395.000
  20
4634231.000
  0
VERTEX
  8
Unknown_Area_Type
  10
408362.000
  20
4634511.500
  0
VERTEX
  8
Unknown_Area_Type
  10
408392.500
  20
4638171.500
  0
VERTEX
  8
Unknown_Area_Type
  10
408259.000
  20
4638285.000
  0
VERTEX
  8
Unknown_Area_Type
  10
408257.000
  20
4638286.500
  0
VERTEX
  8
Unknown_Area_Type
  10
408252.500
  20
4638286.500
  0
SEQEND
  8
Unknown_Area_Type
  0
INSERT
  8
FeatureAttribs
  2
FEATURE
  41
1
  42
1
  43
1
  50
0
  10
412450.040
  20
4636209.296
 66
1
  0
ATTRIB
  8
FeatureAttribs
 70
0
  1
PNOA-H_AMS_1956-57_33k_ES_PAN_2
  2
NAME
  10
412450.040
  20
4636209.296
 40
33.63102
  0
SEQEND
  0
POLYLINE
  8
Unknown_Area_Type
  70
1
  66
1
  0
VERTEX
  8
Unknown_Area_Type
  10
411232.000
  20
4638238.500
  0
VERTEX
  8
Unknown_Area_Type
  10
413807.500
  20
4637967.500
  0
VERTEX
  8
Unknown_Area_Type
  10
413893.000
  20
4634429.000
  0
VERTEX
  8
Unknown_Area_Type
  10
411568.500
  20
4634205.000
  0
VERTEX
  8
Unknown_Area_Type
  10
411129.500
  20
4634434.000
  0
VERTEX
  8
Unknown_Area_Type
  10
411068.500
  20
4638108.500
  0
VERTEX
  8
Unknown_Area_Type
  10
411231.500
  20
4638237.500
  0
VERTEX
  8
Unknown_Area_Type
  10
411232.000
  20
4638238.500
  0
SEQEND
  8
Unknown_Area_Type
  0
INSERT
  8
FeatureAttribs
  2
FEATURE
  41
1
  42
1
  43
1
  50
0
  10
412450.040
  20
4636209.296
 66
1
  0
ATTRIB
  8
FeatureAttribs
 70
0
  1
PNOA-H_AMS_1956-57_33k_ES_PAN_2
  2
NAME
  10
412450.040
  20
4636209.296
 40
33.63102
  0
SEQEND
  0
POLYLINE
  8
Unknown_Area_Type
  70
1
  66
1
  0
VERTEX
  8
Unknown_Area_Type
  10
411232.000
  20
4638238.500
  0
VERTEX
  8
Unknown_Area_Type
  10
411231.500
  20
4638237.500
  0
VERTEX
  8
Unknown_Area_Type
  10
411068.500
  20
4638108.500
  0
VERTEX
  8
Unknown_Area_Type
  10
411129.500
  20
4634434.000
  0
VERTEX
  8
Unknown_Area_Type
  10
411568.500
  20
4634205.000
  0
VERTEX
  8
Unknown_Area_Type
  10
413893.000
  20
4634429.000
  0
VERTEX
  8
Unknown_Area_Type
  10
413807.500
  20
4637967.500
  0
VERTEX
  8
Unknown_Area_Type
  10
411232.000
  20
4638238.500
  0
SEQEND
  8
Unknown_Area_Type
  0
INSERT
  8
FeatureAttribs
  2
FEATURE
  41
1
  42
1
  43
1
  50
0
  10
404284.670
  20
4636371.586
 66
1
  0
ATTRIB
  8
FeatureAttribs
 70
0
  1
PNOA-H_AMS_1956-57_33k_ES_PAN_2
  2
NAME
  10
404284.670
  20
4636371.586
 40
33.63102
  0
SEQEND
  0
POLYLINE
  8
Unknown_Area_Type
  70
1
  66
1
  0
VERTEX
  8
Unknown_Area_Type
  10
403079.000
  20
4638215.000
  0
VERTEX
  8
Unknown_Area_Type
  10
405428.500
  20
4638313.000
  0
VERTEX
  8
Unknown_Area_Type
  10
405675.500
  20
4638128.500
  0
VERTEX
  8
Unknown_Area_Type
  10
405608.500
  20
4634612.000
  0
VERTEX
  8
Unknown_Area_Type
  10
403832.500
  20
4634310.000
  0
VERTEX
  8
Unknown_Area_Type
  10
403829.500
  20
4634310.000
  0
VERTEX
  8
Unknown_Area_Type
  10
402913.500
  20
4634702.000
  0
VERTEX
  8
Unknown_Area_Type
  10
402932.000
  20
4638197.500
  0
VERTEX
  8
Unknown_Area_Type
  10
402932.500
  20
4638208.500
  0
VERTEX
  8
Unknown_Area_Type
  10
402935.500
  20
4638209.000
  0
VERTEX
  8
Unknown_Area_Type
  10
403067.000
  20
4638214.500
  0
VERTEX
  8
Unknown_Area_Type
  10
403079.000
  20
4638215.000
  0
SEQEND
  8
Unknown_Area_Type
  0
INSERT
  8
FeatureAttribs
  2
FEATURE
  41
1
  42
1
  43
1
  50
0
  10
404284.670
  20
4636371.586
 66
1
  0
ATTRIB
  8
FeatureAttribs
 70
0
  1
PNOA-H_AMS_1956-57_33k_ES_PAN_2
  2
NAME
  10
404284.670
  20
4636371.586
 40
33.63102
  0
SEQEND
  0
POLYLINE
  8
Unknown_Area_Type
  70
1
  66
1
  0
VERTEX
  8
Unknown_Area_Type
  10
403079.000
  20
4638215.000
  0
VERTEX
  8
Unknown_Area_Type
  10
403067.000
  20
4638214.500
  0
VERTEX
  8
Unknown_Area_Type
  10
402935.500
  20
4638209.000
  0
VERTEX
  8
Unknown_Area_Type
  10
402932.500
  20
4638208.500
  0
VERTEX
  8
Unknown_Area_Type
  10
402932.000
  20
4638197.500
  0
VERTEX
  8
Unknown_Area_Type
  10
402913.500
  20
4634702.000
  0
VERTEX
  8
Unknown_Area_Type
  10
403829.500
  20
4634310.000
  0
VERTEX
  8
Unknown_Area_Type
  10
403832.500
  20
4634310.000
  0
VERTEX
  8
Unknown_Area_Type
  10
405608.500
  20
4634612.000
  0
VERTEX
  8
Unknown_Area_Type
  10
405675.500
  20
4638128.500
  0
VERTEX
  8
Unknown_Area_Type
  10
405428.500
  20
4638313.000
  0
VERTEX
  8
Unknown_Area_Type
  10
403079.000
  20
4638215.000
  0
SEQEND
  8
Unknown_Area_Type
  0
INSERT
  8
FeatureAttribs
  2
FEATURE
  41
1
  42
1
  43
1
  50
0
  10
427346.107
  20
4646710.135
 66
1
  0
ATTRIB
  8
FeatureAttribs
 70
0
  1
PNOA-H_AMS_1956-57_33k_ES_PAN_2
  2
NAME
  10
427346.107
  20
4646710.135
 40
33.63102
  0
SEQEND
  0
POLYLINE
  8
Unknown_Area_Type
  70
1
  66
1
  0
VERTEX
  8
Unknown_Area_Type
  10
425138.500
  20
4647417.000
  0
VERTEX
  8
Unknown_Area_Type
  10
427076.500
  20
4648307.000
  0
VERTEX
  8
Unknown_Area_Type
  10
429098.000
  20
4647791.500
  0
VERTEX
  8
Unknown_Area_Type
  10
429032.500
  20
4646160.500
  0
VERTEX
  8
Unknown_Area_Type
  10
429032.500
  20
4646152.000
  0
VERTEX
  8
Unknown_Area_Type
  10
429013.500
  20
4645677.500
  0
VERTEX
  8
Unknown_Area_Type
  10
428541.500
  20
4644947.500
  0
VERTEX
  8
Unknown_Area_Type
  10
425785.500
  20
4645756.000
  0
VERTEX
  8
Unknown_Area_Type
  10
425784.000
  20
4645756.500
  0
VERTEX
  8
Unknown_Area_Type
  10
425779.500
  20
4645768.000
  0
VERTEX
  8
Unknown_Area_Type
  10
425137.500
  20
4647414.500
  0
VERTEX
  8
Unknown_Area_Type
  10
425138.500
  20
4647417.000
  0
SEQEND
  8
Unknown_Area_Type
  0
INSERT
  8
FeatureAttribs
  2
FEATURE
  41
1
  42
1
  43
1
  50
0
  10
427346.107
  20
4646710.135
 66
1
  0
ATTRIB
  8
FeatureAttribs
 70
0
  1
PNOA-H_AMS_1956-57_33k_ES_PAN_2
  2
NAME
  10
427346.107
  20
4646710.135
 40
33.63102
  0
SEQEND
  0
POLYLINE
  8
Unknown_Area_Type
  70
1
  66
1
  0
VERTEX
  8
Unknown_Area_Type
  10
425138.500
  20
4647417.000
  0
VERTEX
  8
Unknown_Area_Type
  10
425137.500
  20
4647414.500
  0
VERTEX
  8
Unknown_Area_Type
  10
425779.500
  20
4645768.000
  0
VERTEX
  8
Unknown_Area_Type
  10
425784.000
  20
4645756.500
  0
VERTEX
  8
Unknown_Area_Type
  10
425785.500
  20
4645756.000
  0
VERTEX
  8
Unknown_Area_Type
  10
428541.500
  20
4644947.500
  0
VERTEX
  8
Unknown_Area_Type
  10
429013.500
  20
4645677.500
  0
VERTEX
  8
Unknown_Area_Type
  10
429032.500
  20
4646152.000
  0
VERTEX
  8
Unknown_Area_Type
  10
429032.500
  20
4646160.500
  0
VERTEX
  8
Unknown_Area_Type
  10
429098.000
  20
4647791.500
  0
VERTEX
  8
Unknown_Area_Type
  10
427076.500
  20
4648307.000
  0
VERTEX
  8
Unknown_Area_Type
  10
425138.500
  20
4647417.000
  0
SEQEND
  8
Unknown_Area_Type
  0
INSERT
  8
FeatureAttribs
  2
FEATURE
  41
1
  42
1
  43
1
  50
0
  10
412453.207
  20
4641650.282
 66
1
  0
ATTRIB
  8
FeatureAttribs
 70
0
  1
PNOA-H_AMS_1956-57_33k_ES_PAN_2
  2
NAME
  10
412453.207
  20
4641650.282
 40
33.63102
  0
SEQEND
  0
POLYLINE
  8
Unknown_Area_Type
  70
1
  66
1
  0
VERTEX
  8
Unknown_Area_Type
  10
412263.500
  20
4643332.000
  0
VERTEX
  8
Unknown_Area_Type
  10
412878.000
  20
4643292.000
  0
VERTEX
  8
Unknown_Area_Type
  10
412881.500
  20
4643291.000
  0
VERTEX
  8
Unknown_Area_Type
  10
413291.500
  20
4640677.500
  0
VERTEX
  8
Unknown_Area_Type
  10
413291.500
  20
4640674.000
  0
VERTEX
  8
Unknown_Area_Type
  10
413287.000
  20
4640672.500
  0
VERTEX
  8
Unknown_Area_Type
  10
411477.000
  20
4640233.500
  0
VERTEX
  8
Unknown_Area_Type
  10
412263.500
  20
4643331.000
  0
VERTEX
  8
Unknown_Area_Type
  10
412263.500
  20
4643332.000
  0
SEQEND
  8
Unknown_Area_Type
  0
INSERT
  8
FeatureAttribs
  2
FEATURE
  41
1
  42
1
  43
1
  50
0
  10
412453.207
  20
4641650.282
 66
1
  0
ATTRIB
  8
FeatureAttribs
 70
0
  1
PNOA-H_AMS_1956-57_33k_ES_PAN_2
  2
NAME
  10
412453.207
  20
4641650.282
 40
33.63102
  0
SEQEND
  0
POLYLINE
  8
Unknown_Area_Type
  70
1
  66
1
  0
VERTEX
  8
Unknown_Area_Type
  10
412263.500
  20
4643332.000
  0
VERTEX
  8
Unknown_Area_Type
  10
412263.500
  20
4643331.000
  0
VERTEX
  8
Unknown_Area_Type
  10
411477.000
  20
4640233.500
  0
VERTEX
  8
Unknown_Area_Type
  10
413287.000
  20
4640672.500
  0
VERTEX
  8
Unknown_Area_Type
  10
413291.500
  20
4640674.000
  0
VERTEX
  8
Unknown_Area_Type
  10
413291.500
  20
4640677.500
  0
VERTEX
  8
Unknown_Area_Type
  10
412881.500
  20
4643291.000
  0
VERTEX
  8
Unknown_Area_Type
  10
412878.000
  20
4643292.000
  0
VERTEX
  8
Unknown_Area_Type
  10
412263.500
  20
4643332.000
  0
SEQEND
  8
Unknown_Area_Type
  0
INSERT
  8
FeatureAttribs
  2
FEATURE
  41
1
  42
1
  43
1
  50
0
  10
401512.575
  20
4642396.056
 66
1
  0
ATTRIB
  8
FeatureAttribs
 70
0
  1
PNOA-H_AMS_1956-57_33k_ES_PAN_2
  2
NAME
  10
401512.575
  20
4642396.056
 40
33.63102
  0
SEQEND
  0
POLYLINE
  8
Unknown_Area_Type
  70
1
  66
1
  0
VERTEX
  8
Unknown_Area_Type
  10
401525.514
  20
4641236.065
  0
VERTEX
  8
Unknown_Area_Type
  10
401424.000
  20
4641318.500
  0
VERTEX
  8
Unknown_Area_Type
  10
401547.500
  20
4643552.500
  0
VERTEX
  8
Unknown_Area_Type
  10
401557.648
  20
4643556.047
  0
VERTEX
  8
Unknown_Area_Type
  10
401557.131
  20
4643518.799
  0
VERTEX
  8
Unknown_Area_Type
  10
401525.514
  20
4641236.065
  0
SEQEND
  8
Unknown_Area_Type
  0
INSERT
  8
FeatureAttribs
  2
FEATURE
  41
1
  42
1
  43
1
  50
0
  10
402234.219
  20
4641705.185
 66
1
  0
ATTRIB
  8
FeatureAttribs
 70
0
  1
PNOA-H_AMS_1956-57_33k_ES_PAN_2
  2
NAME
  10
402234.219
  20
4641705.185
 40
33.63102
  0
SEQEND
  0
POLYLINE
  8
Unknown_Area_Type
  70
1
  66
1
  0
VERTEX
  8
Unknown_Area_Type
  10
401557.648
  20
4643556.047
  0
VERTEX
  8
Unknown_Area_Type
  10
401773.500
  20
4643631.500
  0
VERTEX
  8
Unknown_Area_Type
  10
403089.500
  20
4641162.500
  0
VERTEX
  8
Unknown_Area_Type
  10
403090.000
  20
4641161.000
  0
VERTEX
  8
Unknown_Area_Type
  10
403346.000
  20
4640681.000
  0
VERTEX
  8
Unknown_Area_Type
  10
402822.000
  20
4640189.000
  0
VERTEX
  8
Unknown_Area_Type
  10
402818.000
  20
4640186.500
  0
VERTEX
  8
Unknown_Area_Type
  10
401525.514
  20
4641236.065
  0
VERTEX
  8
Unknown_Area_Type
  10
401557.131
  20
4643518.799
  0
VERTEX
  8
Unknown_Area_Type
  10
401557.648
  20
4643556.047
  0
SEQEND
  8
Unknown_Area_Type
  0
INSERT
  8
FeatureAttribs
  2
FEATURE
  41
1
  42
1
  43
1
  50
0
  10
402234.219
  20
4641705.185
 66
1
  0
ATTRIB
  8
FeatureAttribs
 70
0
  1
PNOA-H_AMS_1956-57_33k_ES_PAN_2
  2
NAME
  10
402234.219
  20
4641705.185
 40
33.63102
  0
SEQEND
  0
POLYLINE
  8
Unknown_Area_Type
  70
1
  66
1
  0
VERTEX
  8
Unknown_Area_Type
  10
401557.648
  20
4643556.047
  0
VERTEX
  8
Unknown_Area_Type
  10
401557.131
  20
4643518.799
  0
VERTEX
  8
Unknown_Area_Type
  10
401525.514
  20
4641236.065
  0
VERTEX
  8
Unknown_Area_Type
  10
402818.000
  20
4640186.500
  0
VERTEX
  8
Unknown_Area_Type
  10
402822.000
  20
4640189.000
  0
VERTEX
  8
Unknown_Area_Type
  10
403346.000
  20
4640681.000
  0
VERTEX
  8
Unknown_Area_Type
  10
403090.000
  20
4641161.000
  0
VERTEX
  8
Unknown_Area_Type
  10
403089.500
  20
4641162.500
  0
VERTEX
  8
Unknown_Area_Type
  10
401773.500
  20
4643631.500
  0
VERTEX
  8
Unknown_Area_Type
  10
401557.648
  20
4643556.047
  0
SEQEND
  8
Unknown_Area_Type
  0
INSERT
  8
FeatureAttribs
  2
FEATURE
  41
1
  42
1
  43
1
  50
0
  10
406322.155
  20
4641359.977
 66
1
  0
ATTRIB
  8
FeatureAttribs
 70
0
  1
PNOA-H_AMS_1956-57_33k_ES_PAN_2
  2
NAME
  10
406322.155
  20
4641359.977
 40
33.63102
  0
SEQEND
  0
POLYLINE
  8
Unknown_Area_Type
  70
1
  66
1
  0
VERTEX
  8
Unknown_Area_Type
  10
407186.000
  20
4641839.500
  0
VERTEX
  8
Unknown_Area_Type
  10
407229.000
  20
4641158.000
  0
VERTEX
  8
Unknown_Area_Type
  10
405478.000
  20
4640221.000
  0
VERTEX
  8
Unknown_Area_Type
  10
405474.500
  20
4640219.500
  0
VERTEX
  8
Unknown_Area_Type
  10
405472.500
  20
4640221.500
  0
VERTEX
  8
Unknown_Area_Type
  10
405042.500
  20
4640741.500
  0
VERTEX
  8
Unknown_Area_Type
  10
407121.000
  20
4642865.500
  0
VERTEX
  8
Unknown_Area_Type
  10
407122.000
  20
4642863.000
  0
VERTEX
  8
Unknown_Area_Type
  10
407186.000
  20
4641847.500
  0
VERTEX
  8
Unknown_Area_Type
  10
407186.000
  20
4641839.500
  0
SEQEND
  8
Unknown_Area_Type
  0
INSERT
  8
FeatureAttribs
  2
FEATURE
  41
1
  42
1
  43
1
  50
0
  10
406322.155
  20
4641359.977
 66
1
  0
ATTRIB
  8
FeatureAttribs
 70
0
  1
PNOA-H_AMS_1956-57_33k_ES_PAN_2
  2
NAME
  10
406322.155
  20
4641359.977
 40
33.63102
  0
SEQEND
  0
POLYLINE
  8
Unknown_Area_Type
  70
1
  66
1
  0
VERTEX
  8
Unknown_Area_Type
  10
407186.000
  20
4641839.500
  0
VERTEX
  8
Unknown_Area_Type
  10
407186.000
  20
4641847.500
  0
VERTEX
  8
Unknown_Area_Type
  10
407122.000
  20
4642863.000
  0
VERTEX
  8
Unknown_Area_Type
  10
407121.000
  20
4642865.500
  0
VERTEX
  8
Unknown_Area_Type
  10
405042.500
  20
4640741.500
  0
VERTEX
  8
Unknown_Area_Type
  10
405472.500
  20
4640221.500
  0
VERTEX
  8
Unknown_Area_Type
  10
405474.500
  20
4640219.500
  0
VERTEX
  8
Unknown_Area_Type
  10
405478.000
  20
4640221.000
  0
VERTEX
  8
Unknown_Area_Type
  10
407229.000
  20
4641158.000
  0
VERTEX
  8
Unknown_Area_Type
  10
407186.000
  20
4641839.500
  0
SEQEND
  8
Unknown_Area_Type
  0
INSERT
  8
FeatureAttribs
  2
FEATURE
  41
1
  42
1
  43
1
  50
0
  10
409465.774
  20
4641794.412
 66
1
  0
ATTRIB
  8
FeatureAttribs
 70
0
  1
PNOA-H_AMS_1956-57_33k_ES_PAN_2
  2
NAME
  10
409465.774
  20
4641794.412
 40
33.63102
  0
SEQEND
  0
POLYLINE
  8
Unknown_Area_Type
  70
1
  66
1
  0
VERTEX
  8
Unknown_Area_Type
  10
409233.500
  20
4643131.000
  0
VERTEX
  8
Unknown_Area_Type
  10
409324.000
  20
4643464.500
  0
VERTEX
  8
Unknown_Area_Type
  10
410035.000
  20
4643364.500
  0
VERTEX
  8
Unknown_Area_Type
  10
410236.000
  20
4640934.000
  0
VERTEX
  8
Unknown_Area_Type
  10
410236.000
  20
4640930.000
  0
VERTEX
  8
Unknown_Area_Type
  10
410234.500
  20
4640929.000
  0
VERTEX
  8
Unknown_Area_Type
  10
408443.000
  20
4640208.000
  0
VERTEX
  8
Unknown_Area_Type
  10
409233.500
  20
4643129.500
  0
VERTEX
  8
Unknown_Area_Type
  10
409233.500
  20
4643131.000
  0
SEQEND
  8
Unknown_Area_Type
  0
INSERT
  8
FeatureAttribs
  2
FEATURE
  41
1
  42
1
  43
1
  50
0
  10
409465.774
  20
4641794.412
 66
1
  0
ATTRIB
  8
FeatureAttribs
 70
0
  1
PNOA-H_AMS_1956-57_33k_ES_PAN_2
  2
NAME
  10
409465.774
  20
4641794.412
 40
33.63102
  0
SEQEND
  0
POLYLINE
  8
Unknown_Area_Type
  70
1
  66
1
  0
VERTEX
  8
Unknown_Area_Type
  10
409233.500
  20
4643131.000
  0
VERTEX
  8
Unknown_Area_Type
  10
409233.500
  20
4643129.500
  0
VERTEX
  8
Unknown_Area_Type
  10
408443.000
  20
4640208.000
  0
VERTEX
  8
Unknown_Area_Type
  10
410234.500
  20
4640929.000
  0
VERTEX
  8
Unknown_Area_Type
  10
410236.000
  20
4640930.000
  0
VERTEX
  8
Unknown_Area_Type
  10
410236.000
  20
4640934.000
  0
VERTEX
  8
Unknown_Area_Type
  10
410035.000
  20
4643364.500
  0
VERTEX
  8
Unknown_Area_Type
  10
409324.000
  20
4643464.500
  0
VERTEX
  8
Unknown_Area_Type
  10
409233.500
  20
4643131.000
  0
SEQEND
  8
Unknown_Area_Type
  0
INSERT
  8
FeatureAttribs
  2
FEATURE
  41
1
  42
1
  43
1
  50
0
  10
415418.772
  20
4641526.684
 66
1
  0
ATTRIB
  8
FeatureAttribs
 70
0
  1
PNOA-H_AMS_1956-57_33k_ES_PAN_2
  2
NAME
  10
415418.772
  20
4641526.684
 40
33.63102
  0
SEQEND
  0
POLYLINE
  8
Unknown_Area_Type
  70
1
  66
1
  0
VERTEX
  8
Unknown_Area_Type
  10
415167.500
  20
4643208.000
  0
VERTEX
  8
Unknown_Area_Type
  10
415634.500
  20
4643202.500
  0
VERTEX
  8
Unknown_Area_Type
  10
416323.500
  20
4640420.000
  0
VERTEX
  8
Unknown_Area_Type
  10
416323.500
  20
4640417.500
  0
VERTEX
  8
Unknown_Area_Type
  10
416322.500
  20
4640417.000
  0
VERTEX
  8
Unknown_Area_Type
  10
414540.000
  20
4640375.500
  0
VERTEX
  8
Unknown_Area_Type
  10
415167.500
  20
4643207.000
  0
VERTEX
  8
Unknown_Area_Type
  10
415167.500
  20
4643208.000
  0
SEQEND
  8
Unknown_Area_Type
  0
INSERT
  8
FeatureAttribs
  2
FEATURE
  41
1
  42
1
  43
1
  50
0
  10
415418.772
  20
4641526.684
 66
1
  0
ATTRIB
  8
FeatureAttribs
 70
0
  1
PNOA-H_AMS_1956-57_33k_ES_PAN_2
  2
NAME
  10
415418.772
  20
4641526.684
 40
33.63102
  0
SEQEND
  0
POLYLINE
  8
Unknown_Area_Type
  70
1
  66
1
  0
VERTEX
  8
Unknown_Area_Type
  10
415167.500
  20
4643208.000
  0
VERTEX
  8
Unknown_Area_Type
  10
415167.500
  20
4643207.000
  0
VERTEX
  8
Unknown_Area_Type
  10
414540.000
  20
4640375.500
  0
VERTEX
  8
Unknown_Area_Type
  10
416322.500
  20
4640417.000
  0
VERTEX
  8
Unknown_Area_Type
  10
416323.500
  20
4640417.500
  0
VERTEX
  8
Unknown_Area_Type
  10
416323.500
  20
4640420.000
  0
VERTEX
  8
Unknown_Area_Type
  10
415634.500
  20
4643202.500
  0
VERTEX
  8
Unknown_Area_Type
  10
415167.500
  20
4643208.000
  0
SEQEND
  8
Unknown_Area_Type
  0
INSERT
  8
FeatureAttribs
  2
FEATURE
  41
1
  42
1
  43
1
  50
0
  10
419068.212
  20
4641639.004
 66
1
  0
ATTRIB
  8
FeatureAttribs
 70
0
  1
PNOA-H_AMS_1956-57_33k_ES_PAN_2
  2
NAME
  10
419068.212
  20
4641639.004
 40
33.63102
  0
SEQEND
  0
POLYLINE
  8
Unknown_Area_Type
  70
1
  66
1
  0
VERTEX
  8
Unknown_Area_Type
  10
419469.000
  20
4643083.500
  0
VERTEX
  8
Unknown_Area_Type
  10
419850.500
  20
4643113.000
  0
VERTEX
  8
Unknown_Area_Type
  10
420271.000
  20
4642833.500
  0
VERTEX
  8
Unknown_Area_Type
  10
420309.000
  20
4641204.000
  0
VERTEX
  8
Unknown_Area_Type
  10
419726.500
  20
4639953.000
  0
VERTEX
  8
Unknown_Area_Type
  10
417599.500
  20
4640709.000
  0
VERTEX
  8
Unknown_Area_Type
  10
418093.500
  20
4642976.000
  0
VERTEX
  8
Unknown_Area_Type
  10
419462.500
  20
4643083.000
  0
VERTEX
  8
Unknown_Area_Type
  10
419469.000
  20
4643083.500
  0
SEQEND
  8
Unknown_Area_Type
  0
INSERT
  8
FeatureAttribs
  2
FEATURE
  41
1
  42
1
  43
1
  50
0
  10
419068.212
  20
4641639.004
 66
1
  0
ATTRIB
  8
FeatureAttribs
 70
0
  1
PNOA-H_AMS_1956-57_33k_ES_PAN_2
  2
NAME
  10
419068.212
  20
4641639.004
 40
33.63102
  0
SEQEND
  0
POLYLINE
  8
Unknown_Area_Type
  70
1
  66
1
  0
VERTEX
  8
Unknown_Area_Type
  10
419469.000
  20
4643083.500
  0
VERTEX
  8
Unknown_Area_Type
  10
419462.500
  20
4643083.000
  0
VERTEX
  8
Unknown_Area_Type
  10
418093.500
  20
4642976.000
  0
VERTEX
  8
Unknown_Area_Type
  10
417599.500
  20
4640709.000
  0
VERTEX
  8
Unknown_Area_Type
  10
419726.500
  20
4639953.000
  0
VERTEX
  8
Unknown_Area_Type
  10
420309.000
  20
4641204.000
  0
VERTEX
  8
Unknown_Area_Type
  10
420271.000
  20
4642833.500
  0
VERTEX
  8
Unknown_Area_Type
  10
419850.500
  20
4643113.000
  0
VERTEX
  8
Unknown_Area_Type
  10
419469.000
  20
4643083.500
  0
SEQEND
  8
Unknown_Area_Type
  0
INSERT
  8
FeatureAttribs
  2
FEATURE
  41
1
  42
1
  43
1
  50
0
  10
421863.309
  20
4641732.305
 66
1
  0
ATTRIB
  8
FeatureAttribs
 70
0
  1
PNOA-H_AMS_1956-57_33k_ES_PAN_2
  2
NAME
  10
421863.309
  20
4641732.305
 40
33.63102
  0
SEQEND
  0
POLYLINE
  8
Unknown_Area_Type
  70
1
  66
1
  0
VERTEX
  8
Unknown_Area_Type
  10
421519.500
  20
4642970.500
  0
VERTEX
  8
Unknown_Area_Type
  10
422783.000
  20
4643108.500
  0
VERTEX
  8
Unknown_Area_Type
  10
423300.500
  20
4642755.500
  0
VERTEX
  8
Unknown_Area_Type
  10
423313.000
  20
4641525.000
  0
VERTEX
  8
Unknown_Area_Type
  10
422535.000
  20
4639848.500
  0
VERTEX
  8
Unknown_Area_Type
  10
422514.500
  20
4639860.000
  0
VERTEX
  8
Unknown_Area_Type
  10
420309.000
  20
4641204.500
  0
VERTEX
  8
Unknown_Area_Type
  10
420271.000
  20
4642833.500
  0
VERTEX
  8
Unknown_Area_Type
  10
421515.000
  20
4642970.000
  0
VERTEX
  8
Unknown_Area_Type
  10
421519.500
  20
4642970.500
  0
SEQEND
  8
Unknown_Area_Type
  0
INSERT
  8
FeatureAttribs
  2
FEATURE
  41
1
  42
1
  43
1
  50
0
  10
421863.309
  20
4641732.305
 66
1
  0
ATTRIB
  8
FeatureAttribs
 70
0
  1
PNOA-H_AMS_1956-57_33k_ES_PAN_2
  2
NAME
  10
421863.309
  20
4641732.305
 40
33.63102
  0
SEQEND
  0
POLYLINE
  8
Unknown_Area_Type
  70
1
  66
1
  0
VERTEX
  8
Unknown_Area_Type
  10
421519.500
  20
4642970.500
  0
VERTEX
  8
Unknown_Area_Type
  10
421515.000
  20
4642970.000
  0
VERTEX
  8
Unknown_Area_Type
  10
420271.000
  20
4642833.500
  0
VERTEX
  8
Unknown_Area_Type
  10
420309.000
  20
4641204.500
  0
VERTEX
  8
Unknown_Area_Type
  10
422514.500
  20
4639860.000
  0
VERTEX
  8
Unknown_Area_Type
  10
422535.000
  20
4639848.500
  0
VERTEX
  8
Unknown_Area_Type
  10
423313.000
  20
4641525.000
  0
VERTEX
  8
Unknown_Area_Type
  10
423300.500
  20
4642755.500
  0
VERTEX
  8
Unknown_Area_Type
  10
422783.000
  20
4643108.500
  0
VERTEX
  8
Unknown_Area_Type
  10
421519.500
  20
4642970.500
  0
SEQEND
  8
Unknown_Area_Type
  0
INSERT
  8
FeatureAttribs
  2
FEATURE
  41
1
  42
1
  43
1
  50
0
  10
429203.221
  20
4642218.702
 66
1
  0
ATTRIB
  8
FeatureAttribs
 70
0
  1
PNOA-H_AMS_1956-57_33k_ES_PAN_2
  2
NAME
  10
429203.221
  20
4642218.702
 40
33.63102
  0
SEQEND
  0
POLYLINE
  8
Unknown_Area_Type
  70
1
  66
1
  0
VERTEX
  8
Unknown_Area_Type
  10
429184.744
  20
4642613.617
  0
VERTEX
  8
Unknown_Area_Type
  10
429217.500
  20
4642592.500
  0
VERTEX
  8
Unknown_Area_Type
  10
429219.500
  20
4642591.000
  0
VERTEX
  8
Unknown_Area_Type
  10
429220.000
  20
4642589.000
  0
VERTEX
  8
Unknown_Area_Type
  10
429229.500
  20
4641964.500
  0
VERTEX
  8
Unknown_Area_Type
  10
429176.876
  20
4641823.787
  0
VERTEX
  8
Unknown_Area_Type
  10
429184.744
  20
4642613.617
  0
SEQEND
  8
Unknown_Area_Type
  0
INSERT
  8
FeatureAttribs
  2
FEATURE
  41
1
  42
1
  43
1
  50
0
  10
427851.722
  20
4641719.391
 66
1
  0
ATTRIB
  8
FeatureAttribs
 70
0
  1
PNOA-H_AMS_1956-57_33k_ES_PAN_2
  2
NAME
  10
427851.722
  20
4641719.391
 40
33.63102
  0
SEQEND
  0
POLYLINE
  8
Unknown_Area_Type
  70
1
  66
1
  0
VERTEX
  8
Unknown_Area_Type
  10
429176.876
  20
4641823.787
  0
VERTEX
  8
Unknown_Area_Type
  10
428378.500
  20
4639689.000
  0
VERTEX
  8
Unknown_Area_Type
  10
426294.500
  20
4641748.000
  0
VERTEX
  8
Unknown_Area_Type
  10
426271.000
  20
4642639.500
  0
VERTEX
  8
Unknown_Area_Type
  10
426271.500
  20
4642656.000
  0
VERTEX
  8
Unknown_Area_Type
  10
427661.500
  20
4642930.500
  0
VERTEX
  8
Unknown_Area_Type
  10
427664.000
  20
4642931.000
  0
VERTEX
  8
Unknown_Area_Type
  10
428452.000
  20
4643086.000
  0
VERTEX
  8
Unknown_Area_Type
  10
429184.744
  20
4642613.617
  0
VERTEX
  8
Unknown_Area_Type
  10
429176.876
  20
4641823.787
  0
SEQEND
  8
Unknown_Area_Type
  0
INSERT
  8
FeatureAttribs
  2
FEATURE
  41
1
  42
1
  43
1
  50
0
  10
427851.722
  20
4641719.391
 66
1
  0
ATTRIB
  8
FeatureAttribs
 70
0
  1
PNOA-H_AMS_1956-57_33k_ES_PAN_2
  2
NAME
  10
427851.722
  20
4641719.391
 40
33.63102
  0
SEQEND
  0
POLYLINE
  8
Unknown_Area_Type
  70
1
  66
1
  0
VERTEX
  8
Unknown_Area_Type
  10
429176.876
  20
4641823.787
  0
VERTEX
  8
Unknown_Area_Type
  10
429184.744
  20
4642613.617
  0
VERTEX
  8
Unknown_Area_Type
  10
428452.000
  20
4643086.000
  0
VERTEX
  8
Unknown_Area_Type
  10
427664.000
  20
4642931.000
  0
VERTEX
  8
Unknown_Area_Type
  10
427661.500
  20
4642930.500
  0
VERTEX
  8
Unknown_Area_Type
  10
426271.500
  20
4642656.000
  0
VERTEX
  8
Unknown_Area_Type
  10
426271.000
  20
4642639.500
  0
VERTEX
  8
Unknown_Area_Type
  10
426294.500
  20
4641748.000
  0
VERTEX
  8
Unknown_Area_Type
  10
428378.500
  20
4639689.000
  0
VERTEX
  8
Unknown_Area_Type
  10
429176.876
  20
4641823.787
  0
SEQEND
  8
Unknown_Area_Type
  0
INSERT
  8
FeatureAttribs
  2
FEATURE
  41
1
  42
1
  43
1
  50
0
  10
429242.196
  20
4642265.525
 66
1
  0
ATTRIB
  8
FeatureAttribs
 70
0
  1
PNOA-H_AMS_1956-57_33k_ES_PAN_2
  2
NAME
  10
429242.196
  20
4642265.525
 40
33.63102
  0
SEQEND
  0
POLYLINE
  8
Unknown_Area_Type
  70
1
  66
1
  0
VERTEX
  8
Unknown_Area_Type
  10
429259.697
  20
4642599.998
  0
VERTEX
  8
Unknown_Area_Type
  10
429259.697
  20
4641931.053
  0
VERTEX
  8
Unknown_Area_Type
  10
429229.500
  20
4641965.000
  0
VERTEX
  8
Unknown_Area_Type
  10
429219.500
  20
4642590.500
  0
VERTEX
  8
Unknown_Area_Type
  10
429259.697
  20
4642599.998
  0
SEQEND
  8
Unknown_Area_Type
  0
INSERT
  8
FeatureAttribs
  2
FEATURE
  41
1
  42
1
  43
1
  50
0
  10
424880.875
  20
4641699.938
 66
1
  0
ATTRIB
  8
FeatureAttribs
 70
0
  1
PNOA-H_AMS_1956-57_33k_ES_PAN_2
  2
NAME
  10
424880.875
  20
4641699.938
 40
33.63102
  0
SEQEND
  0
POLYLINE
  8
Unknown_Area_Type
  70
1
  66
1
  0
VERTEX
  8
Unknown_Area_Type
  10
425636.000
  20
4643072.000
  0
VERTEX
  8
Unknown_Area_Type
  10
425638.500
  20
4643072.000
  0
VERTEX
  8
Unknown_Area_Type
  10
425642.000
  20
4643070.000
  0
VERTEX
  8
Unknown_Area_Type
  10
426271.000
  20
4642655.500
  0
VERTEX
  8
Unknown_Area_Type
  10
426294.500
  20
4641747.000
  0
VERTEX
  8
Unknown_Area_Type
  10
425434.500
  20
4639671.500
  0
VERTEX
  8
Unknown_Area_Type
  10
423313.000
  20
4641526.000
  0
VERTEX
  8
Unknown_Area_Type
  10
423300.500
  20
4642755.000
  0
VERTEX
  8
Unknown_Area_Type
  10
425632.500
  20
4643071.500
  0
VERTEX
  8
Unknown_Area_Type
  10
425636.000
  20
4643072.000
  0
SEQEND
  8
Unknown_Area_Type
  0
INSERT
  8
FeatureAttribs
  2
FEATURE
  41
1
  42
1
  43
1
  50
0
  10
424880.875
  20
4641699.938
 66
1
  0
ATTRIB
  8
FeatureAttribs
 70
0
  1
PNOA-H_AMS_1956-57_33k_ES_PAN_2
  2
NAME
  10
424880.875
  20
4641699.938
 40
33.63102
  0
SEQEND
  0
POLYLINE
  8
Unknown_Area_Type
  70
1
  66
1
  0
VERTEX
  8
Unknown_Area_Type
  10
425636.000
  20
4643072.000
  0
VERTEX
  8
Unknown_Area_Type
  10
425632.500
  20
4643071.500
  0
VERTEX
  8
Unknown_Area_Type
  10
423300.500
  20
4642755.000
  0
VERTEX
  8
Unknown_Area_Type
  10
423313.000
  20
4641526.000
  0
VERTEX
  8
Unknown_Area_Type
  10
425434.500
  20
4639671.500
  0
VERTEX
  8
Unknown_Area_Type
  10
426294.500
  20
4641747.000
  0
VERTEX
  8
Unknown_Area_Type
  10
426271.000
  20
4642655.500
  0
VERTEX
  8
Unknown_Area_Type
  10
425642.000
  20
4643070.000
  0
VERTEX
  8
Unknown_Area_Type
  10
425638.500
  20
4643072.000
  0
VERTEX
  8
Unknown_Area_Type
  10
425636.000
  20
4643072.000
  0
SEQEND
  8
Unknown_Area_Type
  0
INSERT
  8
FeatureAttribs
  2
FEATURE
  41
1
  42
1
  43
1
  50
0
  10
403328.043
  20
4642536.746
 66
1
  0
ATTRIB
  8
FeatureAttribs
 70
0
  1
PNOA-H_AMS_1956-57_33k_ES_PAN_2
  2
NAME
  10
403328.043
  20
4642536.746
 40
33.63102
  0
SEQEND
  0
POLYLINE
  8
Unknown_Area_Type
  70
1
  66
1
  0
VERTEX
  8
Unknown_Area_Type
  10
401773.500
  20
4643632.000
  0
VERTEX
  8
Unknown_Area_Type
  10
401788.000
  20
4643638.500
  0
VERTEX
  8
Unknown_Area_Type
  10
402488.500
  20
4643947.000
  0
VERTEX
  8
Unknown_Area_Type
  10
402490.000
  20
4643947.500
  0
VERTEX
  8
Unknown_Area_Type
  10
404400.000
  20
4643476.000
  0
VERTEX
  8
Unknown_Area_Type
  10
404392.500
  20
4641370.000
  0
VERTEX
  8
Unknown_Area_Type
  10
403346.500
  20
4640681.500
  0
VERTEX
  8
Unknown_Area_Type
  10
403344.000
  20
4640684.000
  0
VERTEX
  8
Unknown_Area_Type
  10
403300.000
  20
4640766.500
  0
VERTEX
  8
Unknown_Area_Type
  10
401773.500
  20
4643631.000
  0
VERTEX
  8
Unknown_Area_Type
  10
401773.500
  20
4643632.000
  0
SEQEND
  8
Unknown_Area_Type
  0
INSERT
  8
FeatureAttribs
  2
FEATURE
  41
1
  42
1
  43
1
  50
0
  10
403328.043
  20
4642536.746
 66
1
  0
ATTRIB
  8
FeatureAttribs
 70
0
  1
PNOA-H_AMS_1956-57_33k_ES_PAN_2
  2
NAME
  10
403328.043
  20
4642536.746
 40
33.63102
  0
SEQEND
  0
POLYLINE
  8
Unknown_Area_Type
  70
1
  66
1
  0
VERTEX
  8
Unknown_Area_Type
  10
401773.500
  20
4643632.000
  0
VERTEX
  8
Unknown_Area_Type
  10
401773.500
  20
4643631.000
  0
VERTEX
  8
Unknown_Area_Type
  10
403300.000
  20
4640766.500
  0
VERTEX
  8
Unknown_Area_Type
  10
403344.000
  20
4640684.000
  0
VERTEX
  8
Unknown_Area_Type
  10
403346.500
  20
4640681.500
  0
VERTEX
  8
Unknown_Area_Type
  10
404392.500
  20
4641370.000
  0
VERTEX
  8
Unknown_Area_Type
  10
404400.000
  20
4643476.000
  0
VERTEX
  8
Unknown_Area_Type
  10
402490.000
  20
4643947.500
  0
VERTEX
  8
Unknown_Area_Type
  10
402488.500
  20
4643947.000
  0
VERTEX
  8
Unknown_Area_Type
  10
401788.000
  20
4643638.500
  0
VERTEX
  8
Unknown_Area_Type
  10
401773.500
  20
4643632.000
  0
SEQEND
  8
Unknown_Area_Type
  0
INSERT
  8
FeatureAttribs
  2
FEATURE
  41
1
  42
1
  43
1
  50
0
  10
405511.807
  20
4642553.764
 66
1
  0
ATTRIB
  8
FeatureAttribs
 70
0
  1
PNOA-H_AMS_1956-57_33k_ES_PAN_2
  2
NAME
  10
405511.807
  20
4642553.764
 40
33.63102
  0
SEQEND
  0
POLYLINE
  8
Unknown_Area_Type
  70
1
  66
1
  0
VERTEX
  8
Unknown_Area_Type
  10
405137.000
  20
4643798.500
  0
VERTEX
  8
Unknown_Area_Type
  10
405398.000
  20
4643912.000
  0
VERTEX
  8
Unknown_Area_Type
  10
407126.500
  20
4643388.500
  0
VERTEX
  8
Unknown_Area_Type
  10
407121.500
  20
4642865.500
  0
VERTEX
  8
Unknown_Area_Type
  10
405043.000
  20
4640742.000
  0
VERTEX
  8
Unknown_Area_Type
  10
405037.000
  20
4640746.500
  0
VERTEX
  8
Unknown_Area_Type
  10
404392.500
  20
4641369.500
  0
VERTEX
  8
Unknown_Area_Type
  10
404400.000
  20
4643476.000
  0
VERTEX
  8
Unknown_Area_Type
  10
405136.000
  20
4643798.000
  0
VERTEX
  8
Unknown_Area_Type
  10
405137.000
  20
4643798.500
  0
SEQEND
  8
Unknown_Area_Type
  0
INSERT
  8
FeatureAttribs
  2
FEATURE
  41
1
  42
1
  43
1
  50
0
  10
405511.807
  20
4642553.764
 66
1
  0
ATTRIB
  8
FeatureAttribs
 70
0
  1
PNOA-H_AMS_1956-57_33k_ES_PAN_2
  2
NAME
  10
405511.807
  20
4642553.764
 40
33.63102
  0
SEQEND
  0
POLYLINE
  8
Unknown_Area_Type
  70
1
  66
1
  0
VERTEX
  8
Unknown_Area_Type
  10
405137.000
  20
4643798.500
  0
VERTEX
  8
Unknown_Area_Type
  10
405136.000
  20
4643798.000
  0
VERTEX
  8
Unknown_Area_Type
  10
404400.000
  20
4643476.000
  0
VERTEX
  8
Unknown_Area_Type
  10
404392.500
  20
4641369.500
  0
VERTEX
  8
Unknown_Area_Type
  10
405037.000
  20
4640746.500
  0
VERTEX
  8
Unknown_Area_Type
  10
405043.000
  20
4640742.000
  0
VERTEX
  8
Unknown_Area_Type
  10
407121.500
  20
4642865.500
  0
VERTEX
  8
Unknown_Area_Type
  10
407126.500
  20
4643388.500
  0
VERTEX
  8
Unknown_Area_Type
  10
405398.000
  20
4643912.000
  0
VERTEX
  8
Unknown_Area_Type
  10
405137.000
  20
4643798.500
  0
SEQEND
  8
Unknown_Area_Type
  0
INSERT
  8
FeatureAttribs
  2
FEATURE
  41
1
  42
1
  43
1
  50
0
  10
401441.584
  20
4642442.537
 66
1
  0
ATTRIB
  8
FeatureAttribs
 70
0
  1
PNOA-H_AMS_1956-57_33k_ES_PAN_2
  2
NAME
  10
401441.584
  20
4642442.537
 40
33.63102
  0
SEQEND
  0
POLYLINE
  8
Unknown_Area_Type
  70
1
  66
1
  0
VERTEX
  8
Unknown_Area_Type
  10
401397.043
  20
4643588.419
  0
VERTEX
  8
Unknown_Area_Type
  10
401547.500
  20
4643553.000
  0
VERTEX
  8
Unknown_Area_Type
  10
401424.000
  20
4641318.500
  0
VERTEX
  8
Unknown_Area_Type
  10
401397.043
  20
4641296.655
  0
VERTEX
  8
Unknown_Area_Type
  10
401397.043
  20
4643588.419
  0
SEQEND
  8
Unknown_Area_Type
  0
INSERT
  8
FeatureAttribs
  2
FEATURE
  41
1
  42
1
  43
1
  50
0
  10
408112.179
  20
4642227.049
 66
1
  0
ATTRIB
  8
FeatureAttribs
 70
0
  1
PNOA-H_AMS_1956-57_33k_ES_PAN_2
  2
NAME
  10
408112.179
  20
4642227.049
 40
33.63102
  0
SEQEND
  0
POLYLINE
  8
Unknown_Area_Type
  70
1
  66
1
  0
VERTEX
  8
Unknown_Area_Type
  10
407184.500
  20
4643410.500
  0
VERTEX
  8
Unknown_Area_Type
  10
408261.500
  20
4643822.000
  0
VERTEX
  8
Unknown_Area_Type
  10
408264.000
  20
4643822.000
  0
VERTEX
  8
Unknown_Area_Type
  10
408307.500
  20
4643807.500
  0
VERTEX
  8
Unknown_Area_Type
  10
409324.000
  20
4643464.500
  0
VERTEX
  8
Unknown_Area_Type
  10
408443.000
  20
4640207.500
  0
VERTEX
  8
Unknown_Area_Type
  10
408323.000
  20
4640117.500
  0
VERTEX
  8
Unknown_Area_Type
  10
408321.500
  20
4640117.000
  0
VERTEX
  8
Unknown_Area_Type
  10
408311.500
  20
4640126.500
  0
VERTEX
  8
Unknown_Area_Type
  10
407229.000
  20
4641158.500
  0
VERTEX
  8
Unknown_Area_Type
  10
407121.500
  20
4642863.000
  0
VERTEX
  8
Unknown_Area_Type
  10
407127.000
  20
4643388.500
  0
VERTEX
  8
Unknown_Area_Type
  10
407183.500
  20
4643410.000
  0
VERTEX
  8
Unknown_Area_Type
  10
407184.500
  20
4643410.500
  0
SEQEND
  8
Unknown_Area_Type
  0
INSERT
  8
FeatureAttribs
  2
FEATURE
  41
1
  42
1
  43
1
  50
0
  10
408112.179
  20
4642227.049
 66
1
  0
ATTRIB
  8
FeatureAttribs
 70
0
  1
PNOA-H_AMS_1956-57_33k_ES_PAN_2
  2
NAME
  10
408112.179
  20
4642227.049
 40
33.63102
  0
SEQEND
  0
POLYLINE
  8
Unknown_Area_Type
  70
1
  66
1
  0
VERTEX
  8
Unknown_Area_Type
  10
407184.500
  20
4643410.500
  0
VERTEX
  8
Unknown_Area_Type
  10
407183.500
  20
4643410.000
  0
VERTEX
  8
Unknown_Area_Type
  10
407127.000
  20
4643388.500
  0
VERTEX
  8
Unknown_Area_Type
  10
407121.500
  20
4642863.000
  0
VERTEX
  8
Unknown_Area_Type
  10
407229.000
  20
4641158.500
  0
VERTEX
  8
Unknown_Area_Type
  10
408311.500
  20
4640126.500
  0
VERTEX
  8
Unknown_Area_Type
  10
408321.500
  20
4640117.000
  0
VERTEX
  8
Unknown_Area_Type
  10
408323.000
  20
4640117.500
  0
VERTEX
  8
Unknown_Area_Type
  10
408443.000
  20
4640207.500
  0
VERTEX
  8
Unknown_Area_Type
  10
409324.000
  20
4643464.500
  0
VERTEX
  8
Unknown_Area_Type
  10
408307.500
  20
4643807.500
  0
VERTEX
  8
Unknown_Area_Type
  10
408264.000
  20
4643822.000
  0
VERTEX
  8
Unknown_Area_Type
  10
408261.500
  20
4643822.000
  0
VERTEX
  8
Unknown_Area_Type
  10
407184.500
  20
4643410.500
  0
SEQEND
  8
Unknown_Area_Type
  0
INSERT
  8
FeatureAttribs
  2
FEATURE
  41
1
  42
1
  43
1
  50
0
  10
413997.855
  20
4642084.127
 66
1
  0
ATTRIB
  8
FeatureAttribs
 70
0
  1
PNOA-H_AMS_1956-57_33k_ES_PAN_2
  2
NAME
  10
413997.855
  20
4642084.127
 40
33.63102
  0
SEQEND
  0
POLYLINE
  8
Unknown_Area_Type
  70
1
  66
1
  0
VERTEX
  8
Unknown_Area_Type
  10
413329.000
  20
4643451.000
  0
VERTEX
  8
Unknown_Area_Type
  10
414063.500
  20
4643712.000
  0
VERTEX
  8
Unknown_Area_Type
  10
415167.500
  20
4643208.000
  0
VERTEX
  8
Unknown_Area_Type
  10
414540.000
  20
4640375.500
  0
VERTEX
  8
Unknown_Area_Type
  10
414207.500
  20
4640101.500
  0
VERTEX
  8
Unknown_Area_Type
  10
413291.500
  20
4640674.000
  0
VERTEX
  8
Unknown_Area_Type
  10
412881.000
  20
4643291.500
  0
VERTEX
  8
Unknown_Area_Type
  10
413327.500
  20
4643450.500
  0
VERTEX
  8
Unknown_Area_Type
  10
413329.000
  20
4643451.000
  0
SEQEND
  8
Unknown_Area_Type
  0
INSERT
  8
FeatureAttribs
  2
FEATURE
  41
1
  42
1
  43
1
  50
0
  10
413997.855
  20
4642084.127
 66
1
  0
ATTRIB
  8
FeatureAttribs
 70
0
  1
PNOA-H_AMS_1956-57_33k_ES_PAN_2
  2
NAME
  10
413997.855
  20
4642084.127
 40
33.63102
  0
SEQEND
  0
POLYLINE
  8
Unknown_Area_Type
  70
1
  66
1
  0
VERTEX
  8
Unknown_Area_Type
  10
413329.000
  20
4643451.000
  0
VERTEX
  8
Unknown_Area_Type
  10
413327.500
  20
4643450.500
  0
VERTEX
  8
Unknown_Area_Type
  10
412881.000
  20
4643291.500
  0
VERTEX
  8
Unknown_Area_Type
  10
413291.500
  20
4640674.000
  0
VERTEX
  8
Unknown_Area_Type
  10
414207.500
  20
4640101.500
  0
VERTEX
  8
Unknown_Area_Type
  10
414540.000
  20
4640375.500
  0
VERTEX
  8
Unknown_Area_Type
  10
415167.500
  20
4643208.000
  0
VERTEX
  8
Unknown_Area_Type
  10
414063.500
  20
4643712.000
  0
VERTEX
  8
Unknown_Area_Type
  10
413329.000
  20
4643451.000
  0
SEQEND
  8
Unknown_Area_Type
  0
INSERT
  8
FeatureAttribs
  2
FEATURE
  41
1
  42
1
  43
1
  50
0
  10
411065.392
  20
4642157.912
 66
1
  0
ATTRIB
  8
FeatureAttribs
 70
0
  1
PNOA-H_AMS_1956-57_33k_ES_PAN_2
  2
NAME
  10
411065.392
  20
4642157.912
 40
33.63102
  0
SEQEND
  0
POLYLINE
  8
Unknown_Area_Type
  70
1
  66
1
  0
VERTEX
  8
Unknown_Area_Type
  10
411106.500
  20
4643780.000
  0
VERTEX
  8
Unknown_Area_Type
  10
411110.500
  20
4643779.500
  0
VERTEX
  8
Unknown_Area_Type
  10
411130.000
  20
4643772.000
  0
VERTEX
  8
Unknown_Area_Type
  10
412263.500
  20
4643332.000
  0
VERTEX
  8
Unknown_Area_Type
  10
411477.500
  20
4640234.500
  0
VERTEX
  8
Unknown_Area_Type
  10
411474.000
  20
4640230.500
  0
VERTEX
  8
Unknown_Area_Type
  10
411318.000
  20
4640105.000
  0
VERTEX
  8
Unknown_Area_Type
  10
410236.000
  20
4640930.000
  0
VERTEX
  8
Unknown_Area_Type
  10
410035.000
  20
4643362.000
  0
VERTEX
  8
Unknown_Area_Type
  10
410035.000
  20
4643364.500
  0
VERTEX
  8
Unknown_Area_Type
  10
410038.500
  20
4643366.000
  0
VERTEX
  8
Unknown_Area_Type
  10
411105.000
  20
4643779.500
  0
VERTEX
  8
Unknown_Area_Type
  10
411106.500
  20
4643780.000
  0
SEQEND
  8
Unknown_Area_Type
  0
INSERT
  8
FeatureAttribs
  2
FEATURE
  41
1
  42
1
  43
1
  50
0
  10
411065.392
  20
4642157.912
 66
1
  0
ATTRIB
  8
FeatureAttribs
 70
0
  1
PNOA-H_AMS_1956-57_33k_ES_PAN_2
  2
NAME
  10
411065.392
  20
4642157.912
 40
33.63102
  0
SEQEND
  0
POLYLINE
  8
Unknown_Area_Type
  70
1
  66
1
  0
VERTEX
  8
Unknown_Area_Type
  10
411106.500
  20
4643780.000
  0
VERTEX
  8
Unknown_Area_Type
  10
411105.000
  20
4643779.500
  0
VERTEX
  8
Unknown_Area_Type
  10
410038.500
  20
4643366.000
  0
VERTEX
  8
Unknown_Area_Type
  10
410035.000
  20
4643364.500
  0
VERTEX
  8
Unknown_Area_Type
  10
410035.000
  20
4643362.000
  0
VERTEX
  8
Unknown_Area_Type
  10
410236.000
  20
4640930.000
  0
VERTEX
  8
Unknown_Area_Type
  10
411318.000
  20
4640105.000
  0
VERTEX
  8
Unknown_Area_Type
  10
411474.000
  20
4640230.500
  0
VERTEX
  8
Unknown_Area_Type
  10
411477.500
  20
4640234.500
  0
VERTEX
  8
Unknown_Area_Type
  10
412263.500
  20
4643332.000
  0
VERTEX
  8
Unknown_Area_Type
  10
411130.000
  20
4643772.000
  0
VERTEX
  8
Unknown_Area_Type
  10
411110.500
  20
4643779.500
  0
VERTEX
  8
Unknown_Area_Type
  10
411106.500
  20
4643780.000
  0
SEQEND
  8
Unknown_Area_Type
  0
INSERT
  8
FeatureAttribs
  2
FEATURE
  41
1
  42
1
  43
1
  50
0
  10
416882.238
  20
4642008.866
 66
1
  0
ATTRIB
  8
FeatureAttribs
 70
0
  1
PNOA-H_AMS_1956-57_33k_ES_PAN_2
  2
NAME
  10
416882.238
  20
4642008.866
 40
33.63102
  0
SEQEND
  0
POLYLINE
  8
Unknown_Area_Type
  70
1
  66
1
  0
VERTEX
  8
Unknown_Area_Type
  10
416975.000
  20
4643566.000
  0
VERTEX
  8
Unknown_Area_Type
  10
416980.500
  20
4643564.000
  0
VERTEX
  8
Unknown_Area_Type
  10
418089.500
  20
4642978.500
  0
VERTEX
  8
Unknown_Area_Type
  10
418093.000
  20
4642976.500
  0
VERTEX
  8
Unknown_Area_Type
  10
418093.500
  20
4642974.500
  0
VERTEX
  8
Unknown_Area_Type
  10
417599.500
  20
4640709.000
  0
VERTEX
  8
Unknown_Area_Type
  10
416960.000
  20
4640078.500
  0
VERTEX
  8
Unknown_Area_Type
  10
416323.500
  20
4640417.500
  0
VERTEX
  8
Unknown_Area_Type
  10
415634.500
  20
4643202.500
  0
VERTEX
  8
Unknown_Area_Type
  10
416973.000
  20
4643565.500
  0
VERTEX
  8
Unknown_Area_Type
  10
416975.000
  20
4643566.000
  0
SEQEND
  8
Unknown_Area_Type
  0
INSERT
  8
FeatureAttribs
  2
FEATURE
  41
1
  42
1
  43
1
  50
0
  10
416882.238
  20
4642008.866
 66
1
  0
ATTRIB
  8
FeatureAttribs
 70
0
  1
PNOA-H_AMS_1956-57_33k_ES_PAN_2
  2
NAME
  10
416882.238
  20
4642008.866
 40
33.63102
  0
SEQEND
  0
POLYLINE
  8
Unknown_Area_Type
  70
1
  66
1
  0
VERTEX
  8
Unknown_Area_Type
  10
416975.000
  20
4643566.000
  0
VERTEX
  8
Unknown_Area_Type
  10
416973.000
  20
4643565.500
  0
VERTEX
  8
Unknown_Area_Type
  10
415634.500
  20
4643202.500
  0
VERTEX
  8
Unknown_Area_Type
  10
416323.500
  20
4640417.500
  0
VERTEX
  8
Unknown_Area_Type
  10
416960.000
  20
4640078.500
  0
VERTEX
  8
Unknown_Area_Type
  10
417599.500
  20
4640709.000
  0
VERTEX
  8
Unknown_Area_Type
  10
418093.500
  20
4642974.500
  0
VERTEX
  8
Unknown_Area_Type
  10
418093.000
  20
4642976.500
  0
VERTEX
  8
Unknown_Area_Type
  10
418089.500
  20
4642978.500
  0
VERTEX
  8
Unknown_Area_Type
  10
416980.500
  20
4643564.000
  0
VERTEX
  8
Unknown_Area_Type
  10
416975.000
  20
4643566.000
  0
SEQEND
  8
Unknown_Area_Type
  0
ENDSEC
  0
EOF
