  0
SECTION
  2
HEADER
  9
$ACADVER
  1
AC1009
  9
$LUNITS
  70
2
  9
$LIMMIN
  10
373718.378
  20
4631953.232
  9
$LIMMAX
  10
401653.353
  20
4650894.918
  9
$EXTMIN
  10
373718.378
  20
4631953.232
  9
$EXTMAX
  10
401653.353
  20
4650894.918
  999
Created by Global Mapper
  999
Projection: UTM
  999
Datum: ETRS89
  999
Ground Units: meters
  999
ZONE: 30
  0
ENDSEC
  0
SECTION
  2
TABLES
  0
ENDSEC
  0
SECTION
  2
BLOCKS
  0
BLOCK
  8
FeatureAttribs
  70
0
  2
FEATURE
  3
FEATURE
  10
0.00000000
  20
0.00000000
  0
ATTDEF
  8
FeatureAttribs
  70
0
  1
 
  2
NAME
  3
NAME
  10
0.00000000
  20
0.00000000
  40
1.00000000
  0
ENDBLK
  0
ENDSEC
  0
SECTION
  2
ENTITIES
  0
INSERT
  8
FeatureAttribs
  2
FEATURE
  41
1
  42
1
  43
1
  50
0
  10
392757.046
  20
4650729.549
 66
1
  0
ATTRIB
  8
FeatureAttribs
 70
0
  1
PNOA-H_AMS_1956-57_33k_ES_PAN_2
  2
NAME
  10
392757.046
  20
4650729.549
 40
33.75130
  0
SEQEND
  0
POLYLINE
  8
Unknown_Area_Type
  70
1
  66
1
  0
VERTEX
  8
Unknown_Area_Type
  10
394292.322
  20
4650894.918
  0
VERTEX
  8
Unknown_Area_Type
  10
394296.488
  20
4650564.180
  0
VERTEX
  8
Unknown_Area_Type
  10
391300.860
  20
4650609.376
  0
VERTEX
  8
Unknown_Area_Type
  10
391219.922
  20
4650610.637
  0
VERTEX
  8
Unknown_Area_Type
  10
391219.363
  20
4650894.918
  0
VERTEX
  8
Unknown_Area_Type
  10
394292.322
  20
4650894.918
  0
SEQEND
  8
Unknown_Area_Type
  0
INSERT
  8
FeatureAttribs
  2
FEATURE
  41
1
  42
1
  43
1
  50
0
  10
392785.592
  20
4649495.193
 66
1
  0
ATTRIB
  8
FeatureAttribs
 70
0
  1
PNOA-H_AMS_1956-57_33k_ES_PAN_2
  2
NAME
  10
392785.592
  20
4649495.193
 40
33.75130
  0
SEQEND
  0
POLYLINE
  8
Unknown_Area_Type
  70
1
  66
1
  0
VERTEX
  8
Unknown_Area_Type
  10
394296.488
  20
4650564.180
  0
VERTEX
  8
Unknown_Area_Type
  10
394322.500
  20
4648499.000
  0
VERTEX
  8
Unknown_Area_Type
  10
393976.000
  20
4648282.500
  0
VERTEX
  8
Unknown_Area_Type
  10
391224.000
  20
4648538.000
  0
VERTEX
  8
Unknown_Area_Type
  10
391219.922
  20
4650610.637
  0
VERTEX
  8
Unknown_Area_Type
  10
391300.860
  20
4650609.376
  0
VERTEX
  8
Unknown_Area_Type
  10
394296.488
  20
4650564.180
  0
SEQEND
  8
Unknown_Area_Type
  0
INSERT
  8
FeatureAttribs
  2
FEATURE
  41
1
  42
1
  43
1
  50
0
  10
392785.592
  20
4649495.193
 66
1
  0
ATTRIB
  8
FeatureAttribs
 70
0
  1
PNOA-H_AMS_1956-57_33k_ES_PAN_2
  2
NAME
  10
392785.592
  20
4649495.193
 40
33.75130
  0
SEQEND
  0
POLYLINE
  8
Unknown_Area_Type
  70
1
  66
1
  0
VERTEX
  8
Unknown_Area_Type
  10
394296.488
  20
4650564.180
  0
VERTEX
  8
Unknown_Area_Type
  10
391300.860
  20
4650609.376
  0
VERTEX
  8
Unknown_Area_Type
  10
391219.922
  20
4650610.637
  0
VERTEX
  8
Unknown_Area_Type
  10
391224.000
  20
4648538.000
  0
VERTEX
  8
Unknown_Area_Type
  10
393976.000
  20
4648282.500
  0
VERTEX
  8
Unknown_Area_Type
  10
394322.500
  20
4648499.000
  0
VERTEX
  8
Unknown_Area_Type
  10
394296.488
  20
4650564.180
  0
SEQEND
  8
Unknown_Area_Type
  0
INSERT
  8
FeatureAttribs
  2
FEATURE
  41
1
  42
1
  43
1
  50
0
  10
398919.558
  20
4650685.091
 66
1
  0
ATTRIB
  8
FeatureAttribs
 70
0
  1
PNOA-H_AMS_1956-57_33k_ES_PAN_2
  2
NAME
  10
398919.558
  20
4650685.091
 40
33.75130
  0
SEQEND
  0
POLYLINE
  8
Unknown_Area_Type
  70
1
  66
1
  0
VERTEX
  8
Unknown_Area_Type
  10
400437.487
  20
4650894.918
  0
VERTEX
  8
Unknown_Area_Type
  10
400446.087
  20
4650475.264
  0
VERTEX
  8
Unknown_Area_Type
  10
398202.509
  20
4650506.929
  0
VERTEX
  8
Unknown_Area_Type
  10
397399.582
  20
4650518.652
  0
VERTEX
  8
Unknown_Area_Type
  10
397394.491
  20
4650894.918
  0
VERTEX
  8
Unknown_Area_Type
  10
400437.487
  20
4650894.918
  0
SEQEND
  8
Unknown_Area_Type
  0
INSERT
  8
FeatureAttribs
  2
FEATURE
  41
1
  42
1
  43
1
  50
0
  10
398964.815
  20
4649399.135
 66
1
  0
ATTRIB
  8
FeatureAttribs
 70
0
  1
PNOA-H_AMS_1956-57_33k_ES_PAN_2
  2
NAME
  10
398964.815
  20
4649399.135
 40
33.75130
  0
SEQEND
  0
POLYLINE
  8
Unknown_Area_Type
  70
1
  66
1
  0
VERTEX
  8
Unknown_Area_Type
  10
400446.087
  20
4650475.264
  0
VERTEX
  8
Unknown_Area_Type
  10
400488.000
  20
4648430.000
  0
VERTEX
  8
Unknown_Area_Type
  10
399999.500
  20
4648200.000
  0
VERTEX
  8
Unknown_Area_Type
  10
399998.500
  20
4648200.000
  0
VERTEX
  8
Unknown_Area_Type
  10
399862.500
  20
4648136.000
  0
VERTEX
  8
Unknown_Area_Type
  10
397427.000
  20
4648492.500
  0
VERTEX
  8
Unknown_Area_Type
  10
397399.582
  20
4650518.652
  0
VERTEX
  8
Unknown_Area_Type
  10
398202.509
  20
4650506.929
  0
VERTEX
  8
Unknown_Area_Type
  10
400446.087
  20
4650475.264
  0
SEQEND
  8
Unknown_Area_Type
  0
INSERT
  8
FeatureAttribs
  2
FEATURE
  41
1
  42
1
  43
1
  50
0
  10
398964.815
  20
4649399.135
 66
1
  0
ATTRIB
  8
FeatureAttribs
 70
0
  1
PNOA-H_AMS_1956-57_33k_ES_PAN_2
  2
NAME
  10
398964.815
  20
4649399.135
 40
33.75130
  0
SEQEND
  0
POLYLINE
  8
Unknown_Area_Type
  70
1
  66
1
  0
VERTEX
  8
Unknown_Area_Type
  10
400446.087
  20
4650475.264
  0
VERTEX
  8
Unknown_Area_Type
  10
398202.509
  20
4650506.929
  0
VERTEX
  8
Unknown_Area_Type
  10
397399.582
  20
4650518.652
  0
VERTEX
  8
Unknown_Area_Type
  10
397427.000
  20
4648492.500
  0
VERTEX
  8
Unknown_Area_Type
  10
399862.500
  20
4648136.000
  0
VERTEX
  8
Unknown_Area_Type
  10
399998.500
  20
4648200.000
  0
VERTEX
  8
Unknown_Area_Type
  10
399999.500
  20
4648200.000
  0
VERTEX
  8
Unknown_Area_Type
  10
400488.000
  20
4648430.000
  0
VERTEX
  8
Unknown_Area_Type
  10
400446.087
  20
4650475.264
  0
SEQEND
  8
Unknown_Area_Type
  0
INSERT
  8
FeatureAttribs
  2
FEATURE
  41
1
  42
1
  43
1
  50
0
  10
386615.187
  20
4650776.753
 66
1
  0
ATTRIB
  8
FeatureAttribs
 70
0
  1
PNOA-H_AMS_1956-57_33k_ES_PAN_2
  2
NAME
  10
386615.187
  20
4650776.753
 40
33.75130
  0
SEQEND
  0
POLYLINE
  8
Unknown_Area_Type
  70
1
  66
1
  0
VERTEX
  8
Unknown_Area_Type
  10
388144.484
  20
4650894.918
  0
VERTEX
  8
Unknown_Area_Type
  10
388141.102
  20
4650658.587
  0
VERTEX
  8
Unknown_Area_Type
  10
387850.026
  20
4650663.120
  0
VERTEX
  8
Unknown_Area_Type
  10
385086.692
  20
4650707.502
  0
VERTEX
  8
Unknown_Area_Type
  10
385089.101
  20
4650894.918
  0
VERTEX
  8
Unknown_Area_Type
  10
388144.484
  20
4650894.918
  0
SEQEND
  8
Unknown_Area_Type
  0
INSERT
  8
FeatureAttribs
  2
FEATURE
  41
1
  42
1
  43
1
  50
0
  10
386623.594
  20
4649599.311
 66
1
  0
ATTRIB
  8
FeatureAttribs
 70
0
  1
PNOA-H_AMS_1956-57_33k_ES_PAN_2
  2
NAME
  10
386623.594
  20
4649599.311
 40
33.75130
  0
SEQEND
  0
POLYLINE
  8
Unknown_Area_Type
  70
1
  66
1
  0
VERTEX
  8
Unknown_Area_Type
  10
388141.102
  20
4650658.587
  0
VERTEX
  8
Unknown_Area_Type
  10
388111.500
  20
4648590.000
  0
VERTEX
  8
Unknown_Area_Type
  10
388110.500
  20
4648587.000
  0
VERTEX
  8
Unknown_Area_Type
  10
388094.000
  20
4648576.000
  0
VERTEX
  8
Unknown_Area_Type
  10
387788.500
  20
4648375.500
  0
VERTEX
  8
Unknown_Area_Type
  10
385060.500
  20
4648670.000
  0
VERTEX
  8
Unknown_Area_Type
  10
385086.692
  20
4650707.502
  0
VERTEX
  8
Unknown_Area_Type
  10
387850.026
  20
4650663.120
  0
VERTEX
  8
Unknown_Area_Type
  10
388141.102
  20
4650658.587
  0
SEQEND
  8
Unknown_Area_Type
  0
INSERT
  8
FeatureAttribs
  2
FEATURE
  41
1
  42
1
  43
1
  50
0
  10
386623.594
  20
4649599.311
 66
1
  0
ATTRIB
  8
FeatureAttribs
 70
0
  1
PNOA-H_AMS_1956-57_33k_ES_PAN_2
  2
NAME
  10
386623.594
  20
4649599.311
 40
33.75130
  0
SEQEND
  0
POLYLINE
  8
Unknown_Area_Type
  70
1
  66
1
  0
VERTEX
  8
Unknown_Area_Type
  10
388141.102
  20
4650658.587
  0
VERTEX
  8
Unknown_Area_Type
  10
387850.026
  20
4650663.120
  0
VERTEX
  8
Unknown_Area_Type
  10
385086.692
  20
4650707.502
  0
VERTEX
  8
Unknown_Area_Type
  10
385060.500
  20
4648670.000
  0
VERTEX
  8
Unknown_Area_Type
  10
387788.500
  20
4648375.500
  0
VERTEX
  8
Unknown_Area_Type
  10
388094.000
  20
4648576.000
  0
VERTEX
  8
Unknown_Area_Type
  10
388110.500
  20
4648587.000
  0
VERTEX
  8
Unknown_Area_Type
  10
388111.500
  20
4648590.000
  0
VERTEX
  8
Unknown_Area_Type
  10
388141.102
  20
4650658.587
  0
SEQEND
  8
Unknown_Area_Type
  0
INSERT
  8
FeatureAttribs
  2
FEATURE
  41
1
  42
1
  43
1
  50
0
  10
380592.208
  20
4650825.841
 66
1
  0
ATTRIB
  8
FeatureAttribs
 70
0
  1
PNOA-H_AMS_1956-57_33k_ES_PAN_2
  2
NAME
  10
380592.208
  20
4650825.841
 40
33.75130
  0
SEQEND
  0
POLYLINE
  8
Unknown_Area_Type
  70
1
  66
1
  0
VERTEX
  8
Unknown_Area_Type
  10
382092.292
  20
4650894.918
  0
VERTEX
  8
Unknown_Area_Type
  10
382089.549
  20
4650756.764
  0
VERTEX
  8
Unknown_Area_Type
  10
380948.339
  20
4650775.649
  0
VERTEX
  8
Unknown_Area_Type
  10
379093.275
  20
4650807.250
  0
VERTEX
  8
Unknown_Area_Type
  10
379094.309
  20
4650894.918
  0
VERTEX
  8
Unknown_Area_Type
  10
382092.292
  20
4650894.918
  0
SEQEND
  8
Unknown_Area_Type
  0
INSERT
  8
FeatureAttribs
  2
FEATURE
  41
1
  42
1
  43
1
  50
0
  10
380600.345
  20
4649715.293
 66
1
  0
ATTRIB
  8
FeatureAttribs
 70
0
  1
PNOA-H_AMS_1956-57_33k_ES_PAN_2
  2
NAME
  10
380600.345
  20
4649715.293
 40
33.75130
  0
SEQEND
  0
POLYLINE
  8
Unknown_Area_Type
  70
1
  66
1
  0
VERTEX
  8
Unknown_Area_Type
  10
382089.549
  20
4650756.764
  0
VERTEX
  8
Unknown_Area_Type
  10
382050.000
  20
4648765.000
  0
VERTEX
  8
Unknown_Area_Type
  10
382049.500
  20
4648763.000
  0
VERTEX
  8
Unknown_Area_Type
  10
382047.000
  20
4648761.000
  0
VERTEX
  8
Unknown_Area_Type
  10
381582.000
  20
4648480.500
  0
VERTEX
  8
Unknown_Area_Type
  10
379070.000
  20
4648833.000
  0
VERTEX
  8
Unknown_Area_Type
  10
379093.275
  20
4650807.250
  0
VERTEX
  8
Unknown_Area_Type
  10
380948.339
  20
4650775.649
  0
VERTEX
  8
Unknown_Area_Type
  10
382089.549
  20
4650756.764
  0
SEQEND
  8
Unknown_Area_Type
  0
INSERT
  8
FeatureAttribs
  2
FEATURE
  41
1
  42
1
  43
1
  50
0
  10
380600.345
  20
4649715.293
 66
1
  0
ATTRIB
  8
FeatureAttribs
 70
0
  1
PNOA-H_AMS_1956-57_33k_ES_PAN_2
  2
NAME
  10
380600.345
  20
4649715.293
 40
33.75130
  0
SEQEND
  0
POLYLINE
  8
Unknown_Area_Type
  70
1
  66
1
  0
VERTEX
  8
Unknown_Area_Type
  10
382089.549
  20
4650756.764
  0
VERTEX
  8
Unknown_Area_Type
  10
380948.339
  20
4650775.649
  0
VERTEX
  8
Unknown_Area_Type
  10
379093.275
  20
4650807.250
  0
VERTEX
  8
Unknown_Area_Type
  10
379070.000
  20
4648833.000
  0
VERTEX
  8
Unknown_Area_Type
  10
381582.000
  20
4648480.500
  0
VERTEX
  8
Unknown_Area_Type
  10
382047.000
  20
4648761.000
  0
VERTEX
  8
Unknown_Area_Type
  10
382049.500
  20
4648763.000
  0
VERTEX
  8
Unknown_Area_Type
  10
382050.000
  20
4648765.000
  0
VERTEX
  8
Unknown_Area_Type
  10
382089.549
  20
4650756.764
  0
SEQEND
  8
Unknown_Area_Type
  0
INSERT
  8
FeatureAttribs
  2
FEATURE
  41
1
  42
1
  43
1
  50
0
  10
395845.864
  20
4650706.785
 66
1
  0
ATTRIB
  8
FeatureAttribs
 70
0
  1
PNOA-H_AMS_1956-57_33k_ES_PAN_2
  2
NAME
  10
395845.864
  20
4650706.785
 40
33.75130
  0
SEQEND
  0
POLYLINE
  8
Unknown_Area_Type
  70
1
  66
1
  0
VERTEX
  8
Unknown_Area_Type
  10
397394.491
  20
4650894.918
  0
VERTEX
  8
Unknown_Area_Type
  10
397399.582
  20
4650518.652
  0
VERTEX
  8
Unknown_Area_Type
  10
394751.687
  20
4650557.312
  0
VERTEX
  8
Unknown_Area_Type
  10
394296.488
  20
4650564.180
  0
VERTEX
  8
Unknown_Area_Type
  10
394292.322
  20
4650894.918
  0
VERTEX
  8
Unknown_Area_Type
  10
397394.491
  20
4650894.918
  0
SEQEND
  8
Unknown_Area_Type
  0
INSERT
  8
FeatureAttribs
  2
FEATURE
  41
1
  42
1
  43
1
  50
0
  10
395878.208
  20
4649456.153
 66
1
  0
ATTRIB
  8
FeatureAttribs
 70
0
  1
PNOA-H_AMS_1956-57_33k_ES_PAN_2
  2
NAME
  10
395878.208
  20
4649456.153
 40
33.75130
  0
SEQEND
  0
POLYLINE
  8
Unknown_Area_Type
  70
1
  66
1
  0
VERTEX
  8
Unknown_Area_Type
  10
397399.582
  20
4650518.652
  0
VERTEX
  8
Unknown_Area_Type
  10
397427.000
  20
4648492.500
  0
VERTEX
  8
Unknown_Area_Type
  10
396976.000
  20
4648249.000
  0
VERTEX
  8
Unknown_Area_Type
  10
394322.500
  20
4648499.000
  0
VERTEX
  8
Unknown_Area_Type
  10
394296.488
  20
4650564.180
  0
VERTEX
  8
Unknown_Area_Type
  10
394751.687
  20
4650557.312
  0
VERTEX
  8
Unknown_Area_Type
  10
397399.582
  20
4650518.652
  0
SEQEND
  8
Unknown_Area_Type
  0
INSERT
  8
FeatureAttribs
  2
FEATURE
  41
1
  42
1
  43
1
  50
0
  10
395878.208
  20
4649456.153
 66
1
  0
ATTRIB
  8
FeatureAttribs
 70
0
  1
PNOA-H_AMS_1956-57_33k_ES_PAN_2
  2
NAME
  10
395878.208
  20
4649456.153
 40
33.75130
  0
SEQEND
  0
POLYLINE
  8
Unknown_Area_Type
  70
1
  66
1
  0
VERTEX
  8
Unknown_Area_Type
  10
397399.582
  20
4650518.652
  0
VERTEX
  8
Unknown_Area_Type
  10
394751.687
  20
4650557.312
  0
VERTEX
  8
Unknown_Area_Type
  10
394296.488
  20
4650564.180
  0
VERTEX
  8
Unknown_Area_Type
  10
394322.500
  20
4648499.000
  0
VERTEX
  8
Unknown_Area_Type
  10
396976.000
  20
4648249.000
  0
VERTEX
  8
Unknown_Area_Type
  10
397427.000
  20
4648492.500
  0
VERTEX
  8
Unknown_Area_Type
  10
397399.582
  20
4650518.652
  0
SEQEND
  8
Unknown_Area_Type
  0
INSERT
  8
FeatureAttribs
  2
FEATURE
  41
1
  42
1
  43
1
  50
0
  10
389680.939
  20
4650752.778
 66
1
  0
ATTRIB
  8
FeatureAttribs
 70
0
  1
PNOA-H_AMS_1956-57_33k_ES_PAN_2
  2
NAME
  10
389680.939
  20
4650752.778
 40
33.75130
  0
SEQEND
  0
POLYLINE
  8
Unknown_Area_Type
  70
1
  66
1
  0
VERTEX
  8
Unknown_Area_Type
  10
391219.363
  20
4650894.918
  0
VERTEX
  8
Unknown_Area_Type
  10
391219.922
  20
4650610.637
  0
VERTEX
  8
Unknown_Area_Type
  10
388140.876
  20
4650658.591
  0
VERTEX
  8
Unknown_Area_Type
  10
388144.285
  20
4650894.918
  0
VERTEX
  8
Unknown_Area_Type
  10
391219.363
  20
4650894.918
  0
SEQEND
  8
Unknown_Area_Type
  0
INSERT
  8
FeatureAttribs
  2
FEATURE
  41
1
  42
1
  43
1
  50
0
  10
389694.266
  20
4649540.509
 66
1
  0
ATTRIB
  8
FeatureAttribs
 70
0
  1
PNOA-H_AMS_1956-57_33k_ES_PAN_2
  2
NAME
  10
389694.266
  20
4649540.509
 40
33.75130
  0
SEQEND
  0
POLYLINE
  8
Unknown_Area_Type
  70
1
  66
1
  0
VERTEX
  8
Unknown_Area_Type
  10
391219.922
  20
4650610.637
  0
VERTEX
  8
Unknown_Area_Type
  10
391224.000
  20
4648538.000
  0
VERTEX
  8
Unknown_Area_Type
  10
390886.500
  20
4648324.000
  0
VERTEX
  8
Unknown_Area_Type
  10
388111.000
  20
4648587.500
  0
VERTEX
  8
Unknown_Area_Type
  10
388140.876
  20
4650658.591
  0
VERTEX
  8
Unknown_Area_Type
  10
391219.922
  20
4650610.637
  0
SEQEND
  8
Unknown_Area_Type
  0
INSERT
  8
FeatureAttribs
  2
FEATURE
  41
1
  42
1
  43
1
  50
0
  10
389694.266
  20
4649540.509
 66
1
  0
ATTRIB
  8
FeatureAttribs
 70
0
  1
PNOA-H_AMS_1956-57_33k_ES_PAN_2
  2
NAME
  10
389694.266
  20
4649540.509
 40
33.75130
  0
SEQEND
  0
POLYLINE
  8
Unknown_Area_Type
  70
1
  66
1
  0
VERTEX
  8
Unknown_Area_Type
  10
391219.922
  20
4650610.637
  0
VERTEX
  8
Unknown_Area_Type
  10
388140.876
  20
4650658.591
  0
VERTEX
  8
Unknown_Area_Type
  10
388111.000
  20
4648587.500
  0
VERTEX
  8
Unknown_Area_Type
  10
390886.500
  20
4648324.000
  0
VERTEX
  8
Unknown_Area_Type
  10
391224.000
  20
4648538.000
  0
VERTEX
  8
Unknown_Area_Type
  10
391219.922
  20
4650610.637
  0
SEQEND
  8
Unknown_Area_Type
  0
INSERT
  8
FeatureAttribs
  2
FEATURE
  41
1
  42
1
  43
1
  50
0
  10
383589.048
  20
4650801.210
 66
1
  0
ATTRIB
  8
FeatureAttribs
 70
0
  1
PNOA-H_AMS_1956-57_33k_ES_PAN_2
  2
NAME
  10
383589.048
  20
4650801.210
 40
33.75130
  0
SEQEND
  0
POLYLINE
  8
Unknown_Area_Type
  70
1
  66
1
  0
VERTEX
  8
Unknown_Area_Type
  10
385089.101
  20
4650894.918
  0
VERTEX
  8
Unknown_Area_Type
  10
385086.692
  20
4650707.502
  0
VERTEX
  8
Unknown_Area_Type
  10
384399.186
  20
4650718.545
  0
VERTEX
  8
Unknown_Area_Type
  10
382089.312
  20
4650756.768
  0
VERTEX
  8
Unknown_Area_Type
  10
382092.071
  20
4650894.918
  0
VERTEX
  8
Unknown_Area_Type
  10
385089.101
  20
4650894.918
  0
SEQEND
  8
Unknown_Area_Type
  0
INSERT
  8
FeatureAttribs
  2
FEATURE
  41
1
  42
1
  43
1
  50
0
  10
383598.698
  20
4649651.992
 66
1
  0
ATTRIB
  8
FeatureAttribs
 70
0
  1
PNOA-H_AMS_1956-57_33k_ES_PAN_2
  2
NAME
  10
383598.698
  20
4649651.992
 40
33.75130
  0
SEQEND
  0
POLYLINE
  8
Unknown_Area_Type
  70
1
  66
1
  0
VERTEX
  8
Unknown_Area_Type
  10
385086.692
  20
4650707.502
  0
VERTEX
  8
Unknown_Area_Type
  10
385060.500
  20
4648670.000
  0
VERTEX
  8
Unknown_Area_Type
  10
384641.500
  20
4648407.500
  0
VERTEX
  8
Unknown_Area_Type
  10
384627.000
  20
4648408.500
  0
VERTEX
  8
Unknown_Area_Type
  10
382049.500
  20
4648763.000
  0
VERTEX
  8
Unknown_Area_Type
  10
382089.312
  20
4650756.768
  0
VERTEX
  8
Unknown_Area_Type
  10
384399.186
  20
4650718.545
  0
VERTEX
  8
Unknown_Area_Type
  10
385086.692
  20
4650707.502
  0
SEQEND
  8
Unknown_Area_Type
  0
INSERT
  8
FeatureAttribs
  2
FEATURE
  41
1
  42
1
  43
1
  50
0
  10
383598.698
  20
4649651.992
 66
1
  0
ATTRIB
  8
FeatureAttribs
 70
0
  1
PNOA-H_AMS_1956-57_33k_ES_PAN_2
  2
NAME
  10
383598.698
  20
4649651.992
 40
33.75130
  0
SEQEND
  0
POLYLINE
  8
Unknown_Area_Type
  70
1
  66
1
  0
VERTEX
  8
Unknown_Area_Type
  10
385086.692
  20
4650707.502
  0
VERTEX
  8
Unknown_Area_Type
  10
384399.186
  20
4650718.545
  0
VERTEX
  8
Unknown_Area_Type
  10
382089.312
  20
4650756.768
  0
VERTEX
  8
Unknown_Area_Type
  10
382049.500
  20
4648763.000
  0
VERTEX
  8
Unknown_Area_Type
  10
384627.000
  20
4648408.500
  0
VERTEX
  8
Unknown_Area_Type
  10
384641.500
  20
4648407.500
  0
VERTEX
  8
Unknown_Area_Type
  10
385060.500
  20
4648670.000
  0
VERTEX
  8
Unknown_Area_Type
  10
385086.692
  20
4650707.502
  0
SEQEND
  8
Unknown_Area_Type
  0
INSERT
  8
FeatureAttribs
  2
FEATURE
  41
1
  42
1
  43
1
  50
0
  10
374046.363
  20
4650894.909
 66
1
  0
ATTRIB
  8
FeatureAttribs
 70
0
  1
PNOA-H_AMS_1956-57_33k_ES_PAN_2
  2
NAME
  10
374046.363
  20
4650894.909
 40
33.75130
  0
SEQEND
  0
POLYLINE
  8
Unknown_Area_Type
  70
1
  66
1
  0
VERTEX
  8
Unknown_Area_Type
  10
374046.626
  20
4650894.918
  0
VERTEX
  8
Unknown_Area_Type
  10
374046.626
  20
4650894.899
  0
VERTEX
  8
Unknown_Area_Type
  10
374045.574
  20
4650894.918
  0
VERTEX
  8
Unknown_Area_Type
  10
374046.626
  20
4650894.918
  0
SEQEND
  8
Unknown_Area_Type
  0
INSERT
  8
FeatureAttribs
  2
FEATURE
  41
1
  42
1
  43
1
  50
0
  10
375603.353
  20
4650876.723
 66
1
  0
ATTRIB
  8
FeatureAttribs
 70
0
  1
PNOA-H_AMS_1956-57_33k_ES_PAN_2
  2
NAME
  10
375603.353
  20
4650876.723
 40
33.75130
  0
SEQEND
  0
POLYLINE
  8
Unknown_Area_Type
  70
1
  66
1
  0
VERTEX
  8
Unknown_Area_Type
  10
376122.999
  20
4650894.918
  0
VERTEX
  8
Unknown_Area_Type
  10
376122.434
  20
4650858.527
  0
VERTEX
  8
Unknown_Area_Type
  10
374046.626
  20
4650894.899
  0
VERTEX
  8
Unknown_Area_Type
  10
374046.626
  20
4650894.918
  0
VERTEX
  8
Unknown_Area_Type
  10
376122.999
  20
4650894.918
  0
SEQEND
  8
Unknown_Area_Type
  0
INSERT
  8
FeatureAttribs
  2
FEATURE
  41
1
  42
1
  43
1
  50
0
  10
373873.034
  20
4649828.734
 66
1
  0
ATTRIB
  8
FeatureAttribs
 70
0
  1
PNOA-H_AMS_1956-57_33k_ES_PAN_2
  2
NAME
  10
373873.034
  20
4649828.734
 40
33.75130
  0
SEQEND
  0
POLYLINE
  8
Unknown_Area_Type
  70
1
  66
1
  0
VERTEX
  8
Unknown_Area_Type
  10
374008.752
  20
4648762.549
  0
VERTEX
  8
Unknown_Area_Type
  10
373718.378
  20
4648797.530
  0
VERTEX
  8
Unknown_Area_Type
  10
373718.378
  20
4650894.918
  0
VERTEX
  8
Unknown_Area_Type
  10
374045.574
  20
4650894.918
  0
VERTEX
  8
Unknown_Area_Type
  10
374046.626
  20
4650894.899
  0
VERTEX
  8
Unknown_Area_Type
  10
374008.752
  20
4648762.549
  0
SEQEND
  8
Unknown_Area_Type
  0
INSERT
  8
FeatureAttribs
  2
FEATURE
  41
1
  42
1
  43
1
  50
0
  10
375066.413
  20
4649776.547
 66
1
  0
ATTRIB
  8
FeatureAttribs
 70
0
  1
PNOA-H_AMS_1956-57_33k_ES_PAN_2
  2
NAME
  10
375066.413
  20
4649776.547
 40
33.75130
  0
SEQEND
  0
POLYLINE
  8
Unknown_Area_Type
  70
1
  66
1
  0
VERTEX
  8
Unknown_Area_Type
  10
376122.434
  20
4650858.527
  0
VERTEX
  8
Unknown_Area_Type
  10
376091.500
  20
4648866.000
  0
VERTEX
  8
Unknown_Area_Type
  10
375596.500
  20
4648572.500
  0
VERTEX
  8
Unknown_Area_Type
  10
375590.500
  20
4648572.000
  0
VERTEX
  8
Unknown_Area_Type
  10
374008.752
  20
4648762.549
  0
VERTEX
  8
Unknown_Area_Type
  10
374046.626
  20
4650894.899
  0
VERTEX
  8
Unknown_Area_Type
  10
376122.434
  20
4650858.527
  0
SEQEND
  8
Unknown_Area_Type
  0
INSERT
  8
FeatureAttribs
  2
FEATURE
  41
1
  42
1
  43
1
  50
0
  10
375066.413
  20
4649776.547
 66
1
  0
ATTRIB
  8
FeatureAttribs
 70
0
  1
PNOA-H_AMS_1956-57_33k_ES_PAN_2
  2
NAME
  10
375066.413
  20
4649776.547
 40
33.75130
  0
SEQEND
  0
POLYLINE
  8
Unknown_Area_Type
  70
1
  66
1
  0
VERTEX
  8
Unknown_Area_Type
  10
376122.434
  20
4650858.527
  0
VERTEX
  8
Unknown_Area_Type
  10
374046.626
  20
4650894.899
  0
VERTEX
  8
Unknown_Area_Type
  10
374008.752
  20
4648762.549
  0
VERTEX
  8
Unknown_Area_Type
  10
375590.500
  20
4648572.000
  0
VERTEX
  8
Unknown_Area_Type
  10
375596.500
  20
4648572.500
  0
VERTEX
  8
Unknown_Area_Type
  10
376091.500
  20
4648866.000
  0
VERTEX
  8
Unknown_Area_Type
  10
376122.434
  20
4650858.527
  0
SEQEND
  8
Unknown_Area_Type
  0
INSERT
  8
FeatureAttribs
  2
FEATURE
  41
1
  42
1
  43
1
  50
0
  10
377820.514
  20
4650851.084
 66
1
  0
ATTRIB
  8
FeatureAttribs
 70
0
  1
PNOA-H_AMS_1956-57_33k_ES_PAN_2
  2
NAME
  10
377820.514
  20
4650851.084
 40
33.75130
  0
SEQEND
  0
POLYLINE
  8
Unknown_Area_Type
  70
1
  66
1
  0
VERTEX
  8
Unknown_Area_Type
  10
379094.309
  20
4650894.918
  0
VERTEX
  8
Unknown_Area_Type
  10
379093.275
  20
4650807.250
  0
VERTEX
  8
Unknown_Area_Type
  10
377497.486
  20
4650834.434
  0
VERTEX
  8
Unknown_Area_Type
  10
376122.227
  20
4650858.531
  0
VERTEX
  8
Unknown_Area_Type
  10
376122.788
  20
4650894.918
  0
VERTEX
  8
Unknown_Area_Type
  10
379094.309
  20
4650894.918
  0
SEQEND
  8
Unknown_Area_Type
  0
INSERT
  8
FeatureAttribs
  2
FEATURE
  41
1
  42
1
  43
1
  50
0
  10
377615.317
  20
4649758.092
 66
1
  0
ATTRIB
  8
FeatureAttribs
 70
0
  1
PNOA-H_AMS_1956-57_33k_ES_PAN_2
  2
NAME
  10
377615.317
  20
4649758.092
 40
33.75130
  0
SEQEND
  0
POLYLINE
  8
Unknown_Area_Type
  70
1
  66
1
  0
VERTEX
  8
Unknown_Area_Type
  10
379093.275
  20
4650807.250
  0
VERTEX
  8
Unknown_Area_Type
  10
379070.000
  20
4648833.000
  0
VERTEX
  8
Unknown_Area_Type
  10
378549.000
  20
4648517.500
  0
VERTEX
  8
Unknown_Area_Type
  10
376091.500
  20
4648866.000
  0
VERTEX
  8
Unknown_Area_Type
  10
376122.227
  20
4650858.531
  0
VERTEX
  8
Unknown_Area_Type
  10
377497.486
  20
4650834.434
  0
VERTEX
  8
Unknown_Area_Type
  10
379093.275
  20
4650807.250
  0
SEQEND
  8
Unknown_Area_Type
  0
INSERT
  8
FeatureAttribs
  2
FEATURE
  41
1
  42
1
  43
1
  50
0
  10
377615.317
  20
4649758.092
 66
1
  0
ATTRIB
  8
FeatureAttribs
 70
0
  1
PNOA-H_AMS_1956-57_33k_ES_PAN_2
  2
NAME
  10
377615.317
  20
4649758.092
 40
33.75130
  0
SEQEND
  0
POLYLINE
  8
Unknown_Area_Type
  70
1
  66
1
  0
VERTEX
  8
Unknown_Area_Type
  10
379093.275
  20
4650807.250
  0
VERTEX
  8
Unknown_Area_Type
  10
377497.486
  20
4650834.434
  0
VERTEX
  8
Unknown_Area_Type
  10
376122.227
  20
4650858.531
  0
VERTEX
  8
Unknown_Area_Type
  10
376091.500
  20
4648866.000
  0
VERTEX
  8
Unknown_Area_Type
  10
378549.000
  20
4648517.500
  0
VERTEX
  8
Unknown_Area_Type
  10
379070.000
  20
4648833.000
  0
VERTEX
  8
Unknown_Area_Type
  10
379093.275
  20
4650807.250
  0
SEQEND
  8
Unknown_Area_Type
  0
INSERT
  8
FeatureAttribs
  2
FEATURE
  41
1
  42
1
  43
1
  50
0
  10
401047.654
  20
4650676.572
 66
1
  0
ATTRIB
  8
FeatureAttribs
 70
0
  1
PNOA-H_AMS_1956-57_33k_ES_PAN_2
  2
NAME
  10
401047.654
  20
4650676.572
 40
33.75130
  0
SEQEND
  0
POLYLINE
  8
Unknown_Area_Type
  70
1
  66
1
  0
VERTEX
  8
Unknown_Area_Type
  10
400446.082
  20
4650475.264
  0
VERTEX
  8
Unknown_Area_Type
  10
400437.481
  20
4650894.918
  0
VERTEX
  8
Unknown_Area_Type
  10
401653.353
  20
4650894.918
  0
VERTEX
  8
Unknown_Area_Type
  10
401653.353
  20
4650460.239
  0
VERTEX
  8
Unknown_Area_Type
  10
401653.325
  20
4650458.225
  0
VERTEX
  8
Unknown_Area_Type
  10
400446.082
  20
4650475.264
  0
SEQEND
  8
Unknown_Area_Type
  0
INSERT
  8
FeatureAttribs
  2
FEATURE
  41
1
  42
1
  43
1
  50
0
  10
401653.339
  20
4650458.728
 66
1
  0
ATTRIB
  8
FeatureAttribs
 70
0
  1
PNOA-H_AMS_1956-57_33k_ES_PAN_2
  2
NAME
  10
401653.339
  20
4650458.728
 40
33.75130
  0
SEQEND
  0
POLYLINE
  8
Unknown_Area_Type
  70
1
  66
1
  0
VERTEX
  8
Unknown_Area_Type
  10
401653.353
  20
4650460.239
  0
VERTEX
  8
Unknown_Area_Type
  10
401653.353
  20
4650458.225
  0
VERTEX
  8
Unknown_Area_Type
  10
401653.325
  20
4650458.225
  0
VERTEX
  8
Unknown_Area_Type
  10
401653.353
  20
4650460.239
  0
SEQEND
  8
Unknown_Area_Type
  0
INSERT
  8
FeatureAttribs
  2
FEATURE
  41
1
  42
1
  43
1
  50
0
  10
401645.663
  20
4649351.224
 66
1
  0
ATTRIB
  8
FeatureAttribs
 70
0
  1
PNOA-H_AMS_1956-57_33k_ES_PAN_2
  2
NAME
  10
401645.663
  20
4649351.224
 40
33.75130
  0
SEQEND
  0
POLYLINE
  8
Unknown_Area_Type
  70
1
  66
1
  0
VERTEX
  8
Unknown_Area_Type
  10
401653.353
  20
4648244.223
  0
VERTEX
  8
Unknown_Area_Type
  10
401622.690
  20
4648249.111
  0
VERTEX
  8
Unknown_Area_Type
  10
401653.325
  20
4650458.225
  0
VERTEX
  8
Unknown_Area_Type
  10
401653.353
  20
4650458.225
  0
VERTEX
  8
Unknown_Area_Type
  10
401653.353
  20
4648244.223
  0
SEQEND
  8
Unknown_Area_Type
  0
INSERT
  8
FeatureAttribs
  2
FEATURE
  41
1
  42
1
  43
1
  50
0
  10
401060.294
  20
4649413.542
 66
1
  0
ATTRIB
  8
FeatureAttribs
 70
0
  1
PNOA-H_AMS_1956-57_33k_ES_PAN_2
  2
NAME
  10
401060.294
  20
4649413.542
 40
33.75130
  0
SEQEND
  0
POLYLINE
  8
Unknown_Area_Type
  70
1
  66
1
  0
VERTEX
  8
Unknown_Area_Type
  10
401622.690
  20
4648249.111
  0
VERTEX
  8
Unknown_Area_Type
  10
400488.000
  20
4648430.000
  0
VERTEX
  8
Unknown_Area_Type
  10
400446.082
  20
4650475.264
  0
VERTEX
  8
Unknown_Area_Type
  10
401653.325
  20
4650458.225
  0
VERTEX
  8
Unknown_Area_Type
  10
401622.690
  20
4648249.111
  0
SEQEND
  8
Unknown_Area_Type
  0
INSERT
  8
FeatureAttribs
  2
FEATURE
  41
1
  42
1
  43
1
  50
0
  10
401060.294
  20
4649413.542
 66
1
  0
ATTRIB
  8
FeatureAttribs
 70
0
  1
PNOA-H_AMS_1956-57_33k_ES_PAN_2
  2
NAME
  10
401060.294
  20
4649413.542
 40
33.75130
  0
SEQEND
  0
POLYLINE
  8
Unknown_Area_Type
  70
1
  66
1
  0
VERTEX
  8
Unknown_Area_Type
  10
401622.690
  20
4648249.111
  0
VERTEX
  8
Unknown_Area_Type
  10
401653.325
  20
4650458.225
  0
VERTEX
  8
Unknown_Area_Type
  10
400446.082
  20
4650475.264
  0
VERTEX
  8
Unknown_Area_Type
  10
400488.000
  20
4648430.000
  0
VERTEX
  8
Unknown_Area_Type
  10
401622.690
  20
4648249.111
  0
SEQEND
  8
Unknown_Area_Type
  0
INSERT
  8
FeatureAttribs
  2
FEATURE
  41
1
  42
1
  43
1
  50
0
  10
373805.477
  20
4642216.822
 66
1
  0
ATTRIB
  8
FeatureAttribs
 70
0
  1
PNOA-H_AMS_1956-57_33k_ES_PAN_2
  2
NAME
  10
373805.477
  20
4642216.822
 40
33.75130
  0
SEQEND
  0
POLYLINE
  8
Unknown_Area_Type
  70
1
  66
1
  0
VERTEX
  8
Unknown_Area_Type
  10
373932.346
  20
4644458.445
  0
VERTEX
  8
Unknown_Area_Type
  10
373923.418
  20
4643955.371
  0
VERTEX
  8
Unknown_Area_Type
  10
373882.382
  20
4641642.211
  0
VERTEX
  8
Unknown_Area_Type
  10
373852.821
  20
4639975.200
  0
VERTEX
  8
Unknown_Area_Type
  10
373718.378
  20
4639976.571
  0
VERTEX
  8
Unknown_Area_Type
  10
373718.378
  20
4644452.549
  0
VERTEX
  8
Unknown_Area_Type
  10
373932.346
  20
4644458.445
  0
SEQEND
  8
Unknown_Area_Type
  0
INSERT
  8
FeatureAttribs
  2
FEATURE
  41
1
  42
1
  43
1
  50
0
  10
374309.244
  20
4642791.079
 66
1
  0
ATTRIB
  8
FeatureAttribs
 70
0
  1
PNOA-H_AMS_1956-57_33k_ES_PAN_2
  2
NAME
  10
374309.244
  20
4642791.079
 40
33.75130
  0
SEQEND
  0
POLYLINE
  8
Unknown_Area_Type
  70
1
  66
1
  0
VERTEX
  8
Unknown_Area_Type
  10
373932.346
  20
4644458.445
  0
VERTEX
  8
Unknown_Area_Type
  10
375132.000
  20
4644491.500
  0
VERTEX
  8
Unknown_Area_Type
  10
374532.500
  20
4642058.000
  0
VERTEX
  8
Unknown_Area_Type
  10
374532.000
  20
4642056.000
  0
VERTEX
  8
Unknown_Area_Type
  10
374019.500
  20
4639973.500
  0
VERTEX
  8
Unknown_Area_Type
  10
373852.821
  20
4639975.200
  0
VERTEX
  8
Unknown_Area_Type
  10
373882.382
  20
4641642.211
  0
VERTEX
  8
Unknown_Area_Type
  10
373923.418
  20
4643955.371
  0
VERTEX
  8
Unknown_Area_Type
  10
373932.346
  20
4644458.445
  0
SEQEND
  8
Unknown_Area_Type
  0
INSERT
  8
FeatureAttribs
  2
FEATURE
  41
1
  42
1
  43
1
  50
0
  10
374309.244
  20
4642791.079
 66
1
  0
ATTRIB
  8
FeatureAttribs
 70
0
  1
PNOA-H_AMS_1956-57_33k_ES_PAN_2
  2
NAME
  10
374309.244
  20
4642791.079
 40
33.75130
  0
SEQEND
  0
POLYLINE
  8
Unknown_Area_Type
  70
1
  66
1
  0
VERTEX
  8
Unknown_Area_Type
  10
373932.346
  20
4644458.445
  0
VERTEX
  8
Unknown_Area_Type
  10
373923.418
  20
4643955.371
  0
VERTEX
  8
Unknown_Area_Type
  10
373882.382
  20
4641642.211
  0
VERTEX
  8
Unknown_Area_Type
  10
373852.821
  20
4639975.200
  0
VERTEX
  8
Unknown_Area_Type
  10
374019.500
  20
4639973.500
  0
VERTEX
  8
Unknown_Area_Type
  10
374532.000
  20
4642056.000
  0
VERTEX
  8
Unknown_Area_Type
  10
374532.500
  20
4642058.000
  0
VERTEX
  8
Unknown_Area_Type
  10
375132.000
  20
4644491.500
  0
VERTEX
  8
Unknown_Area_Type
  10
373932.346
  20
4644458.445
  0
SEQEND
  8
Unknown_Area_Type
  0
INSERT
  8
FeatureAttribs
  2
FEATURE
  41
1
  42
1
  43
1
  50
0
  10
376617.810
  20
4641688.251
 66
1
  0
ATTRIB
  8
FeatureAttribs
 70
0
  1
PNOA-H_AMS_1956-57_33k_ES_PAN_2
  2
NAME
  10
376617.810
  20
4641688.251
 40
33.75130
  0
SEQEND
  0
POLYLINE
  8
Unknown_Area_Type
  70
1
  66
1
  0
VERTEX
  8
Unknown_Area_Type
  10
376083.500
  20
4644326.500
  0
VERTEX
  8
Unknown_Area_Type
  10
376849.000
  20
4644312.000
  0
VERTEX
  8
Unknown_Area_Type
  10
376852.500
  20
4644311.500
  0
VERTEX
  8
Unknown_Area_Type
  10
376853.000
  20
4644310.500
  0
VERTEX
  8
Unknown_Area_Type
  10
377761.500
  20
4639768.000
  0
VERTEX
  8
Unknown_Area_Type
  10
377761.500
  20
4639766.000
  0
VERTEX
  8
Unknown_Area_Type
  10
377732.000
  20
4639765.500
  0
VERTEX
  8
Unknown_Area_Type
  10
375696.500
  20
4639743.000
  0
VERTEX
  8
Unknown_Area_Type
  10
376083.500
  20
4644322.000
  0
VERTEX
  8
Unknown_Area_Type
  10
376083.500
  20
4644326.500
  0
SEQEND
  8
Unknown_Area_Type
  0
INSERT
  8
FeatureAttribs
  2
FEATURE
  41
1
  42
1
  43
1
  50
0
  10
376617.810
  20
4641688.251
 66
1
  0
ATTRIB
  8
FeatureAttribs
 70
0
  1
PNOA-H_AMS_1956-57_33k_ES_PAN_2
  2
NAME
  10
376617.810
  20
4641688.251
 40
33.75130
  0
SEQEND
  0
POLYLINE
  8
Unknown_Area_Type
  70
1
  66
1
  0
VERTEX
  8
Unknown_Area_Type
  10
376083.500
  20
4644326.500
  0
VERTEX
  8
Unknown_Area_Type
  10
376083.500
  20
4644322.000
  0
VERTEX
  8
Unknown_Area_Type
  10
375696.500
  20
4639743.000
  0
VERTEX
  8
Unknown_Area_Type
  10
377732.000
  20
4639765.500
  0
VERTEX
  8
Unknown_Area_Type
  10
377761.500
  20
4639766.000
  0
VERTEX
  8
Unknown_Area_Type
  10
377761.500
  20
4639768.000
  0
VERTEX
  8
Unknown_Area_Type
  10
376853.000
  20
4644310.500
  0
VERTEX
  8
Unknown_Area_Type
  10
376852.500
  20
4644311.500
  0
VERTEX
  8
Unknown_Area_Type
  10
376849.000
  20
4644312.000
  0
VERTEX
  8
Unknown_Area_Type
  10
376083.500
  20
4644326.500
  0
SEQEND
  8
Unknown_Area_Type
  0
INSERT
  8
FeatureAttribs
  2
FEATURE
  41
1
  42
1
  43
1
  50
0
  10
393409.221
  20
4639897.722
 66
1
  0
ATTRIB
  8
FeatureAttribs
 70
0
  1
PNOA-H_AMS_1956-57_33k_ES_PAN_2
  2
NAME
  10
393409.221
  20
4639897.722
 40
33.75130
  0
SEQEND
  0
POLYLINE
  8
Unknown_Area_Type
  70
1
  66
1
  0
VERTEX
  8
Unknown_Area_Type
  10
392849.500
  20
4641573.500
  0
VERTEX
  8
Unknown_Area_Type
  10
393026.500
  20
4641910.000
  0
VERTEX
  8
Unknown_Area_Type
  10
393028.500
  20
4641913.500
  0
VERTEX
  8
Unknown_Area_Type
  10
393029.500
  20
4641913.500
  0
VERTEX
  8
Unknown_Area_Type
  10
394881.000
  20
4640209.500
  0
VERTEX
  8
Unknown_Area_Type
  10
394759.500
  20
4638555.500
  0
VERTEX
  8
Unknown_Area_Type
  10
391962.000
  20
4638751.500
  0
VERTEX
  8
Unknown_Area_Type
  10
391956.500
  20
4638753.000
  0
VERTEX
  8
Unknown_Area_Type
  10
391927.500
  20
4638777.500
  0
VERTEX
  8
Unknown_Area_Type
  10
391926.000
  20
4638779.000
  0
VERTEX
  8
Unknown_Area_Type
  10
391926.000
  20
4638782.000
  0
VERTEX
  8
Unknown_Area_Type
  10
392071.000
  20
4640094.000
  0
VERTEX
  8
Unknown_Area_Type
  10
392849.500
  20
4641572.500
  0
VERTEX
  8
Unknown_Area_Type
  10
392849.500
  20
4641573.500
  0
SEQEND
  8
Unknown_Area_Type
  0
INSERT
  8
FeatureAttribs
  2
FEATURE
  41
1
  42
1
  43
1
  50
0
  10
393409.221
  20
4639897.722
 66
1
  0
ATTRIB
  8
FeatureAttribs
 70
0
  1
PNOA-H_AMS_1956-57_33k_ES_PAN_2
  2
NAME
  10
393409.221
  20
4639897.722
 40
33.75130
  0
SEQEND
  0
POLYLINE
  8
Unknown_Area_Type
  70
1
  66
1
  0
VERTEX
  8
Unknown_Area_Type
  10
392849.500
  20
4641573.500
  0
VERTEX
  8
Unknown_Area_Type
  10
392849.500
  20
4641572.500
  0
VERTEX
  8
Unknown_Area_Type
  10
392071.000
  20
4640094.000
  0
VERTEX
  8
Unknown_Area_Type
  10
391926.000
  20
4638782.000
  0
VERTEX
  8
Unknown_Area_Type
  10
391926.000
  20
4638779.000
  0
VERTEX
  8
Unknown_Area_Type
  10
391927.500
  20
4638777.500
  0
VERTEX
  8
Unknown_Area_Type
  10
391956.500
  20
4638753.000
  0
VERTEX
  8
Unknown_Area_Type
  10
391962.000
  20
4638751.500
  0
VERTEX
  8
Unknown_Area_Type
  10
394759.500
  20
4638555.500
  0
VERTEX
  8
Unknown_Area_Type
  10
394881.000
  20
4640209.500
  0
VERTEX
  8
Unknown_Area_Type
  10
393029.500
  20
4641913.500
  0
VERTEX
  8
Unknown_Area_Type
  10
393028.500
  20
4641913.500
  0
VERTEX
  8
Unknown_Area_Type
  10
393026.500
  20
4641910.000
  0
VERTEX
  8
Unknown_Area_Type
  10
392849.500
  20
4641573.500
  0
SEQEND
  8
Unknown_Area_Type
  0
INSERT
  8
FeatureAttribs
  2
FEATURE
  41
1
  42
1
  43
1
  50
0
  10
382166.130
  20
4640718.789
 66
1
  0
ATTRIB
  8
FeatureAttribs
 70
0
  1
PNOA-H_AMS_1956-57_33k_ES_PAN_2
  2
NAME
  10
382166.130
  20
4640718.789
 40
33.75130
  0
SEQEND
  0
POLYLINE
  8
Unknown_Area_Type
  70
1
  66
1
  0
VERTEX
  8
Unknown_Area_Type
  10
382610.000
  20
4642098.500
  0
VERTEX
  8
Unknown_Area_Type
  10
383599.000
  20
4640102.500
  0
VERTEX
  8
Unknown_Area_Type
  10
383549.000
  20
4639354.000
  0
VERTEX
  8
Unknown_Area_Type
  10
383543.500
  20
4639353.000
  0
VERTEX
  8
Unknown_Area_Type
  10
381156.500
  20
4639316.000
  0
VERTEX
  8
Unknown_Area_Type
  10
380779.500
  20
4639568.000
  0
VERTEX
  8
Unknown_Area_Type
  10
380821.000
  20
4639995.500
  0
VERTEX
  8
Unknown_Area_Type
  10
381989.500
  20
4643352.000
  0
VERTEX
  8
Unknown_Area_Type
  10
382610.000
  20
4642099.500
  0
VERTEX
  8
Unknown_Area_Type
  10
382610.000
  20
4642098.500
  0
SEQEND
  8
Unknown_Area_Type
  0
INSERT
  8
FeatureAttribs
  2
FEATURE
  41
1
  42
1
  43
1
  50
0
  10
382166.130
  20
4640718.789
 66
1
  0
ATTRIB
  8
FeatureAttribs
 70
0
  1
PNOA-H_AMS_1956-57_33k_ES_PAN_2
  2
NAME
  10
382166.130
  20
4640718.789
 40
33.75130
  0
SEQEND
  0
POLYLINE
  8
Unknown_Area_Type
  70
1
  66
1
  0
VERTEX
  8
Unknown_Area_Type
  10
382610.000
  20
4642098.500
  0
VERTEX
  8
Unknown_Area_Type
  10
382610.000
  20
4642099.500
  0
VERTEX
  8
Unknown_Area_Type
  10
381989.500
  20
4643352.000
  0
VERTEX
  8
Unknown_Area_Type
  10
380821.000
  20
4639995.500
  0
VERTEX
  8
Unknown_Area_Type
  10
380779.500
  20
4639568.000
  0
VERTEX
  8
Unknown_Area_Type
  10
381156.500
  20
4639316.000
  0
VERTEX
  8
Unknown_Area_Type
  10
383543.500
  20
4639353.000
  0
VERTEX
  8
Unknown_Area_Type
  10
383549.000
  20
4639354.000
  0
VERTEX
  8
Unknown_Area_Type
  10
383599.000
  20
4640102.500
  0
VERTEX
  8
Unknown_Area_Type
  10
382610.000
  20
4642098.500
  0
SEQEND
  8
Unknown_Area_Type
  0
INSERT
  8
FeatureAttribs
  2
FEATURE
  41
1
  42
1
  43
1
  50
0
  10
379416.584
  20
4641055.373
 66
1
  0
ATTRIB
  8
FeatureAttribs
 70
0
  1
PNOA-H_AMS_1956-57_33k_ES_PAN_2
  2
NAME
  10
379416.584
  20
4641055.373
 40
33.75130
  0
SEQEND
  0
POLYLINE
  8
Unknown_Area_Type
  70
1
  66
1
  0
VERTEX
  8
Unknown_Area_Type
  10
380562.000
  20
4640615.500
  0
VERTEX
  8
Unknown_Area_Type
  10
380821.000
  20
4639996.000
  0
VERTEX
  8
Unknown_Area_Type
  10
380779.500
  20
4639568.000
  0
VERTEX
  8
Unknown_Area_Type
  10
378451.500
  20
4639519.500
  0
VERTEX
  8
Unknown_Area_Type
  10
378171.500
  20
4639701.500
  0
VERTEX
  8
Unknown_Area_Type
  10
379137.500
  20
4644029.500
  0
VERTEX
  8
Unknown_Area_Type
  10
379140.000
  20
4644025.500
  0
VERTEX
  8
Unknown_Area_Type
  10
380562.000
  20
4640617.000
  0
VERTEX
  8
Unknown_Area_Type
  10
380562.000
  20
4640615.500
  0
SEQEND
  8
Unknown_Area_Type
  0
INSERT
  8
FeatureAttribs
  2
FEATURE
  41
1
  42
1
  43
1
  50
0
  10
379416.584
  20
4641055.373
 66
1
  0
ATTRIB
  8
FeatureAttribs
 70
0
  1
PNOA-H_AMS_1956-57_33k_ES_PAN_2
  2
NAME
  10
379416.584
  20
4641055.373
 40
33.75130
  0
SEQEND
  0
POLYLINE
  8
Unknown_Area_Type
  70
1
  66
1
  0
VERTEX
  8
Unknown_Area_Type
  10
380562.000
  20
4640615.500
  0
VERTEX
  8
Unknown_Area_Type
  10
380562.000
  20
4640617.000
  0
VERTEX
  8
Unknown_Area_Type
  10
379140.000
  20
4644025.500
  0
VERTEX
  8
Unknown_Area_Type
  10
379137.500
  20
4644029.500
  0
VERTEX
  8
Unknown_Area_Type
  10
378171.500
  20
4639701.500
  0
VERTEX
  8
Unknown_Area_Type
  10
378451.500
  20
4639519.500
  0
VERTEX
  8
Unknown_Area_Type
  10
380779.500
  20
4639568.000
  0
VERTEX
  8
Unknown_Area_Type
  10
380821.000
  20
4639996.000
  0
VERTEX
  8
Unknown_Area_Type
  10
380562.000
  20
4640615.500
  0
SEQEND
  8
Unknown_Area_Type
  0
INSERT
  8
FeatureAttribs
  2
FEATURE
  41
1
  42
1
  43
1
  50
0
  10
390567.701
  20
4640064.097
 66
1
  0
ATTRIB
  8
FeatureAttribs
 70
0
  1
PNOA-H_AMS_1956-57_33k_ES_PAN_2
  2
NAME
  10
390567.701
  20
4640064.097
 40
33.75130
  0
SEQEND
  0
POLYLINE
  8
Unknown_Area_Type
  70
1
  66
1
  0
VERTEX
  8
Unknown_Area_Type
  10
392061.500
  20
4640008.000
  0
VERTEX
  8
Unknown_Area_Type
  10
391926.000
  20
4638779.500
  0
VERTEX
  8
Unknown_Area_Type
  10
389178.000
  20
4638917.500
  0
VERTEX
  8
Unknown_Area_Type
  10
389077.000
  20
4638997.000
  0
VERTEX
  8
Unknown_Area_Type
  10
389149.000
  20
4639747.500
  0
VERTEX
  8
Unknown_Area_Type
  10
390214.000
  20
4642187.500
  0
VERTEX
  8
Unknown_Area_Type
  10
392070.000
  20
4640095.500
  0
VERTEX
  8
Unknown_Area_Type
  10
392071.000
  20
4640091.000
  0
VERTEX
  8
Unknown_Area_Type
  10
392061.500
  20
4640009.500
  0
VERTEX
  8
Unknown_Area_Type
  10
392061.500
  20
4640008.000
  0
SEQEND
  8
Unknown_Area_Type
  0
INSERT
  8
FeatureAttribs
  2
FEATURE
  41
1
  42
1
  43
1
  50
0
  10
390567.701
  20
4640064.097
 66
1
  0
ATTRIB
  8
FeatureAttribs
 70
0
  1
PNOA-H_AMS_1956-57_33k_ES_PAN_2
  2
NAME
  10
390567.701
  20
4640064.097
 40
33.75130
  0
SEQEND
  0
POLYLINE
  8
Unknown_Area_Type
  70
1
  66
1
  0
VERTEX
  8
Unknown_Area_Type
  10
392061.500
  20
4640008.000
  0
VERTEX
  8
Unknown_Area_Type
  10
392061.500
  20
4640009.500
  0
VERTEX
  8
Unknown_Area_Type
  10
392071.000
  20
4640091.000
  0
VERTEX
  8
Unknown_Area_Type
  10
392070.000
  20
4640095.500
  0
VERTEX
  8
Unknown_Area_Type
  10
390214.000
  20
4642187.500
  0
VERTEX
  8
Unknown_Area_Type
  10
389149.000
  20
4639747.500
  0
VERTEX
  8
Unknown_Area_Type
  10
389077.000
  20
4638997.000
  0
VERTEX
  8
Unknown_Area_Type
  10
389178.000
  20
4638917.500
  0
VERTEX
  8
Unknown_Area_Type
  10
391926.000
  20
4638779.500
  0
VERTEX
  8
Unknown_Area_Type
  10
392061.500
  20
4640008.000
  0
SEQEND
  8
Unknown_Area_Type
  0
INSERT
  8
FeatureAttribs
  2
FEATURE
  41
1
  42
1
  43
1
  50
0
  10
387686.929
  20
4640332.441
 66
1
  0
ATTRIB
  8
FeatureAttribs
 70
0
  1
PNOA-H_AMS_1956-57_33k_ES_PAN_2
  2
NAME
  10
387686.929
  20
4640332.441
 40
33.75130
  0
SEQEND
  0
POLYLINE
  8
Unknown_Area_Type
  70
1
  66
1
  0
VERTEX
  8
Unknown_Area_Type
  10
388754.000
  20
4640500.000
  0
VERTEX
  8
Unknown_Area_Type
  10
389149.000
  20
4639747.000
  0
VERTEX
  8
Unknown_Area_Type
  10
389077.000
  20
4638997.500
  0
VERTEX
  8
Unknown_Area_Type
  10
386507.500
  20
4639043.000
  0
VERTEX
  8
Unknown_Area_Type
  10
386320.000
  20
4639171.500
  0
VERTEX
  8
Unknown_Area_Type
  10
386358.500
  20
4639949.000
  0
VERTEX
  8
Unknown_Area_Type
  10
387549.500
  20
4642798.000
  0
VERTEX
  8
Unknown_Area_Type
  10
388754.000
  20
4640501.000
  0
VERTEX
  8
Unknown_Area_Type
  10
388754.000
  20
4640500.000
  0
SEQEND
  8
Unknown_Area_Type
  0
INSERT
  8
FeatureAttribs
  2
FEATURE
  41
1
  42
1
  43
1
  50
0
  10
387686.929
  20
4640332.441
 66
1
  0
ATTRIB
  8
FeatureAttribs
 70
0
  1
PNOA-H_AMS_1956-57_33k_ES_PAN_2
  2
NAME
  10
387686.929
  20
4640332.441
 40
33.75130
  0
SEQEND
  0
POLYLINE
  8
Unknown_Area_Type
  70
1
  66
1
  0
VERTEX
  8
Unknown_Area_Type
  10
388754.000
  20
4640500.000
  0
VERTEX
  8
Unknown_Area_Type
  10
388754.000
  20
4640501.000
  0
VERTEX
  8
Unknown_Area_Type
  10
387549.500
  20
4642798.000
  0
VERTEX
  8
Unknown_Area_Type
  10
386358.500
  20
4639949.000
  0
VERTEX
  8
Unknown_Area_Type
  10
386320.000
  20
4639171.500
  0
VERTEX
  8
Unknown_Area_Type
  10
386507.500
  20
4639043.000
  0
VERTEX
  8
Unknown_Area_Type
  10
389077.000
  20
4638997.500
  0
VERTEX
  8
Unknown_Area_Type
  10
389149.000
  20
4639747.000
  0
VERTEX
  8
Unknown_Area_Type
  10
388754.000
  20
4640500.000
  0
SEQEND
  8
Unknown_Area_Type
  0
INSERT
  8
FeatureAttribs
  2
FEATURE
  41
1
  42
1
  43
1
  50
0
  10
384920.642
  20
4640499.082
 66
1
  0
ATTRIB
  8
FeatureAttribs
 70
0
  1
PNOA-H_AMS_1956-57_33k_ES_PAN_2
  2
NAME
  10
384920.642
  20
4640499.082
 40
33.75130
  0
SEQEND
  0
POLYLINE
  8
Unknown_Area_Type
  70
1
  66
1
  0
VERTEX
  8
Unknown_Area_Type
  10
384804.500
  20
4643018.500
  0
VERTEX
  8
Unknown_Area_Type
  10
386358.500
  20
4639948.000
  0
VERTEX
  8
Unknown_Area_Type
  10
386320.000
  20
4639172.000
  0
VERTEX
  8
Unknown_Area_Type
  10
383867.000
  20
4639137.500
  0
VERTEX
  8
Unknown_Area_Type
  10
383548.500
  20
4639353.500
  0
VERTEX
  8
Unknown_Area_Type
  10
383599.500
  20
4640104.500
  0
VERTEX
  8
Unknown_Area_Type
  10
384804.000
  20
4643017.000
  0
VERTEX
  8
Unknown_Area_Type
  10
384804.500
  20
4643018.500
  0
SEQEND
  8
Unknown_Area_Type
  0
INSERT
  8
FeatureAttribs
  2
FEATURE
  41
1
  42
1
  43
1
  50
0
  10
384920.642
  20
4640499.082
 66
1
  0
ATTRIB
  8
FeatureAttribs
 70
0
  1
PNOA-H_AMS_1956-57_33k_ES_PAN_2
  2
NAME
  10
384920.642
  20
4640499.082
 40
33.75130
  0
SEQEND
  0
POLYLINE
  8
Unknown_Area_Type
  70
1
  66
1
  0
VERTEX
  8
Unknown_Area_Type
  10
384804.500
  20
4643018.500
  0
VERTEX
  8
Unknown_Area_Type
  10
384804.000
  20
4643017.000
  0
VERTEX
  8
Unknown_Area_Type
  10
383599.500
  20
4640104.500
  0
VERTEX
  8
Unknown_Area_Type
  10
383548.500
  20
4639353.500
  0
VERTEX
  8
Unknown_Area_Type
  10
383867.000
  20
4639137.500
  0
VERTEX
  8
Unknown_Area_Type
  10
386320.000
  20
4639172.000
  0
VERTEX
  8
Unknown_Area_Type
  10
386358.500
  20
4639948.000
  0
VERTEX
  8
Unknown_Area_Type
  10
384804.500
  20
4643018.500
  0
SEQEND
  8
Unknown_Area_Type
  0
INSERT
  8
FeatureAttribs
  2
FEATURE
  41
1
  42
1
  43
1
  50
0
  10
398859.688
  20
4639669.214
 66
1
  0
ATTRIB
  8
FeatureAttribs
 70
0
  1
PNOA-H_AMS_1956-57_33k_ES_PAN_2
  2
NAME
  10
398859.688
  20
4639669.214
 40
33.75130
  0
SEQEND
  0
POLYLINE
  8
Unknown_Area_Type
  70
1
  66
1
  0
VERTEX
  8
Unknown_Area_Type
  10
398753.000
  20
4641547.500
  0
VERTEX
  8
Unknown_Area_Type
  10
398754.500
  20
4641547.500
  0
VERTEX
  8
Unknown_Area_Type
  10
398808.500
  20
4641502.500
  0
VERTEX
  8
Unknown_Area_Type
  10
400209.000
  20
4640333.500
  0
VERTEX
  8
Unknown_Area_Type
  10
400136.000
  20
4638335.000
  0
VERTEX
  8
Unknown_Area_Type
  10
397532.500
  20
4638391.000
  0
VERTEX
  8
Unknown_Area_Type
  10
397483.500
  20
4638431.000
  0
VERTEX
  8
Unknown_Area_Type
  10
397482.500
  20
4638432.000
  0
VERTEX
  8
Unknown_Area_Type
  10
397482.500
  20
4638442.000
  0
VERTEX
  8
Unknown_Area_Type
  10
397582.500
  20
4640291.500
  0
VERTEX
  8
Unknown_Area_Type
  10
398753.000
  20
4641546.500
  0
VERTEX
  8
Unknown_Area_Type
  10
398753.000
  20
4641547.500
  0
SEQEND
  8
Unknown_Area_Type
  0
INSERT
  8
FeatureAttribs
  2
FEATURE
  41
1
  42
1
  43
1
  50
0
  10
398859.688
  20
4639669.214
 66
1
  0
ATTRIB
  8
FeatureAttribs
 70
0
  1
PNOA-H_AMS_1956-57_33k_ES_PAN_2
  2
NAME
  10
398859.688
  20
4639669.214
 40
33.75130
  0
SEQEND
  0
POLYLINE
  8
Unknown_Area_Type
  70
1
  66
1
  0
VERTEX
  8
Unknown_Area_Type
  10
398753.000
  20
4641547.500
  0
VERTEX
  8
Unknown_Area_Type
  10
398753.000
  20
4641546.500
  0
VERTEX
  8
Unknown_Area_Type
  10
397582.500
  20
4640291.500
  0
VERTEX
  8
Unknown_Area_Type
  10
397482.500
  20
4638442.000
  0
VERTEX
  8
Unknown_Area_Type
  10
397482.500
  20
4638432.000
  0
VERTEX
  8
Unknown_Area_Type
  10
397483.500
  20
4638431.000
  0
VERTEX
  8
Unknown_Area_Type
  10
397532.500
  20
4638391.000
  0
VERTEX
  8
Unknown_Area_Type
  10
400136.000
  20
4638335.000
  0
VERTEX
  8
Unknown_Area_Type
  10
400209.000
  20
4640333.500
  0
VERTEX
  8
Unknown_Area_Type
  10
398808.500
  20
4641502.500
  0
VERTEX
  8
Unknown_Area_Type
  10
398754.500
  20
4641547.500
  0
VERTEX
  8
Unknown_Area_Type
  10
398753.000
  20
4641547.500
  0
SEQEND
  8
Unknown_Area_Type
  0
INSERT
  8
FeatureAttribs
  2
FEATURE
  41
1
  42
1
  43
1
  50
0
  10
396180.522
  20
4639750.271
 66
1
  0
ATTRIB
  8
FeatureAttribs
 70
0
  1
PNOA-H_AMS_1956-57_33k_ES_PAN_2
  2
NAME
  10
396180.522
  20
4639750.271
 40
33.75130
  0
SEQEND
  0
POLYLINE
  8
Unknown_Area_Type
  70
1
  66
1
  0
VERTEX
  8
Unknown_Area_Type
  10
396946.000
  20
4640806.000
  0
VERTEX
  8
Unknown_Area_Type
  10
397582.500
  20
4640292.000
  0
VERTEX
  8
Unknown_Area_Type
  10
397482.500
  20
4638432.500
  0
VERTEX
  8
Unknown_Area_Type
  10
394771.500
  20
4638550.000
  0
VERTEX
  8
Unknown_Area_Type
  10
394765.500
  20
4638550.500
  0
VERTEX
  8
Unknown_Area_Type
  10
394759.500
  20
4638555.500
  0
VERTEX
  8
Unknown_Area_Type
  10
394881.000
  20
4640209.000
  0
VERTEX
  8
Unknown_Area_Type
  10
395915.000
  20
4641638.500
  0
VERTEX
  8
Unknown_Area_Type
  10
395916.500
  20
4641639.000
  0
VERTEX
  8
Unknown_Area_Type
  10
395923.500
  20
4641633.500
  0
VERTEX
  8
Unknown_Area_Type
  10
396945.500
  20
4640807.000
  0
VERTEX
  8
Unknown_Area_Type
  10
396946.000
  20
4640806.000
  0
SEQEND
  8
Unknown_Area_Type
  0
INSERT
  8
FeatureAttribs
  2
FEATURE
  41
1
  42
1
  43
1
  50
0
  10
396180.522
  20
4639750.271
 66
1
  0
ATTRIB
  8
FeatureAttribs
 70
0
  1
PNOA-H_AMS_1956-57_33k_ES_PAN_2
  2
NAME
  10
396180.522
  20
4639750.271
 40
33.75130
  0
SEQEND
  0
POLYLINE
  8
Unknown_Area_Type
  70
1
  66
1
  0
VERTEX
  8
Unknown_Area_Type
  10
396946.000
  20
4640806.000
  0
VERTEX
  8
Unknown_Area_Type
  10
396945.500
  20
4640807.000
  0
VERTEX
  8
Unknown_Area_Type
  10
395923.500
  20
4641633.500
  0
VERTEX
  8
Unknown_Area_Type
  10
395916.500
  20
4641639.000
  0
VERTEX
  8
Unknown_Area_Type
  10
395915.000
  20
4641638.500
  0
VERTEX
  8
Unknown_Area_Type
  10
394881.000
  20
4640209.000
  0
VERTEX
  8
Unknown_Area_Type
  10
394759.500
  20
4638555.500
  0
VERTEX
  8
Unknown_Area_Type
  10
394765.500
  20
4638550.500
  0
VERTEX
  8
Unknown_Area_Type
  10
394771.500
  20
4638550.000
  0
VERTEX
  8
Unknown_Area_Type
  10
397482.500
  20
4638432.500
  0
VERTEX
  8
Unknown_Area_Type
  10
397582.500
  20
4640292.000
  0
VERTEX
  8
Unknown_Area_Type
  10
396946.000
  20
4640806.000
  0
SEQEND
  8
Unknown_Area_Type
  0
INSERT
  8
FeatureAttribs
  2
FEATURE
  41
1
  42
1
  43
1
  50
0
  10
401579.248
  20
4639764.786
 66
1
  0
ATTRIB
  8
FeatureAttribs
 70
0
  1
PNOA-H_AMS_1956-57_33k_ES_PAN_2
  2
NAME
  10
401579.248
  20
4639764.786
 40
33.75130
  0
SEQEND
  0
POLYLINE
  8
Unknown_Area_Type
  70
1
  66
1
  0
VERTEX
  8
Unknown_Area_Type
  10
401653.353
  20
4641132.660
  0
VERTEX
  8
Unknown_Area_Type
  10
401653.353
  20
4638296.662
  0
VERTEX
  8
Unknown_Area_Type
  10
401484.772
  20
4638293.105
  0
VERTEX
  8
Unknown_Area_Type
  10
401493.068
  20
4638892.556
  0
VERTEX
  8
Unknown_Area_Type
  10
401525.093
  20
4641205.673
  0
VERTEX
  8
Unknown_Area_Type
  10
401525.520
  20
4641236.467
  0
VERTEX
  8
Unknown_Area_Type
  10
401653.353
  20
4641132.660
  0
SEQEND
  8
Unknown_Area_Type
  0
INSERT
  8
FeatureAttribs
  2
FEATURE
  41
1
  42
1
  43
1
  50
0
  10
400883.420
  20
4639580.129
 66
1
  0
ATTRIB
  8
FeatureAttribs
 70
0
  1
PNOA-H_AMS_1956-57_33k_ES_PAN_2
  2
NAME
  10
400883.420
  20
4639580.129
 40
33.75130
  0
SEQEND
  0
POLYLINE
  8
Unknown_Area_Type
  70
1
  66
1
  0
VERTEX
  8
Unknown_Area_Type
  10
401525.520
  20
4641236.467
  0
VERTEX
  8
Unknown_Area_Type
  10
401525.093
  20
4641205.673
  0
VERTEX
  8
Unknown_Area_Type
  10
401493.068
  20
4638892.556
  0
VERTEX
  8
Unknown_Area_Type
  10
401484.772
  20
4638293.105
  0
VERTEX
  8
Unknown_Area_Type
  10
400224.000
  20
4638266.500
  0
VERTEX
  8
Unknown_Area_Type
  10
400136.000
  20
4638335.000
  0
VERTEX
  8
Unknown_Area_Type
  10
400209.000
  20
4640334.000
  0
VERTEX
  8
Unknown_Area_Type
  10
401041.000
  20
4641008.000
  0
VERTEX
  8
Unknown_Area_Type
  10
401041.500
  20
4641009.000
  0
VERTEX
  8
Unknown_Area_Type
  10
401423.000
  20
4641318.500
  0
VERTEX
  8
Unknown_Area_Type
  10
401424.500
  20
4641318.500
  0
VERTEX
  8
Unknown_Area_Type
  10
401525.520
  20
4641236.467
  0
SEQEND
  8
Unknown_Area_Type
  0
INSERT
  8
FeatureAttribs
  2
FEATURE
  41
1
  42
1
  43
1
  50
0
  10
400883.420
  20
4639580.129
 66
1
  0
ATTRIB
  8
FeatureAttribs
 70
0
  1
PNOA-H_AMS_1956-57_33k_ES_PAN_2
  2
NAME
  10
400883.420
  20
4639580.129
 40
33.75130
  0
SEQEND
  0
POLYLINE
  8
Unknown_Area_Type
  70
1
  66
1
  0
VERTEX
  8
Unknown_Area_Type
  10
401525.520
  20
4641236.467
  0
VERTEX
  8
Unknown_Area_Type
  10
401424.500
  20
4641318.500
  0
VERTEX
  8
Unknown_Area_Type
  10
401423.000
  20
4641318.500
  0
VERTEX
  8
Unknown_Area_Type
  10
401041.500
  20
4641009.000
  0
VERTEX
  8
Unknown_Area_Type
  10
401041.000
  20
4641008.000
  0
VERTEX
  8
Unknown_Area_Type
  10
400209.000
  20
4640334.000
  0
VERTEX
  8
Unknown_Area_Type
  10
400136.000
  20
4638335.000
  0
VERTEX
  8
Unknown_Area_Type
  10
400224.000
  20
4638266.500
  0
VERTEX
  8
Unknown_Area_Type
  10
401484.772
  20
4638293.105
  0
VERTEX
  8
Unknown_Area_Type
  10
401493.068
  20
4638892.556
  0
VERTEX
  8
Unknown_Area_Type
  10
401525.093
  20
4641205.673
  0
VERTEX
  8
Unknown_Area_Type
  10
401525.520
  20
4641236.467
  0
SEQEND
  8
Unknown_Area_Type
  0
INSERT
  8
FeatureAttribs
  2
FEATURE
  41
1
  42
1
  43
1
  50
0
  10
380008.815
  20
4646515.850
 66
1
  0
ATTRIB
  8
FeatureAttribs
 70
0
  1
PNOA-H_AMS_1956-57_33k_ES_PAN_2
  2
NAME
  10
380008.815
  20
4646515.850
 40
33.75130
  0
SEQEND
  0
POLYLINE
  8
Unknown_Area_Type
  70
1
  66
1
  0
VERTEX
  8
Unknown_Area_Type
  10
381520.000
  20
4646152.000
  0
VERTEX
  8
Unknown_Area_Type
  10
381475.000
  20
4644464.000
  0
VERTEX
  8
Unknown_Area_Type
  10
379141.500
  20
4644226.000
  0
VERTEX
  8
Unknown_Area_Type
  10
378507.500
  20
4644548.000
  0
VERTEX
  8
Unknown_Area_Type
  10
378548.500
  20
4648517.500
  0
VERTEX
  8
Unknown_Area_Type
  10
379068.500
  20
4648832.500
  0
VERTEX
  8
Unknown_Area_Type
  10
379071.000
  20
4648833.000
  0
VERTEX
  8
Unknown_Area_Type
  10
379114.000
  20
4648827.000
  0
VERTEX
  8
Unknown_Area_Type
  10
381582.000
  20
4648480.500
  0
VERTEX
  8
Unknown_Area_Type
  10
381520.000
  20
4646165.500
  0
VERTEX
  8
Unknown_Area_Type
  10
381520.000
  20
4646152.000
  0
SEQEND
  8
Unknown_Area_Type
  0
INSERT
  8
FeatureAttribs
  2
FEATURE
  41
1
  42
1
  43
1
  50
0
  10
380008.815
  20
4646515.850
 66
1
  0
ATTRIB
  8
FeatureAttribs
 70
0
  1
PNOA-H_AMS_1956-57_33k_ES_PAN_2
  2
NAME
  10
380008.815
  20
4646515.850
 40
33.75130
  0
SEQEND
  0
POLYLINE
  8
Unknown_Area_Type
  70
1
  66
1
  0
VERTEX
  8
Unknown_Area_Type
  10
381520.000
  20
4646152.000
  0
VERTEX
  8
Unknown_Area_Type
  10
381520.000
  20
4646165.500
  0
VERTEX
  8
Unknown_Area_Type
  10
381582.000
  20
4648480.500
  0
VERTEX
  8
Unknown_Area_Type
  10
379114.000
  20
4648827.000
  0
VERTEX
  8
Unknown_Area_Type
  10
379071.000
  20
4648833.000
  0
VERTEX
  8
Unknown_Area_Type
  10
379068.500
  20
4648832.500
  0
VERTEX
  8
Unknown_Area_Type
  10
378548.500
  20
4648517.500
  0
VERTEX
  8
Unknown_Area_Type
  10
378507.500
  20
4644548.000
  0
VERTEX
  8
Unknown_Area_Type
  10
379141.500
  20
4644226.000
  0
VERTEX
  8
Unknown_Area_Type
  10
381475.000
  20
4644464.000
  0
VERTEX
  8
Unknown_Area_Type
  10
381520.000
  20
4646152.000
  0
SEQEND
  8
Unknown_Area_Type
  0
INSERT
  8
FeatureAttribs
  2
FEATURE
  41
1
  42
1
  43
1
  50
0
  10
373844.587
  20
4646624.810
 66
1
  0
ATTRIB
  8
FeatureAttribs
 70
0
  1
PNOA-H_AMS_1956-57_33k_ES_PAN_2
  2
NAME
  10
373844.587
  20
4646624.810
 40
33.75130
  0
SEQEND
  0
POLYLINE
  8
Unknown_Area_Type
  70
1
  66
1
  0
VERTEX
  8
Unknown_Area_Type
  10
373932.341
  20
4644458.128
  0
VERTEX
  8
Unknown_Area_Type
  10
373718.378
  20
4644452.178
  0
VERTEX
  8
Unknown_Area_Type
  10
373718.378
  20
4648797.442
  0
VERTEX
  8
Unknown_Area_Type
  10
374008.751
  20
4648762.478
  0
VERTEX
  8
Unknown_Area_Type
  10
374005.540
  20
4648581.715
  0
VERTEX
  8
Unknown_Area_Type
  10
373964.471
  20
4646268.539
  0
VERTEX
  8
Unknown_Area_Type
  10
373932.341
  20
4644458.128
  0
SEQEND
  8
Unknown_Area_Type
  0
INSERT
  8
FeatureAttribs
  2
FEATURE
  41
1
  42
1
  43
1
  50
0
  10
374773.357
  20
4646562.529
 66
1
  0
ATTRIB
  8
FeatureAttribs
 70
0
  1
PNOA-H_AMS_1956-57_33k_ES_PAN_2
  2
NAME
  10
374773.357
  20
4646562.529
 40
33.75130
  0
SEQEND
  0
POLYLINE
  8
Unknown_Area_Type
  70
1
  66
1
  0
VERTEX
  8
Unknown_Area_Type
  10
374008.751
  20
4648762.478
  0
VERTEX
  8
Unknown_Area_Type
  10
374415.500
  20
4648713.500
  0
VERTEX
  8
Unknown_Area_Type
  10
374418.000
  20
4648713.500
  0
VERTEX
  8
Unknown_Area_Type
  10
375594.500
  20
4648572.000
  0
VERTEX
  8
Unknown_Area_Type
  10
375594.500
  20
4644560.000
  0
VERTEX
  8
Unknown_Area_Type
  10
375132.500
  20
4644491.500
  0
VERTEX
  8
Unknown_Area_Type
  10
373932.341
  20
4644458.128
  0
VERTEX
  8
Unknown_Area_Type
  10
373964.471
  20
4646268.539
  0
VERTEX
  8
Unknown_Area_Type
  10
374005.540
  20
4648581.715
  0
VERTEX
  8
Unknown_Area_Type
  10
374008.751
  20
4648762.478
  0
SEQEND
  8
Unknown_Area_Type
  0
INSERT
  8
FeatureAttribs
  2
FEATURE
  41
1
  42
1
  43
1
  50
0
  10
374773.357
  20
4646562.529
 66
1
  0
ATTRIB
  8
FeatureAttribs
 70
0
  1
PNOA-H_AMS_1956-57_33k_ES_PAN_2
  2
NAME
  10
374773.357
  20
4646562.529
 40
33.75130
  0
SEQEND
  0
POLYLINE
  8
Unknown_Area_Type
  70
1
  66
1
  0
VERTEX
  8
Unknown_Area_Type
  10
374008.751
  20
4648762.478
  0
VERTEX
  8
Unknown_Area_Type
  10
374005.540
  20
4648581.715
  0
VERTEX
  8
Unknown_Area_Type
  10
373964.471
  20
4646268.539
  0
VERTEX
  8
Unknown_Area_Type
  10
373932.341
  20
4644458.128
  0
VERTEX
  8
Unknown_Area_Type
  10
375132.500
  20
4644491.500
  0
VERTEX
  8
Unknown_Area_Type
  10
375594.500
  20
4644560.000
  0
VERTEX
  8
Unknown_Area_Type
  10
375594.500
  20
4648572.000
  0
VERTEX
  8
Unknown_Area_Type
  10
374418.000
  20
4648713.500
  0
VERTEX
  8
Unknown_Area_Type
  10
374415.500
  20
4648713.500
  0
VERTEX
  8
Unknown_Area_Type
  10
374008.751
  20
4648762.478
  0
SEQEND
  8
Unknown_Area_Type
  0
INSERT
  8
FeatureAttribs
  2
FEATURE
  41
1
  42
1
  43
1
  50
0
  10
383038.672
  20
4646424.095
 66
1
  0
ATTRIB
  8
FeatureAttribs
 70
0
  1
PNOA-H_AMS_1956-57_33k_ES_PAN_2
  2
NAME
  10
383038.672
  20
4646424.095
 40
33.75130
  0
SEQEND
  0
POLYLINE
  8
Unknown_Area_Type
  70
1
  66
1
  0
VERTEX
  8
Unknown_Area_Type
  10
382610.000
  20
4648686.000
  0
VERTEX
  8
Unknown_Area_Type
  10
384640.000
  20
4648407.000
  0
VERTEX
  8
Unknown_Area_Type
  10
384533.500
  20
4644330.000
  0
VERTEX
  8
Unknown_Area_Type
  10
382029.000
  20
4644159.500
  0
VERTEX
  8
Unknown_Area_Type
  10
382024.000
  20
4644159.500
  0
VERTEX
  8
Unknown_Area_Type
  10
382020.000
  20
4644161.500
  0
VERTEX
  8
Unknown_Area_Type
  10
381475.000
  20
4644463.500
  0
VERTEX
  8
Unknown_Area_Type
  10
381582.000
  20
4648481.000
  0
VERTEX
  8
Unknown_Area_Type
  10
382049.000
  20
4648763.000
  0
VERTEX
  8
Unknown_Area_Type
  10
382608.500
  20
4648686.000
  0
VERTEX
  8
Unknown_Area_Type
  10
382610.000
  20
4648686.000
  0
SEQEND
  8
Unknown_Area_Type
  0
INSERT
  8
FeatureAttribs
  2
FEATURE
  41
1
  42
1
  43
1
  50
0
  10
383038.672
  20
4646424.095
 66
1
  0
ATTRIB
  8
FeatureAttribs
 70
0
  1
PNOA-H_AMS_1956-57_33k_ES_PAN_2
  2
NAME
  10
383038.672
  20
4646424.095
 40
33.75130
  0
SEQEND
  0
POLYLINE
  8
Unknown_Area_Type
  70
1
  66
1
  0
VERTEX
  8
Unknown_Area_Type
  10
382610.000
  20
4648686.000
  0
VERTEX
  8
Unknown_Area_Type
  10
382608.500
  20
4648686.000
  0
VERTEX
  8
Unknown_Area_Type
  10
382049.000
  20
4648763.000
  0
VERTEX
  8
Unknown_Area_Type
  10
381582.000
  20
4648481.000
  0
VERTEX
  8
Unknown_Area_Type
  10
381475.000
  20
4644463.500
  0
VERTEX
  8
Unknown_Area_Type
  10
382020.000
  20
4644161.500
  0
VERTEX
  8
Unknown_Area_Type
  10
382024.000
  20
4644159.500
  0
VERTEX
  8
Unknown_Area_Type
  10
382029.000
  20
4644159.500
  0
VERTEX
  8
Unknown_Area_Type
  10
384533.500
  20
4644330.000
  0
VERTEX
  8
Unknown_Area_Type
  10
384640.000
  20
4648407.000
  0
VERTEX
  8
Unknown_Area_Type
  10
382610.000
  20
4648686.000
  0
SEQEND
  8
Unknown_Area_Type
  0
INSERT
  8
FeatureAttribs
  2
FEATURE
  41
1
  42
1
  43
1
  50
0
  10
395375.607
  20
4646136.605
 66
1
  0
ATTRIB
  8
FeatureAttribs
 70
0
  1
PNOA-H_AMS_1956-57_33k_ES_PAN_2
  2
NAME
  10
395375.607
  20
4646136.605
 40
33.75130
  0
SEQEND
  0
POLYLINE
  8
Unknown_Area_Type
  70
1
  66
1
  0
VERTEX
  8
Unknown_Area_Type
  10
394322.000
  20
4648499.000
  0
VERTEX
  8
Unknown_Area_Type
  10
396975.000
  20
4648249.000
  0
VERTEX
  8
Unknown_Area_Type
  10
396748.500
  20
4644048.000
  0
VERTEX
  8
Unknown_Area_Type
  10
395874.500
  20
4643689.000
  0
VERTEX
  8
Unknown_Area_Type
  10
395865.500
  20
4643685.500
  0
VERTEX
  8
Unknown_Area_Type
  10
395862.000
  20
4643685.500
  0
VERTEX
  8
Unknown_Area_Type
  10
393811.500
  20
4644093.500
  0
VERTEX
  8
Unknown_Area_Type
  10
393975.500
  20
4648280.000
  0
VERTEX
  8
Unknown_Area_Type
  10
393976.000
  20
4648283.000
  0
VERTEX
  8
Unknown_Area_Type
  10
394321.500
  20
4648498.000
  0
VERTEX
  8
Unknown_Area_Type
  10
394322.000
  20
4648499.000
  0
SEQEND
  8
Unknown_Area_Type
  0
INSERT
  8
FeatureAttribs
  2
FEATURE
  41
1
  42
1
  43
1
  50
0
  10
395375.607
  20
4646136.605
 66
1
  0
ATTRIB
  8
FeatureAttribs
 70
0
  1
PNOA-H_AMS_1956-57_33k_ES_PAN_2
  2
NAME
  10
395375.607
  20
4646136.605
 40
33.75130
  0
SEQEND
  0
POLYLINE
  8
Unknown_Area_Type
  70
1
  66
1
  0
VERTEX
  8
Unknown_Area_Type
  10
394322.000
  20
4648499.000
  0
VERTEX
  8
Unknown_Area_Type
  10
394321.500
  20
4648498.000
  0
VERTEX
  8
Unknown_Area_Type
  10
393976.000
  20
4648283.000
  0
VERTEX
  8
Unknown_Area_Type
  10
393975.500
  20
4648280.000
  0
VERTEX
  8
Unknown_Area_Type
  10
393811.500
  20
4644093.500
  0
VERTEX
  8
Unknown_Area_Type
  10
395862.000
  20
4643685.500
  0
VERTEX
  8
Unknown_Area_Type
  10
395865.500
  20
4643685.500
  0
VERTEX
  8
Unknown_Area_Type
  10
395874.500
  20
4643689.000
  0
VERTEX
  8
Unknown_Area_Type
  10
396748.500
  20
4644048.000
  0
VERTEX
  8
Unknown_Area_Type
  10
396975.000
  20
4648249.000
  0
VERTEX
  8
Unknown_Area_Type
  10
394322.000
  20
4648499.000
  0
SEQEND
  8
Unknown_Area_Type
  0
INSERT
  8
FeatureAttribs
  2
FEATURE
  41
1
  42
1
  43
1
  50
0
  10
401621.757
  20
4645902.563
 66
1
  0
ATTRIB
  8
FeatureAttribs
 70
0
  1
PNOA-H_AMS_1956-57_33k_ES_PAN_2
  2
NAME
  10
401621.757
  20
4645902.563
 40
33.75130
  0
SEQEND
  0
POLYLINE
  8
Unknown_Area_Type
  70
1
  66
1
  0
VERTEX
  8
Unknown_Area_Type
  10
401653.353
  20
4648244.189
  0
VERTEX
  8
Unknown_Area_Type
  10
401653.353
  20
4643589.560
  0
VERTEX
  8
Unknown_Area_Type
  10
401557.648
  20
4643556.053
  0
VERTEX
  8
Unknown_Area_Type
  10
401589.183
  20
4645831.933
  0
VERTEX
  8
Unknown_Area_Type
  10
401621.247
  20
4648145.075
  0
VERTEX
  8
Unknown_Area_Type
  10
401622.689
  20
4648249.073
  0
VERTEX
  8
Unknown_Area_Type
  10
401653.353
  20
4648244.189
  0
SEQEND
  8
Unknown_Area_Type
  0
INSERT
  8
FeatureAttribs
  2
FEATURE
  41
1
  42
1
  43
1
  50
0
  10
400680.216
  20
4646004.840
 66
1
  0
ATTRIB
  8
FeatureAttribs
 70
0
  1
PNOA-H_AMS_1956-57_33k_ES_PAN_2
  2
NAME
  10
400680.216
  20
4646004.840
 40
33.75130
  0
SEQEND
  0
POLYLINE
  8
Unknown_Area_Type
  70
1
  66
1
  0
VERTEX
  8
Unknown_Area_Type
  10
401622.689
  20
4648249.073
  0
VERTEX
  8
Unknown_Area_Type
  10
401621.247
  20
4648145.075
  0
VERTEX
  8
Unknown_Area_Type
  10
401589.183
  20
4645831.933
  0
VERTEX
  8
Unknown_Area_Type
  10
401557.648
  20
4643556.053
  0
VERTEX
  8
Unknown_Area_Type
  10
401547.500
  20
4643552.500
  0
VERTEX
  8
Unknown_Area_Type
  10
399608.000
  20
4644011.500
  0
VERTEX
  8
Unknown_Area_Type
  10
399863.500
  20
4648136.500
  0
VERTEX
  8
Unknown_Area_Type
  10
400486.000
  20
4648429.500
  0
VERTEX
  8
Unknown_Area_Type
  10
400487.000
  20
4648430.000
  0
VERTEX
  8
Unknown_Area_Type
  10
401622.689
  20
4648249.073
  0
SEQEND
  8
Unknown_Area_Type
  0
INSERT
  8
FeatureAttribs
  2
FEATURE
  41
1
  42
1
  43
1
  50
0
  10
400680.216
  20
4646004.840
 66
1
  0
ATTRIB
  8
FeatureAttribs
 70
0
  1
PNOA-H_AMS_1956-57_33k_ES_PAN_2
  2
NAME
  10
400680.216
  20
4646004.840
 40
33.75130
  0
SEQEND
  0
POLYLINE
  8
Unknown_Area_Type
  70
1
  66
1
  0
VERTEX
  8
Unknown_Area_Type
  10
401622.689
  20
4648249.073
  0
VERTEX
  8
Unknown_Area_Type
  10
400487.000
  20
4648430.000
  0
VERTEX
  8
Unknown_Area_Type
  10
400486.000
  20
4648429.500
  0
VERTEX
  8
Unknown_Area_Type
  10
399863.500
  20
4648136.500
  0
VERTEX
  8
Unknown_Area_Type
  10
399608.000
  20
4644011.500
  0
VERTEX
  8
Unknown_Area_Type
  10
401547.500
  20
4643552.500
  0
VERTEX
  8
Unknown_Area_Type
  10
401557.648
  20
4643556.053
  0
VERTEX
  8
Unknown_Area_Type
  10
401589.183
  20
4645831.933
  0
VERTEX
  8
Unknown_Area_Type
  10
401621.247
  20
4648145.075
  0
VERTEX
  8
Unknown_Area_Type
  10
401622.689
  20
4648249.073
  0
SEQEND
  8
Unknown_Area_Type
  0
INSERT
  8
FeatureAttribs
  2
FEATURE
  41
1
  42
1
  43
1
  50
0
  10
386143.937
  20
4646337.420
 66
1
  0
ATTRIB
  8
FeatureAttribs
 70
0
  1
PNOA-H_AMS_1956-57_33k_ES_PAN_2
  2
NAME
  10
386143.937
  20
4646337.420
 40
33.75130
  0
SEQEND
  0
POLYLINE
  8
Unknown_Area_Type
  70
1
  66
1
  0
VERTEX
  8
Unknown_Area_Type
  10
384657.500
  20
4648418.000
  0
VERTEX
  8
Unknown_Area_Type
  10
385058.000
  20
4648669.000
  0
VERTEX
  8
Unknown_Area_Type
  10
385065.000
  20
4648670.000
  0
VERTEX
  8
Unknown_Area_Type
  10
387788.500
  20
4648375.500
  0
VERTEX
  8
Unknown_Area_Type
  10
387651.000
  20
4644152.500
  0
VERTEX
  8
Unknown_Area_Type
  10
387650.000
  20
4644142.500
  0
VERTEX
  8
Unknown_Area_Type
  10
387625.500
  20
4644129.000
  0
VERTEX
  8
Unknown_Area_Type
  10
384858.000
  20
4644133.500
  0
VERTEX
  8
Unknown_Area_Type
  10
384533.500
  20
4644329.500
  0
VERTEX
  8
Unknown_Area_Type
  10
384639.500
  20
4648390.500
  0
VERTEX
  8
Unknown_Area_Type
  10
384640.000
  20
4648407.000
  0
VERTEX
  8
Unknown_Area_Type
  10
384656.500
  20
4648417.500
  0
VERTEX
  8
Unknown_Area_Type
  10
384657.500
  20
4648418.000
  0
SEQEND
  8
Unknown_Area_Type
  0
INSERT
  8
FeatureAttribs
  2
FEATURE
  41
1
  42
1
  43
1
  50
0
  10
386143.937
  20
4646337.420
 66
1
  0
ATTRIB
  8
FeatureAttribs
 70
0
  1
PNOA-H_AMS_1956-57_33k_ES_PAN_2
  2
NAME
  10
386143.937
  20
4646337.420
 40
33.75130
  0
SEQEND
  0
POLYLINE
  8
Unknown_Area_Type
  70
1
  66
1
  0
VERTEX
  8
Unknown_Area_Type
  10
384657.500
  20
4648418.000
  0
VERTEX
  8
Unknown_Area_Type
  10
384656.500
  20
4648417.500
  0
VERTEX
  8
Unknown_Area_Type
  10
384640.000
  20
4648407.000
  0
VERTEX
  8
Unknown_Area_Type
  10
384639.500
  20
4648390.500
  0
VERTEX
  8
Unknown_Area_Type
  10
384533.500
  20
4644329.500
  0
VERTEX
  8
Unknown_Area_Type
  10
384858.000
  20
4644133.500
  0
VERTEX
  8
Unknown_Area_Type
  10
387625.500
  20
4644129.000
  0
VERTEX
  8
Unknown_Area_Type
  10
387650.000
  20
4644142.500
  0
VERTEX
  8
Unknown_Area_Type
  10
387651.000
  20
4644152.500
  0
VERTEX
  8
Unknown_Area_Type
  10
387788.500
  20
4648375.500
  0
VERTEX
  8
Unknown_Area_Type
  10
385065.000
  20
4648670.000
  0
VERTEX
  8
Unknown_Area_Type
  10
385058.000
  20
4648669.000
  0
VERTEX
  8
Unknown_Area_Type
  10
384657.500
  20
4648418.000
  0
SEQEND
  8
Unknown_Area_Type
  0
INSERT
  8
FeatureAttribs
  2
FEATURE
  41
1
  42
1
  43
1
  50
0
  10
389270.684
  20
4646233.116
 66
1
  0
ATTRIB
  8
FeatureAttribs
 70
0
  1
PNOA-H_AMS_1956-57_33k_ES_PAN_2
  2
NAME
  10
389270.684
  20
4646233.116
 40
33.75130
  0
SEQEND
  0
POLYLINE
  8
Unknown_Area_Type
  70
1
  66
1
  0
VERTEX
  8
Unknown_Area_Type
  10
388754.000
  20
4648526.500
  0
VERTEX
  8
Unknown_Area_Type
  10
390886.000
  20
4648324.000
  0
VERTEX
  8
Unknown_Area_Type
  10
390766.500
  20
4644117.000
  0
VERTEX
  8
Unknown_Area_Type
  10
390766.000
  20
4644113.500
  0
VERTEX
  8
Unknown_Area_Type
  10
390763.500
  20
4644112.000
  0
VERTEX
  8
Unknown_Area_Type
  10
390271.000
  20
4643886.000
  0
VERTEX
  8
Unknown_Area_Type
  10
387650.500
  20
4644143.000
  0
VERTEX
  8
Unknown_Area_Type
  10
387788.500
  20
4648376.000
  0
VERTEX
  8
Unknown_Area_Type
  10
388110.500
  20
4648587.500
  0
VERTEX
  8
Unknown_Area_Type
  10
388753.000
  20
4648526.500
  0
VERTEX
  8
Unknown_Area_Type
  10
388754.000
  20
4648526.500
  0
SEQEND
  8
Unknown_Area_Type
  0
INSERT
  8
FeatureAttribs
  2
FEATURE
  41
1
  42
1
  43
1
  50
0
  10
389270.684
  20
4646233.116
 66
1
  0
ATTRIB
  8
FeatureAttribs
 70
0
  1
PNOA-H_AMS_1956-57_33k_ES_PAN_2
  2
NAME
  10
389270.684
  20
4646233.116
 40
33.75130
  0
SEQEND
  0
POLYLINE
  8
Unknown_Area_Type
  70
1
  66
1
  0
VERTEX
  8
Unknown_Area_Type
  10
388754.000
  20
4648526.500
  0
VERTEX
  8
Unknown_Area_Type
  10
388753.000
  20
4648526.500
  0
VERTEX
  8
Unknown_Area_Type
  10
388110.500
  20
4648587.500
  0
VERTEX
  8
Unknown_Area_Type
  10
387788.500
  20
4648376.000
  0
VERTEX
  8
Unknown_Area_Type
  10
387650.500
  20
4644143.000
  0
VERTEX
  8
Unknown_Area_Type
  10
390271.000
  20
4643886.000
  0
VERTEX
  8
Unknown_Area_Type
  10
390763.500
  20
4644112.000
  0
VERTEX
  8
Unknown_Area_Type
  10
390766.000
  20
4644113.500
  0
VERTEX
  8
Unknown_Area_Type
  10
390766.500
  20
4644117.000
  0
VERTEX
  8
Unknown_Area_Type
  10
390886.000
  20
4648324.000
  0
VERTEX
  8
Unknown_Area_Type
  10
388754.000
  20
4648526.500
  0
SEQEND
  8
Unknown_Area_Type
  0
INSERT
  8
FeatureAttribs
  2
FEATURE
  41
1
  42
1
  43
1
  50
0
  10
377039.396
  20
4646555.410
 66
1
  0
ATTRIB
  8
FeatureAttribs
 70
0
  1
PNOA-H_AMS_1956-57_33k_ES_PAN_2
  2
NAME
  10
377039.396
  20
4646555.410
 40
33.75130
  0
SEQEND
  0
POLYLINE
  8
Unknown_Area_Type
  70
1
  66
1
  0
VERTEX
  8
Unknown_Area_Type
  10
376091.000
  20
4648866.000
  0
VERTEX
  8
Unknown_Area_Type
  10
378548.500
  20
4648517.500
  0
VERTEX
  8
Unknown_Area_Type
  10
378507.500
  20
4644548.000
  0
VERTEX
  8
Unknown_Area_Type
  10
376849.000
  20
4644311.500
  0
VERTEX
  8
Unknown_Area_Type
  10
376083.000
  20
4644326.500
  0
VERTEX
  8
Unknown_Area_Type
  10
375594.500
  20
4644559.500
  0
VERTEX
  8
Unknown_Area_Type
  10
375594.500
  20
4648572.000
  0
VERTEX
  8
Unknown_Area_Type
  10
376090.000
  20
4648865.500
  0
VERTEX
  8
Unknown_Area_Type
  10
376091.000
  20
4648866.000
  0
SEQEND
  8
Unknown_Area_Type
  0
INSERT
  8
FeatureAttribs
  2
FEATURE
  41
1
  42
1
  43
1
  50
0
  10
377039.396
  20
4646555.410
 66
1
  0
ATTRIB
  8
FeatureAttribs
 70
0
  1
PNOA-H_AMS_1956-57_33k_ES_PAN_2
  2
NAME
  10
377039.396
  20
4646555.410
 40
33.75130
  0
SEQEND
  0
POLYLINE
  8
Unknown_Area_Type
  70
1
  66
1
  0
VERTEX
  8
Unknown_Area_Type
  10
376091.000
  20
4648866.000
  0
VERTEX
  8
Unknown_Area_Type
  10
376090.000
  20
4648865.500
  0
VERTEX
  8
Unknown_Area_Type
  10
375594.500
  20
4648572.000
  0
VERTEX
  8
Unknown_Area_Type
  10
375594.500
  20
4644559.500
  0
VERTEX
  8
Unknown_Area_Type
  10
376083.000
  20
4644326.500
  0
VERTEX
  8
Unknown_Area_Type
  10
376849.000
  20
4644311.500
  0
VERTEX
  8
Unknown_Area_Type
  10
378507.500
  20
4644548.000
  0
VERTEX
  8
Unknown_Area_Type
  10
378548.500
  20
4648517.500
  0
VERTEX
  8
Unknown_Area_Type
  10
376091.000
  20
4648866.000
  0
SEQEND
  8
Unknown_Area_Type
  0
INSERT
  8
FeatureAttribs
  2
FEATURE
  41
1
  42
1
  43
1
  50
0
  10
392357.729
  20
4646172.618
 66
1
  0
ATTRIB
  8
FeatureAttribs
 70
0
  1
PNOA-H_AMS_1956-57_33k_ES_PAN_2
  2
NAME
  10
392357.729
  20
4646172.618
 40
33.75130
  0
SEQEND
  0
POLYLINE
  8
Unknown_Area_Type
  70
1
  66
1
  0
VERTEX
  8
Unknown_Area_Type
  10
391223.000
  20
4648538.000
  0
VERTEX
  8
Unknown_Area_Type
  10
393976.000
  20
4648282.500
  0
VERTEX
  8
Unknown_Area_Type
  10
393812.000
  20
4644095.000
  0
VERTEX
  8
Unknown_Area_Type
  10
393811.000
  20
4644093.000
  0
VERTEX
  8
Unknown_Area_Type
  10
393025.000
  20
4643739.000
  0
VERTEX
  8
Unknown_Area_Type
  10
393018.000
  20
4643737.000
  0
VERTEX
  8
Unknown_Area_Type
  10
390766.000
  20
4644113.500
  0
VERTEX
  8
Unknown_Area_Type
  10
390886.000
  20
4648324.000
  0
VERTEX
  8
Unknown_Area_Type
  10
391222.000
  20
4648537.500
  0
VERTEX
  8
Unknown_Area_Type
  10
391223.000
  20
4648538.000
  0
SEQEND
  8
Unknown_Area_Type
  0
INSERT
  8
FeatureAttribs
  2
FEATURE
  41
1
  42
1
  43
1
  50
0
  10
392357.729
  20
4646172.618
 66
1
  0
ATTRIB
  8
FeatureAttribs
 70
0
  1
PNOA-H_AMS_1956-57_33k_ES_PAN_2
  2
NAME
  10
392357.729
  20
4646172.618
 40
33.75130
  0
SEQEND
  0
POLYLINE
  8
Unknown_Area_Type
  70
1
  66
1
  0
VERTEX
  8
Unknown_Area_Type
  10
391223.000
  20
4648538.000
  0
VERTEX
  8
Unknown_Area_Type
  10
391222.000
  20
4648537.500
  0
VERTEX
  8
Unknown_Area_Type
  10
390886.000
  20
4648324.000
  0
VERTEX
  8
Unknown_Area_Type
  10
390766.000
  20
4644113.500
  0
VERTEX
  8
Unknown_Area_Type
  10
393018.000
  20
4643737.000
  0
VERTEX
  8
Unknown_Area_Type
  10
393025.000
  20
4643739.000
  0
VERTEX
  8
Unknown_Area_Type
  10
393811.000
  20
4644093.000
  0
VERTEX
  8
Unknown_Area_Type
  10
393812.000
  20
4644095.000
  0
VERTEX
  8
Unknown_Area_Type
  10
393976.000
  20
4648282.500
  0
VERTEX
  8
Unknown_Area_Type
  10
391223.000
  20
4648538.000
  0
SEQEND
  8
Unknown_Area_Type
  0
INSERT
  8
FeatureAttribs
  2
FEATURE
  41
1
  42
1
  43
1
  50
0
  10
398291.433
  20
4646081.128
 66
1
  0
ATTRIB
  8
FeatureAttribs
 70
0
  1
PNOA-H_AMS_1956-57_33k_ES_PAN_2
  2
NAME
  10
398291.433
  20
4646081.128
 40
33.75130
  0
SEQEND
  0
POLYLINE
  8
Unknown_Area_Type
  70
1
  66
1
  0
VERTEX
  8
Unknown_Area_Type
  10
398994.000
  20
4648263.500
  0
VERTEX
  8
Unknown_Area_Type
  10
399862.500
  20
4648136.500
  0
VERTEX
  8
Unknown_Area_Type
  10
399863.500
  20
4648136.000
  0
VERTEX
  8
Unknown_Area_Type
  10
399863.500
  20
4648133.000
  0
VERTEX
  8
Unknown_Area_Type
  10
399608.000
  20
4644011.500
  0
VERTEX
  8
Unknown_Area_Type
  10
398715.000
  20
4643625.000
  0
VERTEX
  8
Unknown_Area_Type
  10
396748.500
  20
4644048.000
  0
VERTEX
  8
Unknown_Area_Type
  10
396975.000
  20
4648249.000
  0
VERTEX
  8
Unknown_Area_Type
  10
397426.500
  20
4648492.500
  0
VERTEX
  8
Unknown_Area_Type
  10
398991.000
  20
4648263.500
  0
VERTEX
  8
Unknown_Area_Type
  10
398994.000
  20
4648263.500
  0
SEQEND
  8
Unknown_Area_Type
  0
INSERT
  8
FeatureAttribs
  2
FEATURE
  41
1
  42
1
  43
1
  50
0
  10
398291.433
  20
4646081.128
 66
1
  0
ATTRIB
  8
FeatureAttribs
 70
0
  1
PNOA-H_AMS_1956-57_33k_ES_PAN_2
  2
NAME
  10
398291.433
  20
4646081.128
 40
33.75130
  0
SEQEND
  0
POLYLINE
  8
Unknown_Area_Type
  70
1
  66
1
  0
VERTEX
  8
Unknown_Area_Type
  10
398994.000
  20
4648263.500
  0
VERTEX
  8
Unknown_Area_Type
  10
398991.000
  20
4648263.500
  0
VERTEX
  8
Unknown_Area_Type
  10
397426.500
  20
4648492.500
  0
VERTEX
  8
Unknown_Area_Type
  10
396975.000
  20
4648249.000
  0
VERTEX
  8
Unknown_Area_Type
  10
396748.500
  20
4644048.000
  0
VERTEX
  8
Unknown_Area_Type
  10
398715.000
  20
4643625.000
  0
VERTEX
  8
Unknown_Area_Type
  10
399608.000
  20
4644011.500
  0
VERTEX
  8
Unknown_Area_Type
  10
399863.500
  20
4648133.000
  0
VERTEX
  8
Unknown_Area_Type
  10
399863.500
  20
4648136.000
  0
VERTEX
  8
Unknown_Area_Type
  10
399862.500
  20
4648136.500
  0
VERTEX
  8
Unknown_Area_Type
  10
398994.000
  20
4648263.500
  0
SEQEND
  8
Unknown_Area_Type
  0
INSERT
  8
FeatureAttribs
  2
FEATURE
  41
1
  42
1
  43
1
  50
0
  10
395034.098
  20
4632008.101
 66
1
  0
ATTRIB
  8
FeatureAttribs
 70
0
  1
PNOA-H_AMS_1956-57_33k_ES_PAN_2
  2
NAME
  10
395034.098
  20
4632008.101
 40
33.75130
  0
SEQEND
  0
POLYLINE
  8
Unknown_Area_Type
  70
1
  66
1
  0
VERTEX
  8
Unknown_Area_Type
  10
396301.788
  20
4631953.232
  0
VERTEX
  8
Unknown_Area_Type
  10
393764.254
  20
4631953.232
  0
VERTEX
  8
Unknown_Area_Type
  10
393766.292
  20
4632062.970
  0
VERTEX
  8
Unknown_Area_Type
  10
394477.444
  20
4632052.275
  0
VERTEX
  8
Unknown_Area_Type
  10
396303.287
  20
4632025.703
  0
VERTEX
  8
Unknown_Area_Type
  10
396301.788
  20
4631953.232
  0
SEQEND
  8
Unknown_Area_Type
  0
INSERT
  8
FeatureAttribs
  2
FEATURE
  41
1
  42
1
  43
1
  50
0
  10
395045.099
  20
4633424.414
 66
1
  0
ATTRIB
  8
FeatureAttribs
 70
0
  1
PNOA-H_AMS_1956-57_33k_ES_PAN_2
  2
NAME
  10
395045.099
  20
4633424.414
 40
33.75130
  0
SEQEND
  0
POLYLINE
  8
Unknown_Area_Type
  70
1
  66
1
  0
VERTEX
  8
Unknown_Area_Type
  10
396303.287
  20
4632025.703
  0
VERTEX
  8
Unknown_Area_Type
  10
394477.444
  20
4632052.275
  0
VERTEX
  8
Unknown_Area_Type
  10
393766.292
  20
4632062.970
  0
VERTEX
  8
Unknown_Area_Type
  10
393814.500
  20
4634659.000
  0
VERTEX
  8
Unknown_Area_Type
  10
394611.000
  20
4635011.500
  0
VERTEX
  8
Unknown_Area_Type
  10
394896.000
  20
4634936.000
  0
VERTEX
  8
Unknown_Area_Type
  10
394898.000
  20
4634935.500
  0
VERTEX
  8
Unknown_Area_Type
  10
396355.500
  20
4634550.500
  0
VERTEX
  8
Unknown_Area_Type
  10
396303.287
  20
4632025.703
  0
SEQEND
  8
Unknown_Area_Type
  0
INSERT
  8
FeatureAttribs
  2
FEATURE
  41
1
  42
1
  43
1
  50
0
  10
395045.099
  20
4633424.414
 66
1
  0
ATTRIB
  8
FeatureAttribs
 70
0
  1
PNOA-H_AMS_1956-57_33k_ES_PAN_2
  2
NAME
  10
395045.099
  20
4633424.414
 40
33.75130
  0
SEQEND
  0
POLYLINE
  8
Unknown_Area_Type
  70
1
  66
1
  0
VERTEX
  8
Unknown_Area_Type
  10
396303.287
  20
4632025.703
  0
VERTEX
  8
Unknown_Area_Type
  10
396355.500
  20
4634550.500
  0
VERTEX
  8
Unknown_Area_Type
  10
394898.000
  20
4634935.500
  0
VERTEX
  8
Unknown_Area_Type
  10
394896.000
  20
4634936.000
  0
VERTEX
  8
Unknown_Area_Type
  10
394611.000
  20
4635011.500
  0
VERTEX
  8
Unknown_Area_Type
  10
393814.500
  20
4634659.000
  0
VERTEX
  8
Unknown_Area_Type
  10
393766.292
  20
4632062.970
  0
VERTEX
  8
Unknown_Area_Type
  10
394477.444
  20
4632052.275
  0
VERTEX
  8
Unknown_Area_Type
  10
396303.287
  20
4632025.703
  0
SEQEND
  8
Unknown_Area_Type
  0
INSERT
  8
FeatureAttribs
  2
FEATURE
  41
1
  42
1
  43
1
  50
0
  10
397536.674
  20
4631989.468
 66
1
  0
ATTRIB
  8
FeatureAttribs
 70
0
  1
PNOA-H_AMS_1956-57_33k_ES_PAN_2
  2
NAME
  10
397536.674
  20
4631989.468
 40
33.75130
  0
SEQEND
  0
POLYLINE
  8
Unknown_Area_Type
  70
1
  66
1
  0
VERTEX
  8
Unknown_Area_Type
  10
398770.853
  20
4631990.196
  0
VERTEX
  8
Unknown_Area_Type
  10
398768.779
  20
4631953.232
  0
VERTEX
  8
Unknown_Area_Type
  10
396301.788
  20
4631953.232
  0
VERTEX
  8
Unknown_Area_Type
  10
396303.287
  20
4632025.703
  0
VERTEX
  8
Unknown_Area_Type
  10
397937.260
  20
4632001.923
  0
VERTEX
  8
Unknown_Area_Type
  10
398770.853
  20
4631990.196
  0
SEQEND
  8
Unknown_Area_Type
  0
INSERT
  8
FeatureAttribs
  2
FEATURE
  41
1
  42
1
  43
1
  50
0
  10
397576.872
  20
4633371.808
 66
1
  0
ATTRIB
  8
FeatureAttribs
 70
0
  1
PNOA-H_AMS_1956-57_33k_ES_PAN_2
  2
NAME
  10
397576.872
  20
4633371.808
 40
33.75130
  0
SEQEND
  0
POLYLINE
  8
Unknown_Area_Type
  70
1
  66
1
  0
VERTEX
  8
Unknown_Area_Type
  10
398770.853
  20
4631990.196
  0
VERTEX
  8
Unknown_Area_Type
  10
397937.260
  20
4632001.923
  0
VERTEX
  8
Unknown_Area_Type
  10
396303.287
  20
4632025.703
  0
VERTEX
  8
Unknown_Area_Type
  10
396355.500
  20
4634550.500
  0
VERTEX
  8
Unknown_Area_Type
  10
397390.500
  20
4634937.500
  0
VERTEX
  8
Unknown_Area_Type
  10
397392.000
  20
4634938.000
  0
VERTEX
  8
Unknown_Area_Type
  10
398908.500
  20
4634444.000
  0
VERTEX
  8
Unknown_Area_Type
  10
398770.853
  20
4631990.196
  0
SEQEND
  8
Unknown_Area_Type
  0
INSERT
  8
FeatureAttribs
  2
FEATURE
  41
1
  42
1
  43
1
  50
0
  10
397576.872
  20
4633371.808
 66
1
  0
ATTRIB
  8
FeatureAttribs
 70
0
  1
PNOA-H_AMS_1956-57_33k_ES_PAN_2
  2
NAME
  10
397576.872
  20
4633371.808
 40
33.75130
  0
SEQEND
  0
POLYLINE
  8
Unknown_Area_Type
  70
1
  66
1
  0
VERTEX
  8
Unknown_Area_Type
  10
398770.853
  20
4631990.196
  0
VERTEX
  8
Unknown_Area_Type
  10
398908.500
  20
4634444.000
  0
VERTEX
  8
Unknown_Area_Type
  10
397392.000
  20
4634938.000
  0
VERTEX
  8
Unknown_Area_Type
  10
397390.500
  20
4634937.500
  0
VERTEX
  8
Unknown_Area_Type
  10
396355.500
  20
4634550.500
  0
VERTEX
  8
Unknown_Area_Type
  10
396303.287
  20
4632025.703
  0
VERTEX
  8
Unknown_Area_Type
  10
397937.260
  20
4632001.923
  0
VERTEX
  8
Unknown_Area_Type
  10
398770.853
  20
4631990.196
  0
SEQEND
  8
Unknown_Area_Type
  0
INSERT
  8
FeatureAttribs
  2
FEATURE
  41
1
  42
1
  43
1
  50
0
  10
392474.046
  20
4632027.508
 66
1
  0
ATTRIB
  8
FeatureAttribs
 70
0
  1
PNOA-H_AMS_1956-57_33k_ES_PAN_2
  2
NAME
  10
392474.046
  20
4632027.508
 40
33.75130
  0
SEQEND
  0
POLYLINE
  8
Unknown_Area_Type
  70
1
  66
1
  0
VERTEX
  8
Unknown_Area_Type
  10
393764.600
  20
4631953.232
  0
VERTEX
  8
Unknown_Area_Type
  10
391178.951
  20
4631953.232
  0
VERTEX
  8
Unknown_Area_Type
  10
391185.295
  20
4632101.784
  0
VERTEX
  8
Unknown_Area_Type
  10
393766.624
  20
4632062.965
  0
VERTEX
  8
Unknown_Area_Type
  10
393764.600
  20
4631953.232
  0
SEQEND
  8
Unknown_Area_Type
  0
INSERT
  8
FeatureAttribs
  2
FEATURE
  41
1
  42
1
  43
1
  50
0
  10
392500.059
  20
4633469.300
 66
1
  0
ATTRIB
  8
FeatureAttribs
 70
0
  1
PNOA-H_AMS_1956-57_33k_ES_PAN_2
  2
NAME
  10
392500.059
  20
4633469.300
 40
33.75130
  0
SEQEND
  0
POLYLINE
  8
Unknown_Area_Type
  70
1
  66
1
  0
VERTEX
  8
Unknown_Area_Type
  10
393766.624
  20
4632062.965
  0
VERTEX
  8
Unknown_Area_Type
  10
391185.295
  20
4632101.784
  0
VERTEX
  8
Unknown_Area_Type
  10
391299.500
  20
4634776.000
  0
VERTEX
  8
Unknown_Area_Type
  10
391852.500
  20
4635044.500
  0
VERTEX
  8
Unknown_Area_Type
  10
392848.000
  20
4634848.500
  0
VERTEX
  8
Unknown_Area_Type
  10
392850.000
  20
4634848.500
  0
VERTEX
  8
Unknown_Area_Type
  10
393814.500
  20
4634659.000
  0
VERTEX
  8
Unknown_Area_Type
  10
393766.624
  20
4632062.965
  0
SEQEND
  8
Unknown_Area_Type
  0
INSERT
  8
FeatureAttribs
  2
FEATURE
  41
1
  42
1
  43
1
  50
0
  10
392500.059
  20
4633469.300
 66
1
  0
ATTRIB
  8
FeatureAttribs
 70
0
  1
PNOA-H_AMS_1956-57_33k_ES_PAN_2
  2
NAME
  10
392500.059
  20
4633469.300
 40
33.75130
  0
SEQEND
  0
POLYLINE
  8
Unknown_Area_Type
  70
1
  66
1
  0
VERTEX
  8
Unknown_Area_Type
  10
393766.624
  20
4632062.965
  0
VERTEX
  8
Unknown_Area_Type
  10
393814.500
  20
4634659.000
  0
VERTEX
  8
Unknown_Area_Type
  10
392850.000
  20
4634848.500
  0
VERTEX
  8
Unknown_Area_Type
  10
392848.000
  20
4634848.500
  0
VERTEX
  8
Unknown_Area_Type
  10
391852.500
  20
4635044.500
  0
VERTEX
  8
Unknown_Area_Type
  10
391299.500
  20
4634776.000
  0
VERTEX
  8
Unknown_Area_Type
  10
391185.295
  20
4632101.784
  0
VERTEX
  8
Unknown_Area_Type
  10
393766.624
  20
4632062.965
  0
SEQEND
  8
Unknown_Area_Type
  0
INSERT
  8
FeatureAttribs
  2
FEATURE
  41
1
  42
1
  43
1
  50
0
  10
387286.596
  20
4632068.135
 66
1
  0
ATTRIB
  8
FeatureAttribs
 70
0
  1
PNOA-H_AMS_1956-57_33k_ES_PAN_2
  2
NAME
  10
387286.596
  20
4632068.135
 40
33.75130
  0
SEQEND
  0
POLYLINE
  8
Unknown_Area_Type
  70
1
  66
1
  0
VERTEX
  8
Unknown_Area_Type
  10
388575.232
  20
4631953.232
  0
VERTEX
  8
Unknown_Area_Type
  10
385988.608
  20
4631953.232
  0
VERTEX
  8
Unknown_Area_Type
  10
385994.726
  20
4632183.039
  0
VERTEX
  8
Unknown_Area_Type
  10
387557.792
  20
4632158.016
  0
VERTEX
  8
Unknown_Area_Type
  10
388585.573
  20
4632142.060
  0
VERTEX
  8
Unknown_Area_Type
  10
388575.232
  20
4631953.232
  0
SEQEND
  8
Unknown_Area_Type
  0
INSERT
  8
FeatureAttribs
  2
FEATURE
  41
1
  42
1
  43
1
  50
0
  10
387334.150
  20
4633612.696
 66
1
  0
ATTRIB
  8
FeatureAttribs
 70
0
  1
PNOA-H_AMS_1956-57_33k_ES_PAN_2
  2
NAME
  10
387334.150
  20
4633612.696
 40
33.75130
  0
SEQEND
  0
POLYLINE
  8
Unknown_Area_Type
  70
1
  66
1
  0
VERTEX
  8
Unknown_Area_Type
  10
388585.573
  20
4632142.060
  0
VERTEX
  8
Unknown_Area_Type
  10
387557.792
  20
4632158.016
  0
VERTEX
  8
Unknown_Area_Type
  10
385994.726
  20
4632183.039
  0
VERTEX
  8
Unknown_Area_Type
  10
386070.500
  20
4635029.500
  0
VERTEX
  8
Unknown_Area_Type
  10
386315.500
  20
4635166.500
  0
VERTEX
  8
Unknown_Area_Type
  10
386704.500
  20
4635126.000
  0
VERTEX
  8
Unknown_Area_Type
  10
386706.000
  20
4635126.000
  0
VERTEX
  8
Unknown_Area_Type
  10
388737.500
  20
4634916.500
  0
VERTEX
  8
Unknown_Area_Type
  10
388585.573
  20
4632142.060
  0
SEQEND
  8
Unknown_Area_Type
  0
INSERT
  8
FeatureAttribs
  2
FEATURE
  41
1
  42
1
  43
1
  50
0
  10
387334.150
  20
4633612.696
 66
1
  0
ATTRIB
  8
FeatureAttribs
 70
0
  1
PNOA-H_AMS_1956-57_33k_ES_PAN_2
  2
NAME
  10
387334.150
  20
4633612.696
 40
33.75130
  0
SEQEND
  0
POLYLINE
  8
Unknown_Area_Type
  70
1
  66
1
  0
VERTEX
  8
Unknown_Area_Type
  10
388585.573
  20
4632142.060
  0
VERTEX
  8
Unknown_Area_Type
  10
388737.500
  20
4634916.500
  0
VERTEX
  8
Unknown_Area_Type
  10
386706.000
  20
4635126.000
  0
VERTEX
  8
Unknown_Area_Type
  10
386704.500
  20
4635126.000
  0
VERTEX
  8
Unknown_Area_Type
  10
386315.500
  20
4635166.500
  0
VERTEX
  8
Unknown_Area_Type
  10
386070.500
  20
4635029.500
  0
VERTEX
  8
Unknown_Area_Type
  10
385994.726
  20
4632183.039
  0
VERTEX
  8
Unknown_Area_Type
  10
387557.792
  20
4632158.016
  0
VERTEX
  8
Unknown_Area_Type
  10
388585.573
  20
4632142.060
  0
SEQEND
  8
Unknown_Area_Type
  0
INSERT
  8
FeatureAttribs
  2
FEATURE
  41
1
  42
1
  43
1
  50
0
  10
399427.188
  20
4631971.715
 66
1
  0
ATTRIB
  8
FeatureAttribs
 70
0
  1
PNOA-H_AMS_1956-57_33k_ES_PAN_2
  2
NAME
  10
399427.188
  20
4631971.715
 40
33.75130
  0
SEQEND
  0
POLYLINE
  8
Unknown_Area_Type
  70
1
  66
1
  0
VERTEX
  8
Unknown_Area_Type
  10
401247.006
  20
4631955.362
  0
VERTEX
  8
Unknown_Area_Type
  10
401246.862
  20
4631953.232
  0
VERTEX
  8
Unknown_Area_Type
  10
398768.731
  20
4631953.232
  0
VERTEX
  8
Unknown_Area_Type
  10
398770.802
  20
4631990.197
  0
VERTEX
  8
Unknown_Area_Type
  10
401247.006
  20
4631955.362
  0
SEQEND
  8
Unknown_Area_Type
  0
INSERT
  8
FeatureAttribs
  2
FEATURE
  41
1
  42
1
  43
1
  50
0
  10
400085.920
  20
4633298.696
 66
1
  0
ATTRIB
  8
FeatureAttribs
 70
0
  1
PNOA-H_AMS_1956-57_33k_ES_PAN_2
  2
NAME
  10
400085.920
  20
4633298.696
 40
33.75130
  0
SEQEND
  0
POLYLINE
  8
Unknown_Area_Type
  70
1
  66
1
  0
VERTEX
  8
Unknown_Area_Type
  10
401247.006
  20
4631955.362
  0
VERTEX
  8
Unknown_Area_Type
  10
398770.802
  20
4631990.197
  0
VERTEX
  8
Unknown_Area_Type
  10
398908.000
  20
4634439.000
  0
VERTEX
  8
Unknown_Area_Type
  10
398908.500
  20
4634444.000
  0
VERTEX
  8
Unknown_Area_Type
  10
398909.500
  20
4634444.500
  0
VERTEX
  8
Unknown_Area_Type
  10
398991.500
  20
4634469.500
  0
VERTEX
  8
Unknown_Area_Type
  10
398993.000
  20
4634470.000
  0
VERTEX
  8
Unknown_Area_Type
  10
400172.000
  20
4634829.000
  0
VERTEX
  8
Unknown_Area_Type
  10
401409.000
  20
4634351.500
  0
VERTEX
  8
Unknown_Area_Type
  10
401247.006
  20
4631955.362
  0
SEQEND
  8
Unknown_Area_Type
  0
INSERT
  8
FeatureAttribs
  2
FEATURE
  41
1
  42
1
  43
1
  50
0
  10
400085.920
  20
4633298.696
 66
1
  0
ATTRIB
  8
FeatureAttribs
 70
0
  1
PNOA-H_AMS_1956-57_33k_ES_PAN_2
  2
NAME
  10
400085.920
  20
4633298.696
 40
33.75130
  0
SEQEND
  0
POLYLINE
  8
Unknown_Area_Type
  70
1
  66
1
  0
VERTEX
  8
Unknown_Area_Type
  10
401247.006
  20
4631955.362
  0
VERTEX
  8
Unknown_Area_Type
  10
401409.000
  20
4634351.500
  0
VERTEX
  8
Unknown_Area_Type
  10
400172.000
  20
4634829.000
  0
VERTEX
  8
Unknown_Area_Type
  10
398993.000
  20
4634470.000
  0
VERTEX
  8
Unknown_Area_Type
  10
398991.500
  20
4634469.500
  0
VERTEX
  8
Unknown_Area_Type
  10
398909.500
  20
4634444.500
  0
VERTEX
  8
Unknown_Area_Type
  10
398908.500
  20
4634444.000
  0
VERTEX
  8
Unknown_Area_Type
  10
398908.000
  20
4634439.000
  0
VERTEX
  8
Unknown_Area_Type
  10
398770.802
  20
4631990.197
  0
VERTEX
  8
Unknown_Area_Type
  10
401247.006
  20
4631955.362
  0
SEQEND
  8
Unknown_Area_Type
  0
INSERT
  8
FeatureAttribs
  2
FEATURE
  41
1
  42
1
  43
1
  50
0
  10
384698.586
  20
4632089.018
 66
1
  0
ATTRIB
  8
FeatureAttribs
 70
0
  1
PNOA-H_AMS_1956-57_33k_ES_PAN_2
  2
NAME
  10
384698.586
  20
4632089.018
 40
33.75130
  0
SEQEND
  0
POLYLINE
  8
Unknown_Area_Type
  70
1
  66
1
  0
VERTEX
  8
Unknown_Area_Type
  10
385988.608
  20
4631953.232
  0
VERTEX
  8
Unknown_Area_Type
  10
383403.077
  20
4631953.232
  0
VERTEX
  8
Unknown_Area_Type
  10
383406.823
  20
4632224.804
  0
VERTEX
  8
Unknown_Area_Type
  10
384097.956
  20
4632213.405
  0
VERTEX
  8
Unknown_Area_Type
  10
385994.726
  20
4632183.039
  0
VERTEX
  8
Unknown_Area_Type
  10
385988.608
  20
4631953.232
  0
SEQEND
  8
Unknown_Area_Type
  0
INSERT
  8
FeatureAttribs
  2
FEATURE
  41
1
  42
1
  43
1
  50
0
  10
384716.435
  20
4633682.030
 66
1
  0
ATTRIB
  8
FeatureAttribs
 70
0
  1
PNOA-H_AMS_1956-57_33k_ES_PAN_2
  2
NAME
  10
384716.435
  20
4633682.030
 40
33.75130
  0
SEQEND
  0
POLYLINE
  8
Unknown_Area_Type
  70
1
  66
1
  0
VERTEX
  8
Unknown_Area_Type
  10
385994.726
  20
4632183.039
  0
VERTEX
  8
Unknown_Area_Type
  10
384097.956
  20
4632213.405
  0
VERTEX
  8
Unknown_Area_Type
  10
383406.823
  20
4632224.804
  0
VERTEX
  8
Unknown_Area_Type
  10
383447.500
  20
4635173.500
  0
VERTEX
  8
Unknown_Area_Type
  10
383609.500
  20
4635265.000
  0
VERTEX
  8
Unknown_Area_Type
  10
383612.500
  20
4635265.000
  0
VERTEX
  8
Unknown_Area_Type
  10
384652.000
  20
4635165.000
  0
VERTEX
  8
Unknown_Area_Type
  10
384658.000
  20
4635164.500
  0
VERTEX
  8
Unknown_Area_Type
  10
386070.500
  20
4635029.500
  0
VERTEX
  8
Unknown_Area_Type
  10
385994.726
  20
4632183.039
  0
SEQEND
  8
Unknown_Area_Type
  0
INSERT
  8
FeatureAttribs
  2
FEATURE
  41
1
  42
1
  43
1
  50
0
  10
384716.435
  20
4633682.030
 66
1
  0
ATTRIB
  8
FeatureAttribs
 70
0
  1
PNOA-H_AMS_1956-57_33k_ES_PAN_2
  2
NAME
  10
384716.435
  20
4633682.030
 40
33.75130
  0
SEQEND
  0
POLYLINE
  8
Unknown_Area_Type
  70
1
  66
1
  0
VERTEX
  8
Unknown_Area_Type
  10
385994.726
  20
4632183.039
  0
VERTEX
  8
Unknown_Area_Type
  10
386070.500
  20
4635029.500
  0
VERTEX
  8
Unknown_Area_Type
  10
384658.000
  20
4635164.500
  0
VERTEX
  8
Unknown_Area_Type
  10
384652.000
  20
4635165.000
  0
VERTEX
  8
Unknown_Area_Type
  10
383612.500
  20
4635265.000
  0
VERTEX
  8
Unknown_Area_Type
  10
383609.500
  20
4635265.000
  0
VERTEX
  8
Unknown_Area_Type
  10
383447.500
  20
4635173.500
  0
VERTEX
  8
Unknown_Area_Type
  10
383406.823
  20
4632224.804
  0
VERTEX
  8
Unknown_Area_Type
  10
384097.956
  20
4632213.405
  0
VERTEX
  8
Unknown_Area_Type
  10
385994.726
  20
4632183.039
  0
SEQEND
  8
Unknown_Area_Type
  0
INSERT
  8
FeatureAttribs
  2
FEATURE
  41
1
  42
1
  43
1
  50
0
  10
382109.227
  20
4632110.377
 66
1
  0
ATTRIB
  8
FeatureAttribs
 70
0
  1
PNOA-H_AMS_1956-57_33k_ES_PAN_2
  2
NAME
  10
382109.227
  20
4632110.377
 40
33.75130
  0
SEQEND
  0
POLYLINE
  8
Unknown_Area_Type
  70
1
  66
1
  0
VERTEX
  8
Unknown_Area_Type
  10
383403.078
  20
4631953.232
  0
VERTEX
  8
Unknown_Area_Type
  10
380809.418
  20
4631953.232
  0
VERTEX
  8
Unknown_Area_Type
  10
380816.999
  20
4632267.522
  0
VERTEX
  8
Unknown_Area_Type
  10
383406.824
  20
4632224.804
  0
VERTEX
  8
Unknown_Area_Type
  10
383403.078
  20
4631953.232
  0
SEQEND
  8
Unknown_Area_Type
  0
INSERT
  8
FeatureAttribs
  2
FEATURE
  41
1
  42
1
  43
1
  50
0
  10
382131.897
  20
4633747.638
 66
1
  0
ATTRIB
  8
FeatureAttribs
 70
0
  1
PNOA-H_AMS_1956-57_33k_ES_PAN_2
  2
NAME
  10
382131.897
  20
4633747.638
 40
33.75130
  0
SEQEND
  0
POLYLINE
  8
Unknown_Area_Type
  70
1
  66
1
  0
VERTEX
  8
Unknown_Area_Type
  10
383406.824
  20
4632224.804
  0
VERTEX
  8
Unknown_Area_Type
  10
380816.999
  20
4632267.522
  0
VERTEX
  8
Unknown_Area_Type
  10
380890.500
  20
4635314.500
  0
VERTEX
  8
Unknown_Area_Type
  10
380923.500
  20
4635334.000
  0
VERTEX
  8
Unknown_Area_Type
  10
380929.000
  20
4635334.000
  0
VERTEX
  8
Unknown_Area_Type
  10
382606.000
  20
4635226.500
  0
VERTEX
  8
Unknown_Area_Type
  10
382610.000
  20
4635226.500
  0
VERTEX
  8
Unknown_Area_Type
  10
383447.500
  20
4635173.000
  0
VERTEX
  8
Unknown_Area_Type
  10
383406.824
  20
4632224.804
  0
SEQEND
  8
Unknown_Area_Type
  0
INSERT
  8
FeatureAttribs
  2
FEATURE
  41
1
  42
1
  43
1
  50
0
  10
382131.897
  20
4633747.638
 66
1
  0
ATTRIB
  8
FeatureAttribs
 70
0
  1
PNOA-H_AMS_1956-57_33k_ES_PAN_2
  2
NAME
  10
382131.897
  20
4633747.638
 40
33.75130
  0
SEQEND
  0
POLYLINE
  8
Unknown_Area_Type
  70
1
  66
1
  0
VERTEX
  8
Unknown_Area_Type
  10
383406.824
  20
4632224.804
  0
VERTEX
  8
Unknown_Area_Type
  10
383447.500
  20
4635173.000
  0
VERTEX
  8
Unknown_Area_Type
  10
382610.000
  20
4635226.500
  0
VERTEX
  8
Unknown_Area_Type
  10
382606.000
  20
4635226.500
  0
VERTEX
  8
Unknown_Area_Type
  10
380929.000
  20
4635334.000
  0
VERTEX
  8
Unknown_Area_Type
  10
380923.500
  20
4635334.000
  0
VERTEX
  8
Unknown_Area_Type
  10
380890.500
  20
4635314.500
  0
VERTEX
  8
Unknown_Area_Type
  10
380816.999
  20
4632267.522
  0
VERTEX
  8
Unknown_Area_Type
  10
383406.824
  20
4632224.804
  0
SEQEND
  8
Unknown_Area_Type
  0
INSERT
  8
FeatureAttribs
  2
FEATURE
  41
1
  42
1
  43
1
  50
0
  10
389881.824
  20
4632047.647
 66
1
  0
ATTRIB
  8
FeatureAttribs
 70
0
  1
PNOA-H_AMS_1956-57_33k_ES_PAN_2
  2
NAME
  10
389881.824
  20
4632047.647
 40
33.75130
  0
SEQEND
  0
POLYLINE
  8
Unknown_Area_Type
  70
1
  66
1
  0
VERTEX
  8
Unknown_Area_Type
  10
391179.317
  20
4631953.232
  0
VERTEX
  8
Unknown_Area_Type
  10
388575.152
  20
4631953.232
  0
VERTEX
  8
Unknown_Area_Type
  10
388585.472
  20
4632142.062
  0
VERTEX
  8
Unknown_Area_Type
  10
391017.621
  20
4632104.306
  0
VERTEX
  8
Unknown_Area_Type
  10
391185.642
  20
4632101.779
  0
VERTEX
  8
Unknown_Area_Type
  10
391179.317
  20
4631953.232
  0
SEQEND
  8
Unknown_Area_Type
  0
INSERT
  8
FeatureAttribs
  2
FEATURE
  41
1
  42
1
  43
1
  50
0
  10
389935.114
  20
4633534.463
 66
1
  0
ATTRIB
  8
FeatureAttribs
 70
0
  1
PNOA-H_AMS_1956-57_33k_ES_PAN_2
  2
NAME
  10
389935.114
  20
4633534.463
 40
33.75130
  0
SEQEND
  0
POLYLINE
  8
Unknown_Area_Type
  70
1
  66
1
  0
VERTEX
  8
Unknown_Area_Type
  10
391185.642
  20
4632101.779
  0
VERTEX
  8
Unknown_Area_Type
  10
391017.621
  20
4632104.306
  0
VERTEX
  8
Unknown_Area_Type
  10
388585.472
  20
4632142.062
  0
VERTEX
  8
Unknown_Area_Type
  10
388737.000
  20
4634914.500
  0
VERTEX
  8
Unknown_Area_Type
  10
388738.000
  20
4634917.000
  0
VERTEX
  8
Unknown_Area_Type
  10
388752.500
  20
4634925.000
  0
VERTEX
  8
Unknown_Area_Type
  10
388753.500
  20
4634925.500
  0
VERTEX
  8
Unknown_Area_Type
  10
389082.000
  20
4635106.000
  0
VERTEX
  8
Unknown_Area_Type
  10
391299.500
  20
4634776.000
  0
VERTEX
  8
Unknown_Area_Type
  10
391185.642
  20
4632101.779
  0
SEQEND
  8
Unknown_Area_Type
  0
INSERT
  8
FeatureAttribs
  2
FEATURE
  41
1
  42
1
  43
1
  50
0
  10
389935.114
  20
4633534.463
 66
1
  0
ATTRIB
  8
FeatureAttribs
 70
0
  1
PNOA-H_AMS_1956-57_33k_ES_PAN_2
  2
NAME
  10
389935.114
  20
4633534.463
 40
33.75130
  0
SEQEND
  0
POLYLINE
  8
Unknown_Area_Type
  70
1
  66
1
  0
VERTEX
  8
Unknown_Area_Type
  10
391185.642
  20
4632101.779
  0
VERTEX
  8
Unknown_Area_Type
  10
391299.500
  20
4634776.000
  0
VERTEX
  8
Unknown_Area_Type
  10
389082.000
  20
4635106.000
  0
VERTEX
  8
Unknown_Area_Type
  10
388753.500
  20
4634925.500
  0
VERTEX
  8
Unknown_Area_Type
  10
388752.500
  20
4634925.000
  0
VERTEX
  8
Unknown_Area_Type
  10
388738.000
  20
4634917.000
  0
VERTEX
  8
Unknown_Area_Type
  10
388737.000
  20
4634914.500
  0
VERTEX
  8
Unknown_Area_Type
  10
388585.472
  20
4632142.062
  0
VERTEX
  8
Unknown_Area_Type
  10
391017.621
  20
4632104.306
  0
VERTEX
  8
Unknown_Area_Type
  10
391185.642
  20
4632101.779
  0
SEQEND
  8
Unknown_Area_Type
  0
INSERT
  8
FeatureAttribs
  2
FEATURE
  41
1
  42
1
  43
1
  50
0
  10
376888.908
  20
4632155.149
 66
1
  0
ATTRIB
  8
FeatureAttribs
 70
0
  1
PNOA-H_AMS_1956-57_33k_ES_PAN_2
  2
NAME
  10
376888.908
  20
4632155.149
 40
33.75130
  0
SEQEND
  0
POLYLINE
  8
Unknown_Area_Type
  70
1
  66
1
  0
VERTEX
  8
Unknown_Area_Type
  10
378194.460
  20
4631953.232
  0
VERTEX
  8
Unknown_Area_Type
  10
375572.898
  20
4631953.232
  0
VERTEX
  8
Unknown_Area_Type
  10
375583.925
  20
4632357.066
  0
VERTEX
  8
Unknown_Area_Type
  10
377178.263
  20
4632329.220
  0
VERTEX
  8
Unknown_Area_Type
  10
378203.241
  20
4632311.816
  0
VERTEX
  8
Unknown_Area_Type
  10
378194.460
  20
4631953.232
  0
SEQEND
  8
Unknown_Area_Type
  0
INSERT
  8
FeatureAttribs
  2
FEATURE
  41
1
  42
1
  43
1
  50
0
  10
376933.416
  20
4633898.271
 66
1
  0
ATTRIB
  8
FeatureAttribs
 70
0
  1
PNOA-H_AMS_1956-57_33k_ES_PAN_2
  2
NAME
  10
376933.416
  20
4633898.271
 40
33.75130
  0
SEQEND
  0
POLYLINE
  8
Unknown_Area_Type
  70
1
  66
1
  0
VERTEX
  8
Unknown_Area_Type
  10
378203.241
  20
4632311.816
  0
VERTEX
  8
Unknown_Area_Type
  10
377178.263
  20
4632329.220
  0
VERTEX
  8
Unknown_Area_Type
  10
375583.925
  20
4632357.066
  0
VERTEX
  8
Unknown_Area_Type
  10
375669.500
  20
4635491.000
  0
VERTEX
  8
Unknown_Area_Type
  10
376461.500
  20
4635474.500
  0
VERTEX
  8
Unknown_Area_Type
  10
376466.000
  20
4635474.500
  0
VERTEX
  8
Unknown_Area_Type
  10
378226.000
  20
4635439.000
  0
VERTEX
  8
Unknown_Area_Type
  10
378231.500
  20
4635438.000
  0
VERTEX
  8
Unknown_Area_Type
  10
378279.000
  20
4635405.500
  0
VERTEX
  8
Unknown_Area_Type
  10
378203.241
  20
4632311.816
  0
SEQEND
  8
Unknown_Area_Type
  0
INSERT
  8
FeatureAttribs
  2
FEATURE
  41
1
  42
1
  43
1
  50
0
  10
376933.416
  20
4633898.271
 66
1
  0
ATTRIB
  8
FeatureAttribs
 70
0
  1
PNOA-H_AMS_1956-57_33k_ES_PAN_2
  2
NAME
  10
376933.416
  20
4633898.271
 40
33.75130
  0
SEQEND
  0
POLYLINE
  8
Unknown_Area_Type
  70
1
  66
1
  0
VERTEX
  8
Unknown_Area_Type
  10
378203.241
  20
4632311.816
  0
VERTEX
  8
Unknown_Area_Type
  10
378279.000
  20
4635405.500
  0
VERTEX
  8
Unknown_Area_Type
  10
378231.500
  20
4635438.000
  0
VERTEX
  8
Unknown_Area_Type
  10
378226.000
  20
4635439.000
  0
VERTEX
  8
Unknown_Area_Type
  10
376466.000
  20
4635474.500
  0
VERTEX
  8
Unknown_Area_Type
  10
376461.500
  20
4635474.500
  0
VERTEX
  8
Unknown_Area_Type
  10
375669.500
  20
4635491.000
  0
VERTEX
  8
Unknown_Area_Type
  10
375583.925
  20
4632357.066
  0
VERTEX
  8
Unknown_Area_Type
  10
377178.263
  20
4632329.220
  0
VERTEX
  8
Unknown_Area_Type
  10
378203.241
  20
4632311.816
  0
SEQEND
  8
Unknown_Area_Type
  0
INSERT
  8
FeatureAttribs
  2
FEATURE
  41
1
  42
1
  43
1
  50
0
  10
401555.453
  20
4636326.261
 66
1
  0
ATTRIB
  8
FeatureAttribs
 70
0
  1
PNOA-H_AMS_1956-57_33k_ES_PAN_2
  2
NAME
  10
401555.453
  20
4636326.261
 40
33.75130
  0
SEQEND
  0
POLYLINE
  8
Unknown_Area_Type
  70
1
  66
1
  0
VERTEX
  8
Unknown_Area_Type
  10
401653.353
  20
4634407.812
  0
VERTEX
  8
Unknown_Area_Type
  10
401430.294
  20
4634355.738
  0
VERTEX
  8
Unknown_Area_Type
  10
401461.056
  20
4636579.446
  0
VERTEX
  8
Unknown_Area_Type
  10
401484.773
  20
4638293.213
  0
VERTEX
  8
Unknown_Area_Type
  10
401653.353
  20
4638296.785
  0
VERTEX
  8
Unknown_Area_Type
  10
401653.353
  20
4634407.812
  0
SEQEND
  8
Unknown_Area_Type
  0
INSERT
  8
FeatureAttribs
  2
FEATURE
  41
1
  42
1
  43
1
  50
0
  10
400842.100
  20
4636429.108
 66
1
  0
ATTRIB
  8
FeatureAttribs
 70
0
  1
PNOA-H_AMS_1956-57_33k_ES_PAN_2
  2
NAME
  10
400842.100
  20
4636429.108
 40
33.75130
  0
SEQEND
  0
POLYLINE
  8
Unknown_Area_Type
  70
1
  66
1
  0
VERTEX
  8
Unknown_Area_Type
  10
401430.294
  20
4634355.738
  0
VERTEX
  8
Unknown_Area_Type
  10
401410.000
  20
4634351.000
  0
VERTEX
  8
Unknown_Area_Type
  10
400171.500
  20
4634829.000
  0
VERTEX
  8
Unknown_Area_Type
  10
400224.000
  20
4638266.500
  0
VERTEX
  8
Unknown_Area_Type
  10
401484.773
  20
4638293.213
  0
VERTEX
  8
Unknown_Area_Type
  10
401461.056
  20
4636579.446
  0
VERTEX
  8
Unknown_Area_Type
  10
401430.294
  20
4634355.738
  0
SEQEND
  8
Unknown_Area_Type
  0
INSERT
  8
FeatureAttribs
  2
FEATURE
  41
1
  42
1
  43
1
  50
0
  10
400842.100
  20
4636429.108
 66
1
  0
ATTRIB
  8
FeatureAttribs
 70
0
  1
PNOA-H_AMS_1956-57_33k_ES_PAN_2
  2
NAME
  10
400842.100
  20
4636429.108
 40
33.75130
  0
SEQEND
  0
POLYLINE
  8
Unknown_Area_Type
  70
1
  66
1
  0
VERTEX
  8
Unknown_Area_Type
  10
401430.294
  20
4634355.738
  0
VERTEX
  8
Unknown_Area_Type
  10
401461.056
  20
4636579.446
  0
VERTEX
  8
Unknown_Area_Type
  10
401484.773
  20
4638293.213
  0
VERTEX
  8
Unknown_Area_Type
  10
400224.000
  20
4638266.500
  0
VERTEX
  8
Unknown_Area_Type
  10
400171.500
  20
4634829.000
  0
VERTEX
  8
Unknown_Area_Type
  10
401410.000
  20
4634351.000
  0
VERTEX
  8
Unknown_Area_Type
  10
401430.294
  20
4634355.738
  0
SEQEND
  8
Unknown_Area_Type
  0
INSERT
  8
FeatureAttribs
  2
FEATURE
  41
1
  42
1
  43
1
  50
0
  10
373732.369
  20
4633967.957
 66
1
  0
ATTRIB
  8
FeatureAttribs
 70
0
  1
PNOA-H_AMS_1956-57_33k_ES_PAN_2
  2
NAME
  10
373732.369
  20
4633967.957
 40
33.75130
  0
SEQEND
  0
POLYLINE
  8
Unknown_Area_Type
  70
1
  66
1
  0
VERTEX
  8
Unknown_Area_Type
  10
373774.320
  20
4635546.268
  0
VERTEX
  8
Unknown_Area_Type
  10
373759.375
  20
4634702.776
  0
VERTEX
  8
Unknown_Area_Type
  10
373718.406
  20
4632389.647
  0
VERTEX
  8
Unknown_Area_Type
  10
373718.378
  20
4632389.648
  0
VERTEX
  8
Unknown_Area_Type
  10
373718.378
  20
4635545.115
  0
VERTEX
  8
Unknown_Area_Type
  10
373774.320
  20
4635546.268
  0
SEQEND
  8
Unknown_Area_Type
  0
INSERT
  8
FeatureAttribs
  2
FEATURE
  41
1
  42
1
  43
1
  50
0
  10
373718.392
  20
4632389.253
 66
1
  0
ATTRIB
  8
FeatureAttribs
 70
0
  1
PNOA-H_AMS_1956-57_33k_ES_PAN_2
  2
NAME
  10
373718.392
  20
4632389.253
 40
33.75130
  0
SEQEND
  0
POLYLINE
  8
Unknown_Area_Type
  70
1
  66
1
  0
VERTEX
  8
Unknown_Area_Type
  10
373718.378
  20
4632389.648
  0
VERTEX
  8
Unknown_Area_Type
  10
373718.406
  20
4632389.647
  0
VERTEX
  8
Unknown_Area_Type
  10
373718.378
  20
4632388.069
  0
VERTEX
  8
Unknown_Area_Type
  10
373718.378
  20
4632389.648
  0
SEQEND
  8
Unknown_Area_Type
  0
INSERT
  8
FeatureAttribs
  2
FEATURE
  41
1
  42
1
  43
1
  50
0
  10
374648.617
  20
4632171.440
 66
1
  0
ATTRIB
  8
FeatureAttribs
 70
0
  1
PNOA-H_AMS_1956-57_33k_ES_PAN_2
  2
NAME
  10
374648.617
  20
4632171.440
 40
33.75130
  0
SEQEND
  0
POLYLINE
  8
Unknown_Area_Type
  70
1
  66
1
  0
VERTEX
  8
Unknown_Area_Type
  10
375572.898
  20
4631953.232
  0
VERTEX
  8
Unknown_Area_Type
  10
373718.378
  20
4631953.232
  0
VERTEX
  8
Unknown_Area_Type
  10
373718.378
  20
4632388.069
  0
VERTEX
  8
Unknown_Area_Type
  10
373718.406
  20
4632389.647
  0
VERTEX
  8
Unknown_Area_Type
  10
375583.925
  20
4632357.066
  0
VERTEX
  8
Unknown_Area_Type
  10
375572.898
  20
4631953.232
  0
SEQEND
  8
Unknown_Area_Type
  0
INSERT
  8
FeatureAttribs
  2
FEATURE
  41
1
  42
1
  43
1
  50
0
  10
374689.729
  20
4633972.115
 66
1
  0
ATTRIB
  8
FeatureAttribs
 70
0
  1
PNOA-H_AMS_1956-57_33k_ES_PAN_2
  2
NAME
  10
374689.729
  20
4633972.115
 40
33.75130
  0
SEQEND
  0
POLYLINE
  8
Unknown_Area_Type
  70
1
  66
1
  0
VERTEX
  8
Unknown_Area_Type
  10
375583.925
  20
4632357.066
  0
VERTEX
  8
Unknown_Area_Type
  10
373718.406
  20
4632389.647
  0
VERTEX
  8
Unknown_Area_Type
  10
373759.375
  20
4634702.776
  0
VERTEX
  8
Unknown_Area_Type
  10
373774.320
  20
4635546.268
  0
VERTEX
  8
Unknown_Area_Type
  10
375484.000
  20
4635581.500
  0
VERTEX
  8
Unknown_Area_Type
  10
375508.500
  20
4635582.000
  0
VERTEX
  8
Unknown_Area_Type
  10
375526.500
  20
4635582.000
  0
VERTEX
  8
Unknown_Area_Type
  10
375528.500
  20
4635581.000
  0
VERTEX
  8
Unknown_Area_Type
  10
375669.500
  20
4635491.000
  0
VERTEX
  8
Unknown_Area_Type
  10
375583.925
  20
4632357.066
  0
SEQEND
  8
Unknown_Area_Type
  0
INSERT
  8
FeatureAttribs
  2
FEATURE
  41
1
  42
1
  43
1
  50
0
  10
374689.729
  20
4633972.115
 66
1
  0
ATTRIB
  8
FeatureAttribs
 70
0
  1
PNOA-H_AMS_1956-57_33k_ES_PAN_2
  2
NAME
  10
374689.729
  20
4633972.115
 40
33.75130
  0
SEQEND
  0
POLYLINE
  8
Unknown_Area_Type
  70
1
  66
1
  0
VERTEX
  8
Unknown_Area_Type
  10
375583.925
  20
4632357.066
  0
VERTEX
  8
Unknown_Area_Type
  10
375669.500
  20
4635491.000
  0
VERTEX
  8
Unknown_Area_Type
  10
375528.500
  20
4635581.000
  0
VERTEX
  8
Unknown_Area_Type
  10
375526.500
  20
4635582.000
  0
VERTEX
  8
Unknown_Area_Type
  10
375508.500
  20
4635582.000
  0
VERTEX
  8
Unknown_Area_Type
  10
375484.000
  20
4635581.500
  0
VERTEX
  8
Unknown_Area_Type
  10
373774.320
  20
4635546.268
  0
VERTEX
  8
Unknown_Area_Type
  10
373759.375
  20
4634702.776
  0
VERTEX
  8
Unknown_Area_Type
  10
373718.406
  20
4632389.647
  0
VERTEX
  8
Unknown_Area_Type
  10
375583.925
  20
4632357.066
  0
SEQEND
  8
Unknown_Area_Type
  0
INSERT
  8
FeatureAttribs
  2
FEATURE
  41
1
  42
1
  43
1
  50
0
  10
398832.399
  20
4636500.959
 66
1
  0
ATTRIB
  8
FeatureAttribs
 70
0
  1
PNOA-H_AMS_1956-57_33k_ES_PAN_2
  2
NAME
  10
398832.399
  20
4636500.959
 40
33.75130
  0
SEQEND
  0
POLYLINE
  8
Unknown_Area_Type
  70
1
  66
1
  0
VERTEX
  8
Unknown_Area_Type
  10
398994.000
  20
4638359.500
  0
VERTEX
  8
Unknown_Area_Type
  10
400136.500
  20
4638335.000
  0
VERTEX
  8
Unknown_Area_Type
  10
400224.000
  20
4638267.000
  0
VERTEX
  8
Unknown_Area_Type
  10
400171.500
  20
4634829.000
  0
VERTEX
  8
Unknown_Area_Type
  10
398909.500
  20
4634444.000
  0
VERTEX
  8
Unknown_Area_Type
  10
397410.500
  20
4634932.000
  0
VERTEX
  8
Unknown_Area_Type
  10
397393.000
  20
4634938.000
  0
VERTEX
  8
Unknown_Area_Type
  10
397393.000
  20
4634947.000
  0
VERTEX
  8
Unknown_Area_Type
  10
397532.500
  20
4638391.000
  0
VERTEX
  8
Unknown_Area_Type
  10
398989.000
  20
4638359.500
  0
VERTEX
  8
Unknown_Area_Type
  10
398994.000
  20
4638359.500
  0
SEQEND
  8
Unknown_Area_Type
  0
INSERT
  8
FeatureAttribs
  2
FEATURE
  41
1
  42
1
  43
1
  50
0
  10
398832.399
  20
4636500.959
 66
1
  0
ATTRIB
  8
FeatureAttribs
 70
0
  1
PNOA-H_AMS_1956-57_33k_ES_PAN_2
  2
NAME
  10
398832.399
  20
4636500.959
 40
33.75130
  0
SEQEND
  0
POLYLINE
  8
Unknown_Area_Type
  70
1
  66
1
  0
VERTEX
  8
Unknown_Area_Type
  10
398994.000
  20
4638359.500
  0
VERTEX
  8
Unknown_Area_Type
  10
398989.000
  20
4638359.500
  0
VERTEX
  8
Unknown_Area_Type
  10
397532.500
  20
4638391.000
  0
VERTEX
  8
Unknown_Area_Type
  10
397393.000
  20
4634947.000
  0
VERTEX
  8
Unknown_Area_Type
  10
397393.000
  20
4634938.000
  0
VERTEX
  8
Unknown_Area_Type
  10
397410.500
  20
4634932.000
  0
VERTEX
  8
Unknown_Area_Type
  10
398909.500
  20
4634444.000
  0
VERTEX
  8
Unknown_Area_Type
  10
400171.500
  20
4634829.000
  0
VERTEX
  8
Unknown_Area_Type
  10
400224.000
  20
4638267.000
  0
VERTEX
  8
Unknown_Area_Type
  10
400136.500
  20
4638335.000
  0
VERTEX
  8
Unknown_Area_Type
  10
398994.000
  20
4638359.500
  0
SEQEND
  8
Unknown_Area_Type
  0
INSERT
  8
FeatureAttribs
  2
FEATURE
  41
1
  42
1
  43
1
  50
0
  10
379506.377
  20
4632132.523
 66
1
  0
ATTRIB
  8
FeatureAttribs
 70
0
  1
PNOA-H_AMS_1956-57_33k_ES_PAN_2
  2
NAME
  10
379506.377
  20
4632132.523
 40
33.75130
  0
SEQEND
  0
POLYLINE
  8
Unknown_Area_Type
  70
1
  66
1
  0
VERTEX
  8
Unknown_Area_Type
  10
380809.487
  20
4631953.232
  0
VERTEX
  8
Unknown_Area_Type
  10
378194.515
  20
4631953.232
  0
VERTEX
  8
Unknown_Area_Type
  10
378203.325
  20
4632311.815
  0
VERTEX
  8
Unknown_Area_Type
  10
380638.113
  20
4632270.473
  0
VERTEX
  8
Unknown_Area_Type
  10
380817.108
  20
4632267.520
  0
VERTEX
  8
Unknown_Area_Type
  10
380809.487
  20
4631953.232
  0
SEQEND
  8
Unknown_Area_Type
  0
INSERT
  8
FeatureAttribs
  2
FEATURE
  41
1
  42
1
  43
1
  50
0
  10
379544.415
  20
4633824.924
 66
1
  0
ATTRIB
  8
FeatureAttribs
 70
0
  1
PNOA-H_AMS_1956-57_33k_ES_PAN_2
  2
NAME
  10
379544.415
  20
4633824.924
 40
33.75130
  0
SEQEND
  0
POLYLINE
  8
Unknown_Area_Type
  70
1
  66
1
  0
VERTEX
  8
Unknown_Area_Type
  10
380817.108
  20
4632267.520
  0
VERTEX
  8
Unknown_Area_Type
  10
380638.113
  20
4632270.473
  0
VERTEX
  8
Unknown_Area_Type
  10
378203.325
  20
4632311.815
  0
VERTEX
  8
Unknown_Area_Type
  10
378279.000
  20
4635392.000
  0
VERTEX
  8
Unknown_Area_Type
  10
378279.000
  20
4635405.500
  0
VERTEX
  8
Unknown_Area_Type
  10
380891.000
  20
4635315.000
  0
VERTEX
  8
Unknown_Area_Type
  10
380817.108
  20
4632267.520
  0
SEQEND
  8
Unknown_Area_Type
  0
INSERT
  8
FeatureAttribs
  2
FEATURE
  41
1
  42
1
  43
1
  50
0
  10
379544.415
  20
4633824.924
 66
1
  0
ATTRIB
  8
FeatureAttribs
 70
0
  1
PNOA-H_AMS_1956-57_33k_ES_PAN_2
  2
NAME
  10
379544.415
  20
4633824.924
 40
33.75130
  0
SEQEND
  0
POLYLINE
  8
Unknown_Area_Type
  70
1
  66
1
  0
VERTEX
  8
Unknown_Area_Type
  10
380817.108
  20
4632267.520
  0
VERTEX
  8
Unknown_Area_Type
  10
380891.000
  20
4635315.000
  0
VERTEX
  8
Unknown_Area_Type
  10
378279.000
  20
4635405.500
  0
VERTEX
  8
Unknown_Area_Type
  10
378279.000
  20
4635392.000
  0
VERTEX
  8
Unknown_Area_Type
  10
378203.325
  20
4632311.815
  0
VERTEX
  8
Unknown_Area_Type
  10
380638.113
  20
4632270.473
  0
VERTEX
  8
Unknown_Area_Type
  10
380817.108
  20
4632267.520
  0
SEQEND
  8
Unknown_Area_Type
  0
INSERT
  8
FeatureAttribs
  2
FEATURE
  41
1
  42
1
  43
1
  50
0
  10
393293.396
  20
4636755.701
 66
1
  0
ATTRIB
  8
FeatureAttribs
 70
0
  1
PNOA-H_AMS_1956-57_33k_ES_PAN_2
  2
NAME
  10
393293.396
  20
4636755.701
 40
33.75130
  0
SEQEND
  0
POLYLINE
  8
Unknown_Area_Type
  70
1
  66
1
  0
VERTEX
  8
Unknown_Area_Type
  10
392850.000
  20
4638689.500
  0
VERTEX
  8
Unknown_Area_Type
  10
394757.000
  20
4638556.000
  0
VERTEX
  8
Unknown_Area_Type
  10
394760.000
  20
4638555.500
  0
VERTEX
  8
Unknown_Area_Type
  10
394765.500
  20
4638551.000
  0
VERTEX
  8
Unknown_Area_Type
  10
394611.500
  20
4635011.500
  0
VERTEX
  8
Unknown_Area_Type
  10
393815.500
  20
4634659.000
  0
VERTEX
  8
Unknown_Area_Type
  10
391852.500
  20
4635044.500
  0
VERTEX
  8
Unknown_Area_Type
  10
391958.000
  20
4638752.000
  0
VERTEX
  8
Unknown_Area_Type
  10
392846.500
  20
4638689.500
  0
VERTEX
  8
Unknown_Area_Type
  10
392850.000
  20
4638689.500
  0
SEQEND
  8
Unknown_Area_Type
  0
INSERT
  8
FeatureAttribs
  2
FEATURE
  41
1
  42
1
  43
1
  50
0
  10
393293.396
  20
4636755.701
 66
1
  0
ATTRIB
  8
FeatureAttribs
 70
0
  1
PNOA-H_AMS_1956-57_33k_ES_PAN_2
  2
NAME
  10
393293.396
  20
4636755.701
 40
33.75130
  0
SEQEND
  0
POLYLINE
  8
Unknown_Area_Type
  70
1
  66
1
  0
VERTEX
  8
Unknown_Area_Type
  10
392850.000
  20
4638689.500
  0
VERTEX
  8
Unknown_Area_Type
  10
392846.500
  20
4638689.500
  0
VERTEX
  8
Unknown_Area_Type
  10
391958.000
  20
4638752.000
  0
VERTEX
  8
Unknown_Area_Type
  10
391852.500
  20
4635044.500
  0
VERTEX
  8
Unknown_Area_Type
  10
393815.500
  20
4634659.000
  0
VERTEX
  8
Unknown_Area_Type
  10
394611.500
  20
4635011.500
  0
VERTEX
  8
Unknown_Area_Type
  10
394765.500
  20
4638551.000
  0
VERTEX
  8
Unknown_Area_Type
  10
394760.000
  20
4638555.500
  0
VERTEX
  8
Unknown_Area_Type
  10
394757.000
  20
4638556.000
  0
VERTEX
  8
Unknown_Area_Type
  10
392850.000
  20
4638689.500
  0
SEQEND
  8
Unknown_Area_Type
  0
INSERT
  8
FeatureAttribs
  2
FEATURE
  41
1
  42
1
  43
1
  50
0
  10
390521.326
  20
4636891.656
 66
1
  0
ATTRIB
  8
FeatureAttribs
 70
0
  1
PNOA-H_AMS_1956-57_33k_ES_PAN_2
  2
NAME
  10
390521.326
  20
4636891.656
 40
33.75130
  0
SEQEND
  0
POLYLINE
  8
Unknown_Area_Type
  70
1
  66
1
  0
VERTEX
  8
Unknown_Area_Type
  10
390802.000
  20
4638836.000
  0
VERTEX
  8
Unknown_Area_Type
  10
391926.000
  20
4638779.500
  0
VERTEX
  8
Unknown_Area_Type
  10
391958.000
  20
4638752.500
  0
VERTEX
  8
Unknown_Area_Type
  10
391853.000
  20
4635045.500
  0
VERTEX
  8
Unknown_Area_Type
  10
391852.500
  20
4635044.000
  0
VERTEX
  8
Unknown_Area_Type
  10
391840.500
  20
4635038.000
  0
VERTEX
  8
Unknown_Area_Type
  10
391300.000
  20
4634776.000
  0
VERTEX
  8
Unknown_Area_Type
  10
389081.500
  20
4635106.000
  0
VERTEX
  8
Unknown_Area_Type
  10
389178.000
  20
4638917.500
  0
VERTEX
  8
Unknown_Area_Type
  10
390794.000
  20
4638836.000
  0
VERTEX
  8
Unknown_Area_Type
  10
390802.000
  20
4638836.000
  0
SEQEND
  8
Unknown_Area_Type
  0
INSERT
  8
FeatureAttribs
  2
FEATURE
  41
1
  42
1
  43
1
  50
0
  10
390521.326
  20
4636891.656
 66
1
  0
ATTRIB
  8
FeatureAttribs
 70
0
  1
PNOA-H_AMS_1956-57_33k_ES_PAN_2
  2
NAME
  10
390521.326
  20
4636891.656
 40
33.75130
  0
SEQEND
  0
POLYLINE
  8
Unknown_Area_Type
  70
1
  66
1
  0
VERTEX
  8
Unknown_Area_Type
  10
390802.000
  20
4638836.000
  0
VERTEX
  8
Unknown_Area_Type
  10
390794.000
  20
4638836.000
  0
VERTEX
  8
Unknown_Area_Type
  10
389178.000
  20
4638917.500
  0
VERTEX
  8
Unknown_Area_Type
  10
389081.500
  20
4635106.000
  0
VERTEX
  8
Unknown_Area_Type
  10
391300.000
  20
4634776.000
  0
VERTEX
  8
Unknown_Area_Type
  10
391840.500
  20
4635038.000
  0
VERTEX
  8
Unknown_Area_Type
  10
391852.500
  20
4635044.000
  0
VERTEX
  8
Unknown_Area_Type
  10
391853.000
  20
4635045.500
  0
VERTEX
  8
Unknown_Area_Type
  10
391958.000
  20
4638752.500
  0
VERTEX
  8
Unknown_Area_Type
  10
391926.000
  20
4638779.500
  0
VERTEX
  8
Unknown_Area_Type
  10
390802.000
  20
4638836.000
  0
SEQEND
  8
Unknown_Area_Type
  0
INSERT
  8
FeatureAttribs
  2
FEATURE
  41
1
  42
1
  43
1
  50
0
  10
396075.424
  20
4636625.494
 66
1
  0
ATTRIB
  8
FeatureAttribs
 70
0
  1
PNOA-H_AMS_1956-57_33k_ES_PAN_2
  2
NAME
  10
396075.424
  20
4636625.494
 40
33.75130
  0
SEQEND
  0
POLYLINE
  8
Unknown_Area_Type
  70
1
  66
1
  0
VERTEX
  8
Unknown_Area_Type
  10
394765.500
  20
4638550.500
  0
VERTEX
  8
Unknown_Area_Type
  10
397476.000
  20
4638433.000
  0
VERTEX
  8
Unknown_Area_Type
  10
397482.500
  20
4638432.500
  0
VERTEX
  8
Unknown_Area_Type
  10
397532.500
  20
4638391.500
  0
VERTEX
  8
Unknown_Area_Type
  10
397393.000
  20
4634938.000
  0
VERTEX
  8
Unknown_Area_Type
  10
396354.500
  20
4634550.500
  0
VERTEX
  8
Unknown_Area_Type
  10
394611.500
  20
4635011.500
  0
VERTEX
  8
Unknown_Area_Type
  10
394765.500
  20
4638543.500
  0
VERTEX
  8
Unknown_Area_Type
  10
394765.500
  20
4638550.500
  0
SEQEND
  8
Unknown_Area_Type
  0
INSERT
  8
FeatureAttribs
  2
FEATURE
  41
1
  42
1
  43
1
  50
0
  10
396075.424
  20
4636625.494
 66
1
  0
ATTRIB
  8
FeatureAttribs
 70
0
  1
PNOA-H_AMS_1956-57_33k_ES_PAN_2
  2
NAME
  10
396075.424
  20
4636625.494
 40
33.75130
  0
SEQEND
  0
POLYLINE
  8
Unknown_Area_Type
  70
1
  66
1
  0
VERTEX
  8
Unknown_Area_Type
  10
394765.500
  20
4638550.500
  0
VERTEX
  8
Unknown_Area_Type
  10
394765.500
  20
4638543.500
  0
VERTEX
  8
Unknown_Area_Type
  10
394611.500
  20
4635011.500
  0
VERTEX
  8
Unknown_Area_Type
  10
396354.500
  20
4634550.500
  0
VERTEX
  8
Unknown_Area_Type
  10
397393.000
  20
4634938.000
  0
VERTEX
  8
Unknown_Area_Type
  10
397532.500
  20
4638391.500
  0
VERTEX
  8
Unknown_Area_Type
  10
397482.500
  20
4638432.500
  0
VERTEX
  8
Unknown_Area_Type
  10
397476.000
  20
4638433.000
  0
VERTEX
  8
Unknown_Area_Type
  10
394765.500
  20
4638550.500
  0
SEQEND
  8
Unknown_Area_Type
  0
INSERT
  8
FeatureAttribs
  2
FEATURE
  41
1
  42
1
  43
1
  50
0
  10
385086.918
  20
4637137.999
 66
1
  0
ATTRIB
  8
FeatureAttribs
 70
0
  1
PNOA-H_AMS_1956-57_33k_ES_PAN_2
  2
NAME
  10
385086.918
  20
4637137.999
 40
33.75130
  0
SEQEND
  0
POLYLINE
  8
Unknown_Area_Type
  70
1
  66
1
  0
VERTEX
  8
Unknown_Area_Type
  10
386313.000
  20
4639172.000
  0
VERTEX
  8
Unknown_Area_Type
  10
386321.000
  20
4639171.500
  0
VERTEX
  8
Unknown_Area_Type
  10
386507.500
  20
4639043.500
  0
VERTEX
  8
Unknown_Area_Type
  10
386316.000
  20
4635166.500
  0
VERTEX
  8
Unknown_Area_Type
  10
386071.000
  20
4635029.500
  0
VERTEX
  8
Unknown_Area_Type
  10
383617.500
  20
4635264.000
  0
VERTEX
  8
Unknown_Area_Type
  10
383610.000
  20
4635265.000
  0
VERTEX
  8
Unknown_Area_Type
  10
383610.000
  20
4635268.000
  0
VERTEX
  8
Unknown_Area_Type
  10
383867.500
  20
4639137.500
  0
VERTEX
  8
Unknown_Area_Type
  10
386277.500
  20
4639171.500
  0
VERTEX
  8
Unknown_Area_Type
  10
386313.000
  20
4639172.000
  0
SEQEND
  8
Unknown_Area_Type
  0
INSERT
  8
FeatureAttribs
  2
FEATURE
  41
1
  42
1
  43
1
  50
0
  10
385086.918
  20
4637137.999
 66
1
  0
ATTRIB
  8
FeatureAttribs
 70
0
  1
PNOA-H_AMS_1956-57_33k_ES_PAN_2
  2
NAME
  10
385086.918
  20
4637137.999
 40
33.75130
  0
SEQEND
  0
POLYLINE
  8
Unknown_Area_Type
  70
1
  66
1
  0
VERTEX
  8
Unknown_Area_Type
  10
386313.000
  20
4639172.000
  0
VERTEX
  8
Unknown_Area_Type
  10
386277.500
  20
4639171.500
  0
VERTEX
  8
Unknown_Area_Type
  10
383867.500
  20
4639137.500
  0
VERTEX
  8
Unknown_Area_Type
  10
383610.000
  20
4635268.000
  0
VERTEX
  8
Unknown_Area_Type
  10
383610.000
  20
4635265.000
  0
VERTEX
  8
Unknown_Area_Type
  10
383617.500
  20
4635264.000
  0
VERTEX
  8
Unknown_Area_Type
  10
386071.000
  20
4635029.500
  0
VERTEX
  8
Unknown_Area_Type
  10
386316.000
  20
4635166.500
  0
VERTEX
  8
Unknown_Area_Type
  10
386507.500
  20
4639043.500
  0
VERTEX
  8
Unknown_Area_Type
  10
386321.000
  20
4639171.500
  0
VERTEX
  8
Unknown_Area_Type
  10
386313.000
  20
4639172.000
  0
SEQEND
  8
Unknown_Area_Type
  0
INSERT
  8
FeatureAttribs
  2
FEATURE
  41
1
  42
1
  43
1
  50
0
  10
382398.506
  20
4637291.790
 66
1
  0
ATTRIB
  8
FeatureAttribs
 70
0
  1
PNOA-H_AMS_1956-57_33k_ES_PAN_2
  2
NAME
  10
382398.506
  20
4637291.790
 40
33.75130
  0
SEQEND
  0
POLYLINE
  8
Unknown_Area_Type
  70
1
  66
1
  0
VERTEX
  8
Unknown_Area_Type
  10
383543.500
  20
4639353.500
  0
VERTEX
  8
Unknown_Area_Type
  10
383549.000
  20
4639353.500
  0
VERTEX
  8
Unknown_Area_Type
  10
383866.500
  20
4639138.500
  0
VERTEX
  8
Unknown_Area_Type
  10
383867.500
  20
4639137.500
  0
VERTEX
  8
Unknown_Area_Type
  10
383867.500
  20
4639131.000
  0
VERTEX
  8
Unknown_Area_Type
  10
383610.500
  20
4635268.000
  0
VERTEX
  8
Unknown_Area_Type
  10
383609.000
  20
4635264.000
  0
VERTEX
  8
Unknown_Area_Type
  10
383447.500
  20
4635173.000
  0
VERTEX
  8
Unknown_Area_Type
  10
380924.000
  20
4635334.500
  0
VERTEX
  8
Unknown_Area_Type
  10
381157.000
  20
4639316.000
  0
VERTEX
  8
Unknown_Area_Type
  10
383511.500
  20
4639353.000
  0
VERTEX
  8
Unknown_Area_Type
  10
383543.500
  20
4639353.500
  0
SEQEND
  8
Unknown_Area_Type
  0
INSERT
  8
FeatureAttribs
  2
FEATURE
  41
1
  42
1
  43
1
  50
0
  10
382398.506
  20
4637291.790
 66
1
  0
ATTRIB
  8
FeatureAttribs
 70
0
  1
PNOA-H_AMS_1956-57_33k_ES_PAN_2
  2
NAME
  10
382398.506
  20
4637291.790
 40
33.75130
  0
SEQEND
  0
POLYLINE
  8
Unknown_Area_Type
  70
1
  66
1
  0
VERTEX
  8
Unknown_Area_Type
  10
383543.500
  20
4639353.500
  0
VERTEX
  8
Unknown_Area_Type
  10
383511.500
  20
4639353.000
  0
VERTEX
  8
Unknown_Area_Type
  10
381157.000
  20
4639316.000
  0
VERTEX
  8
Unknown_Area_Type
  10
380924.000
  20
4635334.500
  0
VERTEX
  8
Unknown_Area_Type
  10
383447.500
  20
4635173.000
  0
VERTEX
  8
Unknown_Area_Type
  10
383609.000
  20
4635264.000
  0
VERTEX
  8
Unknown_Area_Type
  10
383610.500
  20
4635268.000
  0
VERTEX
  8
Unknown_Area_Type
  10
383867.500
  20
4639131.000
  0
VERTEX
  8
Unknown_Area_Type
  10
383867.500
  20
4639137.500
  0
VERTEX
  8
Unknown_Area_Type
  10
383866.500
  20
4639138.500
  0
VERTEX
  8
Unknown_Area_Type
  10
383549.000
  20
4639353.500
  0
VERTEX
  8
Unknown_Area_Type
  10
383543.500
  20
4639353.500
  0
SEQEND
  8
Unknown_Area_Type
  0
INSERT
  8
FeatureAttribs
  2
FEATURE
  41
1
  42
1
  43
1
  50
0
  10
373765.970
  20
4637760.663
 66
1
  0
ATTRIB
  8
FeatureAttribs
 70
0
  1
PNOA-H_AMS_1956-57_33k_ES_PAN_2
  2
NAME
  10
373765.970
  20
4637760.663
 40
33.75130
  0
SEQEND
  0
POLYLINE
  8
Unknown_Area_Type
  70
1
  66
1
  0
VERTEX
  8
Unknown_Area_Type
  10
373774.319
  20
4635546.184
  0
VERTEX
  8
Unknown_Area_Type
  10
373718.378
  20
4635545.040
  0
VERTEX
  8
Unknown_Area_Type
  10
373718.378
  20
4639976.286
  0
VERTEX
  8
Unknown_Area_Type
  10
373852.814
  20
4639974.829
  0
VERTEX
  8
Unknown_Area_Type
  10
373841.363
  20
4639329.058
  0
VERTEX
  8
Unknown_Area_Type
  10
373800.361
  20
4637015.913
  0
VERTEX
  8
Unknown_Area_Type
  10
373774.319
  20
4635546.184
  0
SEQEND
  8
Unknown_Area_Type
  0
INSERT
  8
FeatureAttribs
  2
FEATURE
  41
1
  42
1
  43
1
  50
0
  10
374703.289
  20
4637736.601
 66
1
  0
ATTRIB
  8
FeatureAttribs
 70
0
  1
PNOA-H_AMS_1956-57_33k_ES_PAN_2
  2
NAME
  10
374703.289
  20
4637736.601
 40
33.75130
  0
SEQEND
  0
POLYLINE
  8
Unknown_Area_Type
  70
1
  66
1
  0
VERTEX
  8
Unknown_Area_Type
  10
373852.814
  20
4639974.829
  0
VERTEX
  8
Unknown_Area_Type
  10
374021.500
  20
4639973.000
  0
VERTEX
  8
Unknown_Area_Type
  10
374414.500
  20
4639918.500
  0
VERTEX
  8
Unknown_Area_Type
  10
374418.000
  20
4639918.000
  0
VERTEX
  8
Unknown_Area_Type
  10
375696.000
  20
4639743.000
  0
VERTEX
  8
Unknown_Area_Type
  10
375526.000
  20
4635582.000
  0
VERTEX
  8
Unknown_Area_Type
  10
373774.319
  20
4635546.184
  0
VERTEX
  8
Unknown_Area_Type
  10
373800.361
  20
4637015.913
  0
VERTEX
  8
Unknown_Area_Type
  10
373841.363
  20
4639329.058
  0
VERTEX
  8
Unknown_Area_Type
  10
373852.814
  20
4639974.829
  0
SEQEND
  8
Unknown_Area_Type
  0
INSERT
  8
FeatureAttribs
  2
FEATURE
  41
1
  42
1
  43
1
  50
0
  10
374703.289
  20
4637736.601
 66
1
  0
ATTRIB
  8
FeatureAttribs
 70
0
  1
PNOA-H_AMS_1956-57_33k_ES_PAN_2
  2
NAME
  10
374703.289
  20
4637736.601
 40
33.75130
  0
SEQEND
  0
POLYLINE
  8
Unknown_Area_Type
  70
1
  66
1
  0
VERTEX
  8
Unknown_Area_Type
  10
373852.814
  20
4639974.829
  0
VERTEX
  8
Unknown_Area_Type
  10
373841.363
  20
4639329.058
  0
VERTEX
  8
Unknown_Area_Type
  10
373800.361
  20
4637015.913
  0
VERTEX
  8
Unknown_Area_Type
  10
373774.319
  20
4635546.184
  0
VERTEX
  8
Unknown_Area_Type
  10
375526.000
  20
4635582.000
  0
VERTEX
  8
Unknown_Area_Type
  10
375696.000
  20
4639743.000
  0
VERTEX
  8
Unknown_Area_Type
  10
374418.000
  20
4639918.000
  0
VERTEX
  8
Unknown_Area_Type
  10
374414.500
  20
4639918.500
  0
VERTEX
  8
Unknown_Area_Type
  10
374021.500
  20
4639973.000
  0
VERTEX
  8
Unknown_Area_Type
  10
373852.814
  20
4639974.829
  0
SEQEND
  8
Unknown_Area_Type
  0
INSERT
  8
FeatureAttribs
  2
FEATURE
  41
1
  42
1
  43
1
  50
0
  10
376977.429
  20
4637610.141
 66
1
  0
ATTRIB
  8
FeatureAttribs
 70
0
  1
PNOA-H_AMS_1956-57_33k_ES_PAN_2
  2
NAME
  10
376977.429
  20
4637610.141
 40
33.75130
  0
SEQEND
  0
POLYLINE
  8
Unknown_Area_Type
  70
1
  66
1
  0
VERTEX
  8
Unknown_Area_Type
  10
377732.000
  20
4639766.000
  0
VERTEX
  8
Unknown_Area_Type
  10
377764.000
  20
4639766.000
  0
VERTEX
  8
Unknown_Area_Type
  10
378172.000
  20
4639701.500
  0
VERTEX
  8
Unknown_Area_Type
  10
378451.500
  20
4639520.000
  0
VERTEX
  8
Unknown_Area_Type
  10
378230.000
  20
4635438.500
  0
VERTEX
  8
Unknown_Area_Type
  10
375677.500
  20
4635490.500
  0
VERTEX
  8
Unknown_Area_Type
  10
375668.000
  20
4635491.500
  0
VERTEX
  8
Unknown_Area_Type
  10
375526.000
  20
4635582.000
  0
VERTEX
  8
Unknown_Area_Type
  10
375696.000
  20
4639743.000
  0
VERTEX
  8
Unknown_Area_Type
  10
377687.500
  20
4639765.500
  0
VERTEX
  8
Unknown_Area_Type
  10
377732.000
  20
4639766.000
  0
SEQEND
  8
Unknown_Area_Type
  0
INSERT
  8
FeatureAttribs
  2
FEATURE
  41
1
  42
1
  43
1
  50
0
  10
376977.429
  20
4637610.141
 66
1
  0
ATTRIB
  8
FeatureAttribs
 70
0
  1
PNOA-H_AMS_1956-57_33k_ES_PAN_2
  2
NAME
  10
376977.429
  20
4637610.141
 40
33.75130
  0
SEQEND
  0
POLYLINE
  8
Unknown_Area_Type
  70
1
  66
1
  0
VERTEX
  8
Unknown_Area_Type
  10
377732.000
  20
4639766.000
  0
VERTEX
  8
Unknown_Area_Type
  10
377687.500
  20
4639765.500
  0
VERTEX
  8
Unknown_Area_Type
  10
375696.000
  20
4639743.000
  0
VERTEX
  8
Unknown_Area_Type
  10
375526.000
  20
4635582.000
  0
VERTEX
  8
Unknown_Area_Type
  10
375668.000
  20
4635491.500
  0
VERTEX
  8
Unknown_Area_Type
  10
375677.500
  20
4635490.500
  0
VERTEX
  8
Unknown_Area_Type
  10
378230.000
  20
4635438.500
  0
VERTEX
  8
Unknown_Area_Type
  10
378451.500
  20
4639520.000
  0
VERTEX
  8
Unknown_Area_Type
  10
378172.000
  20
4639701.500
  0
VERTEX
  8
Unknown_Area_Type
  10
377764.000
  20
4639766.000
  0
VERTEX
  8
Unknown_Area_Type
  10
377732.000
  20
4639766.000
  0
SEQEND
  8
Unknown_Area_Type
  0
INSERT
  8
FeatureAttribs
  2
FEATURE
  41
1
  42
1
  43
1
  50
0
  10
387777.940
  20
4637015.442
 66
1
  0
ATTRIB
  8
FeatureAttribs
 70
0
  1
PNOA-H_AMS_1956-57_33k_ES_PAN_2
  2
NAME
  10
387777.940
  20
4637015.442
 40
33.75130
  0
SEQEND
  0
POLYLINE
  8
Unknown_Area_Type
  70
1
  66
1
  0
VERTEX
  8
Unknown_Area_Type
  10
386507.500
  20
4639043.000
  0
VERTEX
  8
Unknown_Area_Type
  10
389077.000
  20
4638997.500
  0
VERTEX
  8
Unknown_Area_Type
  10
389178.000
  20
4638918.000
  0
VERTEX
  8
Unknown_Area_Type
  10
389081.500
  20
4635105.500
  0
VERTEX
  8
Unknown_Area_Type
  10
388739.000
  20
4634917.000
  0
VERTEX
  8
Unknown_Area_Type
  10
388734.500
  20
4634916.500
  0
VERTEX
  8
Unknown_Area_Type
  10
386316.000
  20
4635166.500
  0
VERTEX
  8
Unknown_Area_Type
  10
386507.500
  20
4639038.000
  0
VERTEX
  8
Unknown_Area_Type
  10
386507.500
  20
4639043.000
  0
SEQEND
  8
Unknown_Area_Type
  0
INSERT
  8
FeatureAttribs
  2
FEATURE
  41
1
  42
1
  43
1
  50
0
  10
387777.940
  20
4637015.442
 66
1
  0
ATTRIB
  8
FeatureAttribs
 70
0
  1
PNOA-H_AMS_1956-57_33k_ES_PAN_2
  2
NAME
  10
387777.940
  20
4637015.442
 40
33.75130
  0
SEQEND
  0
POLYLINE
  8
Unknown_Area_Type
  70
1
  66
1
  0
VERTEX
  8
Unknown_Area_Type
  10
386507.500
  20
4639043.000
  0
VERTEX
  8
Unknown_Area_Type
  10
386507.500
  20
4639038.000
  0
VERTEX
  8
Unknown_Area_Type
  10
386316.000
  20
4635166.500
  0
VERTEX
  8
Unknown_Area_Type
  10
388734.500
  20
4634916.500
  0
VERTEX
  8
Unknown_Area_Type
  10
388739.000
  20
4634917.000
  0
VERTEX
  8
Unknown_Area_Type
  10
389081.500
  20
4635105.500
  0
VERTEX
  8
Unknown_Area_Type
  10
389178.000
  20
4638918.000
  0
VERTEX
  8
Unknown_Area_Type
  10
389077.000
  20
4638997.500
  0
VERTEX
  8
Unknown_Area_Type
  10
386507.500
  20
4639043.000
  0
SEQEND
  8
Unknown_Area_Type
  0
INSERT
  8
FeatureAttribs
  2
FEATURE
  41
1
  42
1
  43
1
  50
0
  10
379696.035
  20
4637447.406
 66
1
  0
ATTRIB
  8
FeatureAttribs
 70
0
  1
PNOA-H_AMS_1956-57_33k_ES_PAN_2
  2
NAME
  10
379696.035
  20
4637447.406
 40
33.75130
  0
SEQEND
  0
POLYLINE
  8
Unknown_Area_Type
  70
1
  66
1
  0
VERTEX
  8
Unknown_Area_Type
  10
378502.000
  20
4639521.000
  0
VERTEX
  8
Unknown_Area_Type
  10
380780.000
  20
4639568.000
  0
VERTEX
  8
Unknown_Area_Type
  10
381157.000
  20
4639316.000
  0
VERTEX
  8
Unknown_Area_Type
  10
380924.500
  20
4635334.500
  0
VERTEX
  8
Unknown_Area_Type
  10
380891.500
  20
4635315.000
  0
VERTEX
  8
Unknown_Area_Type
  10
378281.000
  20
4635405.000
  0
VERTEX
  8
Unknown_Area_Type
  10
378277.500
  20
4635406.000
  0
VERTEX
  8
Unknown_Area_Type
  10
378230.000
  20
4635438.500
  0
VERTEX
  8
Unknown_Area_Type
  10
378451.500
  20
4639519.500
  0
VERTEX
  8
Unknown_Area_Type
  10
378478.000
  20
4639520.500
  0
VERTEX
  8
Unknown_Area_Type
  10
378502.000
  20
4639521.000
  0
SEQEND
  8
Unknown_Area_Type
  0
INSERT
  8
FeatureAttribs
  2
FEATURE
  41
1
  42
1
  43
1
  50
0
  10
379696.035
  20
4637447.406
 66
1
  0
ATTRIB
  8
FeatureAttribs
 70
0
  1
PNOA-H_AMS_1956-57_33k_ES_PAN_2
  2
NAME
  10
379696.035
  20
4637447.406
 40
33.75130
  0
SEQEND
  0
POLYLINE
  8
Unknown_Area_Type
  70
1
  66
1
  0
VERTEX
  8
Unknown_Area_Type
  10
378502.000
  20
4639521.000
  0
VERTEX
  8
Unknown_Area_Type
  10
378478.000
  20
4639520.500
  0
VERTEX
  8
Unknown_Area_Type
  10
378451.500
  20
4639519.500
  0
VERTEX
  8
Unknown_Area_Type
  10
378230.000
  20
4635438.500
  0
VERTEX
  8
Unknown_Area_Type
  10
378277.500
  20
4635406.000
  0
VERTEX
  8
Unknown_Area_Type
  10
378281.000
  20
4635405.000
  0
VERTEX
  8
Unknown_Area_Type
  10
380891.500
  20
4635315.000
  0
VERTEX
  8
Unknown_Area_Type
  10
380924.500
  20
4635334.500
  0
VERTEX
  8
Unknown_Area_Type
  10
381157.000
  20
4639316.000
  0
VERTEX
  8
Unknown_Area_Type
  10
380780.000
  20
4639568.000
  0
VERTEX
  8
Unknown_Area_Type
  10
378502.000
  20
4639521.000
  0
SEQEND
  8
Unknown_Area_Type
  0
INSERT
  8
FeatureAttribs
  2
FEATURE
  41
1
  42
1
  43
1
  50
0
  10
401370.894
  20
4633154.611
 66
1
  0
ATTRIB
  8
FeatureAttribs
 70
0
  1
PNOA-H_AMS_1956-57_33k_ES_PAN_2
  2
NAME
  10
401370.894
  20
4633154.611
 40
33.75130
  0
SEQEND
  0
POLYLINE
  8
Unknown_Area_Type
  70
1
  66
1
  0
VERTEX
  8
Unknown_Area_Type
  10
401430.297
  20
4634355.972
  0
VERTEX
  8
Unknown_Area_Type
  10
401429.057
  20
4634266.344
  0
VERTEX
  8
Unknown_Area_Type
  10
401397.071
  20
4631953.251
  0
VERTEX
  8
Unknown_Area_Type
  10
401247.016
  20
4631955.362
  0
VERTEX
  8
Unknown_Area_Type
  10
401409.000
  20
4634351.000
  0
VERTEX
  8
Unknown_Area_Type
  10
401430.297
  20
4634355.972
  0
SEQEND
  8
Unknown_Area_Type
  0
INSERT
  8
FeatureAttribs
  2
FEATURE
  41
1
  42
1
  43
1
  50
0
  10
401370.894
  20
4633154.611
 66
1
  0
ATTRIB
  8
FeatureAttribs
 70
0
  1
PNOA-H_AMS_1956-57_33k_ES_PAN_2
  2
NAME
  10
401370.894
  20
4633154.611
 40
33.75130
  0
SEQEND
  0
POLYLINE
  8
Unknown_Area_Type
  70
1
  66
1
  0
VERTEX
  8
Unknown_Area_Type
  10
401430.297
  20
4634355.972
  0
VERTEX
  8
Unknown_Area_Type
  10
401429.057
  20
4634266.344
  0
VERTEX
  8
Unknown_Area_Type
  10
401397.071
  20
4631953.251
  0
VERTEX
  8
Unknown_Area_Type
  10
401247.016
  20
4631955.362
  0
VERTEX
  8
Unknown_Area_Type
  10
401409.000
  20
4634351.000
  0
VERTEX
  8
Unknown_Area_Type
  10
401430.297
  20
4634355.972
  0
SEQEND
  8
Unknown_Area_Type
  0
INSERT
  8
FeatureAttribs
  2
FEATURE
  41
1
  42
1
  43
1
  50
0
  10
401284.830
  20
4631954.297
 66
1
  0
ATTRIB
  8
FeatureAttribs
 70
0
  1
PNOA-H_AMS_1956-57_33k_ES_PAN_2
  2
NAME
  10
401284.830
  20
4631954.297
 40
33.75130
  0
SEQEND
  0
POLYLINE
  8
Unknown_Area_Type
  70
1
  66
1
  0
VERTEX
  8
Unknown_Area_Type
  10
401247.016
  20
4631955.362
  0
VERTEX
  8
Unknown_Area_Type
  10
401397.071
  20
4631953.251
  0
VERTEX
  8
Unknown_Area_Type
  10
401397.071
  20
4631953.232
  0
VERTEX
  8
Unknown_Area_Type
  10
401246.872
  20
4631953.232
  0
VERTEX
  8
Unknown_Area_Type
  10
401247.016
  20
4631955.362
  0
SEQEND
  8
Unknown_Area_Type
  0
INSERT
  8
FeatureAttribs
  2
FEATURE
  41
1
  42
1
  43
1
  50
0
  10
401397.420
  20
4631953.241
 66
1
  0
ATTRIB
  8
FeatureAttribs
 70
0
  1
PNOA-H_AMS_1956-57_33k_ES_PAN_2
  2
NAME
  10
401397.420
  20
4631953.241
 40
33.75130
  0
SEQEND
  0
POLYLINE
  8
Unknown_Area_Type
  70
1
  66
1
  0
VERTEX
  8
Unknown_Area_Type
  10
401397.071
  20
4631953.251
  0
VERTEX
  8
Unknown_Area_Type
  10
401398.465
  20
4631953.232
  0
VERTEX
  8
Unknown_Area_Type
  10
401397.071
  20
4631953.232
  0
VERTEX
  8
Unknown_Area_Type
  10
401397.071
  20
4631953.251
  0
SEQEND
  8
Unknown_Area_Type
  0
INSERT
  8
FeatureAttribs
  2
FEATURE
  41
1
  42
1
  43
1
  50
0
  10
401533.698
  20
4633180.639
 66
1
  0
ATTRIB
  8
FeatureAttribs
 70
0
  1
PNOA-H_AMS_1956-57_33k_ES_PAN_2
  2
NAME
  10
401533.698
  20
4633180.639
 40
33.75130
  0
SEQEND
  0
POLYLINE
  8
Unknown_Area_Type
  70
1
  66
1
  0
VERTEX
  8
Unknown_Area_Type
  10
401653.353
  20
4634408.045
  0
VERTEX
  8
Unknown_Area_Type
  10
401653.353
  20
4631953.232
  0
VERTEX
  8
Unknown_Area_Type
  10
401398.465
  20
4631953.232
  0
VERTEX
  8
Unknown_Area_Type
  10
401397.071
  20
4631953.251
  0
VERTEX
  8
Unknown_Area_Type
  10
401429.057
  20
4634266.344
  0
VERTEX
  8
Unknown_Area_Type
  10
401430.297
  20
4634355.972
  0
VERTEX
  8
Unknown_Area_Type
  10
401653.353
  20
4634408.045
  0
SEQEND
  8
Unknown_Area_Type
  0
INSERT
  8
FeatureAttribs
  2
FEATURE
  41
1
  42
1
  43
1
  50
0
  10
401512.575
  20
4642396.056
 66
1
  0
ATTRIB
  8
FeatureAttribs
 70
0
  1
PNOA-H_AMS_1956-57_33k_ES_PAN_2
  2
NAME
  10
401512.575
  20
4642396.056
 40
33.75130
  0
SEQEND
  0
POLYLINE
  8
Unknown_Area_Type
  70
1
  66
1
  0
VERTEX
  8
Unknown_Area_Type
  10
401525.514
  20
4641236.065
  0
VERTEX
  8
Unknown_Area_Type
  10
401424.000
  20
4641318.500
  0
VERTEX
  8
Unknown_Area_Type
  10
401547.500
  20
4643552.500
  0
VERTEX
  8
Unknown_Area_Type
  10
401557.648
  20
4643556.047
  0
VERTEX
  8
Unknown_Area_Type
  10
401557.131
  20
4643518.799
  0
VERTEX
  8
Unknown_Area_Type
  10
401525.514
  20
4641236.065
  0
SEQEND
  8
Unknown_Area_Type
  0
INSERT
  8
FeatureAttribs
  2
FEATURE
  41
1
  42
1
  43
1
  50
0
  10
401512.575
  20
4642396.056
 66
1
  0
ATTRIB
  8
FeatureAttribs
 70
0
  1
PNOA-H_AMS_1956-57_33k_ES_PAN_2
  2
NAME
  10
401512.575
  20
4642396.056
 40
33.75130
  0
SEQEND
  0
POLYLINE
  8
Unknown_Area_Type
  70
1
  66
1
  0
VERTEX
  8
Unknown_Area_Type
  10
401525.514
  20
4641236.065
  0
VERTEX
  8
Unknown_Area_Type
  10
401424.000
  20
4641318.500
  0
VERTEX
  8
Unknown_Area_Type
  10
401547.500
  20
4643552.500
  0
VERTEX
  8
Unknown_Area_Type
  10
401557.648
  20
4643556.047
  0
VERTEX
  8
Unknown_Area_Type
  10
401557.131
  20
4643518.799
  0
VERTEX
  8
Unknown_Area_Type
  10
401525.514
  20
4641236.065
  0
SEQEND
  8
Unknown_Area_Type
  0
INSERT
  8
FeatureAttribs
  2
FEATURE
  41
1
  42
1
  43
1
  50
0
  10
401597.223
  20
4642360.878
 66
1
  0
ATTRIB
  8
FeatureAttribs
 70
0
  1
PNOA-H_AMS_1956-57_33k_ES_PAN_2
  2
NAME
  10
401597.223
  20
4642360.878
 40
33.75130
  0
SEQEND
  0
POLYLINE
  8
Unknown_Area_Type
  70
1
  66
1
  0
VERTEX
  8
Unknown_Area_Type
  10
401653.353
  20
4641132.254
  0
VERTEX
  8
Unknown_Area_Type
  10
401525.514
  20
4641236.065
  0
VERTEX
  8
Unknown_Area_Type
  10
401557.131
  20
4643518.799
  0
VERTEX
  8
Unknown_Area_Type
  10
401557.648
  20
4643556.047
  0
VERTEX
  8
Unknown_Area_Type
  10
401653.353
  20
4643589.502
  0
VERTEX
  8
Unknown_Area_Type
  10
401653.353
  20
4641132.254
  0
SEQEND
  8
Unknown_Area_Type
  0
INSERT
  8
FeatureAttribs
  2
FEATURE
  41
1
  42
1
  43
1
  50
0
  10
375202.153
  20
4641955.108
 66
1
  0
ATTRIB
  8
FeatureAttribs
 70
0
  1
PNOA-H_AMS_1956-57_33k_ES_PAN_2
  2
NAME
  10
375202.153
  20
4641955.108
 40
33.75130
  0
SEQEND
  0
POLYLINE
  8
Unknown_Area_Type
  70
1
  66
1
  0
VERTEX
  8
Unknown_Area_Type
  10
375132.000
  20
4644491.500
  0
VERTEX
  8
Unknown_Area_Type
  10
375590.000
  20
4644559.500
  0
VERTEX
  8
Unknown_Area_Type
  10
375593.500
  20
4644560.000
  0
VERTEX
  8
Unknown_Area_Type
  10
376083.500
  20
4644326.500
  0
VERTEX
  8
Unknown_Area_Type
  10
375696.500
  20
4639743.000
  0
VERTEX
  8
Unknown_Area_Type
  10
374019.000
  20
4639973.000
  0
VERTEX
  8
Unknown_Area_Type
  10
375132.000
  20
4644491.500
  0
SEQEND
  8
Unknown_Area_Type
  0
INSERT
  8
FeatureAttribs
  2
FEATURE
  41
1
  42
1
  43
1
  50
0
  10
375202.153
  20
4641955.108
 66
1
  0
ATTRIB
  8
FeatureAttribs
 70
0
  1
PNOA-H_AMS_1956-57_33k_ES_PAN_2
  2
NAME
  10
375202.153
  20
4641955.108
 40
33.75130
  0
SEQEND
  0
POLYLINE
  8
Unknown_Area_Type
  70
1
  66
1
  0
VERTEX
  8
Unknown_Area_Type
  10
375132.000
  20
4644491.500
  0
VERTEX
  8
Unknown_Area_Type
  10
374019.000
  20
4639973.000
  0
VERTEX
  8
Unknown_Area_Type
  10
375696.500
  20
4639743.000
  0
VERTEX
  8
Unknown_Area_Type
  10
376083.500
  20
4644326.500
  0
VERTEX
  8
Unknown_Area_Type
  10
375593.500
  20
4644560.000
  0
VERTEX
  8
Unknown_Area_Type
  10
375590.000
  20
4644559.500
  0
VERTEX
  8
Unknown_Area_Type
  10
375132.000
  20
4644491.500
  0
SEQEND
  8
Unknown_Area_Type
  0
INSERT
  8
FeatureAttribs
  2
FEATURE
  41
1
  42
1
  43
1
  50
0
  10
378007.770
  20
4642624.430
 66
1
  0
ATTRIB
  8
FeatureAttribs
 70
0
  1
PNOA-H_AMS_1956-57_33k_ES_PAN_2
  2
NAME
  10
378007.770
  20
4642624.430
 40
33.75130
  0
SEQEND
  0
POLYLINE
  8
Unknown_Area_Type
  70
1
  66
1
  0
VERTEX
  8
Unknown_Area_Type
  10
378697.000
  20
4642056.000
  0
VERTEX
  8
Unknown_Area_Type
  10
378172.000
  20
4639702.500
  0
VERTEX
  8
Unknown_Area_Type
  10
378170.000
  20
4639701.500
  0
VERTEX
  8
Unknown_Area_Type
  10
378160.000
  20
4639703.000
  0
VERTEX
  8
Unknown_Area_Type
  10
377761.500
  20
4639766.000
  0
VERTEX
  8
Unknown_Area_Type
  10
376852.500
  20
4644311.500
  0
VERTEX
  8
Unknown_Area_Type
  10
378508.000
  20
4644548.000
  0
VERTEX
  8
Unknown_Area_Type
  10
379142.000
  20
4644226.000
  0
VERTEX
  8
Unknown_Area_Type
  10
379137.500
  20
4644027.000
  0
VERTEX
  8
Unknown_Area_Type
  10
378697.500
  20
4642058.500
  0
VERTEX
  8
Unknown_Area_Type
  10
378697.000
  20
4642056.000
  0
SEQEND
  8
Unknown_Area_Type
  0
INSERT
  8
FeatureAttribs
  2
FEATURE
  41
1
  42
1
  43
1
  50
0
  10
378007.770
  20
4642624.430
 66
1
  0
ATTRIB
  8
FeatureAttribs
 70
0
  1
PNOA-H_AMS_1956-57_33k_ES_PAN_2
  2
NAME
  10
378007.770
  20
4642624.430
 40
33.75130
  0
SEQEND
  0
POLYLINE
  8
Unknown_Area_Type
  70
1
  66
1
  0
VERTEX
  8
Unknown_Area_Type
  10
378697.000
  20
4642056.000
  0
VERTEX
  8
Unknown_Area_Type
  10
378697.500
  20
4642058.500
  0
VERTEX
  8
Unknown_Area_Type
  10
379137.500
  20
4644027.000
  0
VERTEX
  8
Unknown_Area_Type
  10
379142.000
  20
4644226.000
  0
VERTEX
  8
Unknown_Area_Type
  10
378508.000
  20
4644548.000
  0
VERTEX
  8
Unknown_Area_Type
  10
376852.500
  20
4644311.500
  0
VERTEX
  8
Unknown_Area_Type
  10
377761.500
  20
4639766.000
  0
VERTEX
  8
Unknown_Area_Type
  10
378160.000
  20
4639703.000
  0
VERTEX
  8
Unknown_Area_Type
  10
378170.000
  20
4639701.500
  0
VERTEX
  8
Unknown_Area_Type
  10
378172.000
  20
4639702.500
  0
VERTEX
  8
Unknown_Area_Type
  10
378697.000
  20
4642056.000
  0
SEQEND
  8
Unknown_Area_Type
  0
INSERT
  8
FeatureAttribs
  2
FEATURE
  41
1
  42
1
  43
1
  50
0
  10
394501.550
  20
4642413.823
 66
1
  0
ATTRIB
  8
FeatureAttribs
 70
0
  1
PNOA-H_AMS_1956-57_33k_ES_PAN_2
  2
NAME
  10
394501.550
  20
4642413.823
 40
33.75130
  0
SEQEND
  0
POLYLINE
  8
Unknown_Area_Type
  70
1
  66
1
  0
VERTEX
  8
Unknown_Area_Type
  10
393811.000
  20
4644093.500
  0
VERTEX
  8
Unknown_Area_Type
  10
395864.500
  20
4643685.500
  0
VERTEX
  8
Unknown_Area_Type
  10
395916.000
  20
4641639.000
  0
VERTEX
  8
Unknown_Area_Type
  10
394881.500
  20
4640209.000
  0
VERTEX
  8
Unknown_Area_Type
  10
393029.000
  20
4641913.500
  0
VERTEX
  8
Unknown_Area_Type
  10
393019.500
  20
4643737.000
  0
VERTEX
  8
Unknown_Area_Type
  10
393809.500
  20
4644093.000
  0
VERTEX
  8
Unknown_Area_Type
  10
393811.000
  20
4644093.500
  0
SEQEND
  8
Unknown_Area_Type
  0
INSERT
  8
FeatureAttribs
  2
FEATURE
  41
1
  42
1
  43
1
  50
0
  10
394501.550
  20
4642413.823
 66
1
  0
ATTRIB
  8
FeatureAttribs
 70
0
  1
PNOA-H_AMS_1956-57_33k_ES_PAN_2
  2
NAME
  10
394501.550
  20
4642413.823
 40
33.75130
  0
SEQEND
  0
POLYLINE
  8
Unknown_Area_Type
  70
1
  66
1
  0
VERTEX
  8
Unknown_Area_Type
  10
393811.000
  20
4644093.500
  0
VERTEX
  8
Unknown_Area_Type
  10
393809.500
  20
4644093.000
  0
VERTEX
  8
Unknown_Area_Type
  10
393019.500
  20
4643737.000
  0
VERTEX
  8
Unknown_Area_Type
  10
393029.000
  20
4641913.500
  0
VERTEX
  8
Unknown_Area_Type
  10
394881.500
  20
4640209.000
  0
VERTEX
  8
Unknown_Area_Type
  10
395916.000
  20
4641639.000
  0
VERTEX
  8
Unknown_Area_Type
  10
395864.500
  20
4643685.500
  0
VERTEX
  8
Unknown_Area_Type
  10
393811.000
  20
4644093.500
  0
SEQEND
  8
Unknown_Area_Type
  0
INSERT
  8
FeatureAttribs
  2
FEATURE
  41
1
  42
1
  43
1
  50
0
  10
388967.878
  20
4642464.867
 66
1
  0
ATTRIB
  8
FeatureAttribs
 70
0
  1
PNOA-H_AMS_1956-57_33k_ES_PAN_2
  2
NAME
  10
388967.878
  20
4642464.867
 40
33.75130
  0
SEQEND
  0
POLYLINE
  8
Unknown_Area_Type
  70
1
  66
1
  0
VERTEX
  8
Unknown_Area_Type
  10
388754.000
  20
4644035.000
  0
VERTEX
  8
Unknown_Area_Type
  10
390270.500
  20
4643886.000
  0
VERTEX
  8
Unknown_Area_Type
  10
390214.500
  20
4642187.500
  0
VERTEX
  8
Unknown_Area_Type
  10
389149.000
  20
4639747.000
  0
VERTEX
  8
Unknown_Area_Type
  10
387549.500
  20
4642798.000
  0
VERTEX
  8
Unknown_Area_Type
  10
387624.500
  20
4644129.000
  0
VERTEX
  8
Unknown_Area_Type
  10
387650.000
  20
4644143.000
  0
VERTEX
  8
Unknown_Area_Type
  10
387653.500
  20
4644143.000
  0
VERTEX
  8
Unknown_Area_Type
  10
388749.500
  20
4644035.000
  0
VERTEX
  8
Unknown_Area_Type
  10
388754.000
  20
4644035.000
  0
SEQEND
  8
Unknown_Area_Type
  0
INSERT
  8
FeatureAttribs
  2
FEATURE
  41
1
  42
1
  43
1
  50
0
  10
388967.878
  20
4642464.867
 66
1
  0
ATTRIB
  8
FeatureAttribs
 70
0
  1
PNOA-H_AMS_1956-57_33k_ES_PAN_2
  2
NAME
  10
388967.878
  20
4642464.867
 40
33.75130
  0
SEQEND
  0
POLYLINE
  8
Unknown_Area_Type
  70
1
  66
1
  0
VERTEX
  8
Unknown_Area_Type
  10
388754.000
  20
4644035.000
  0
VERTEX
  8
Unknown_Area_Type
  10
388749.500
  20
4644035.000
  0
VERTEX
  8
Unknown_Area_Type
  10
387653.500
  20
4644143.000
  0
VERTEX
  8
Unknown_Area_Type
  10
387650.000
  20
4644143.000
  0
VERTEX
  8
Unknown_Area_Type
  10
387624.500
  20
4644129.000
  0
VERTEX
  8
Unknown_Area_Type
  10
387549.500
  20
4642798.000
  0
VERTEX
  8
Unknown_Area_Type
  10
389149.000
  20
4639747.000
  0
VERTEX
  8
Unknown_Area_Type
  10
390214.500
  20
4642187.500
  0
VERTEX
  8
Unknown_Area_Type
  10
390270.500
  20
4643886.000
  0
VERTEX
  8
Unknown_Area_Type
  10
388754.000
  20
4644035.000
  0
SEQEND
  8
Unknown_Area_Type
  0
INSERT
  8
FeatureAttribs
  2
FEATURE
  41
1
  42
1
  43
1
  50
0
  10
397324.663
  20
4642374.954
 66
1
  0
ATTRIB
  8
FeatureAttribs
 70
0
  1
PNOA-H_AMS_1956-57_33k_ES_PAN_2
  2
NAME
  10
397324.663
  20
4642374.954
 40
33.75130
  0
SEQEND
  0
POLYLINE
  8
Unknown_Area_Type
  70
1
  66
1
  0
VERTEX
  8
Unknown_Area_Type
  10
396748.000
  20
4644048.000
  0
VERTEX
  8
Unknown_Area_Type
  10
398714.000
  20
4643625.000
  0
VERTEX
  8
Unknown_Area_Type
  10
398753.500
  20
4641547.500
  0
VERTEX
  8
Unknown_Area_Type
  10
397583.000
  20
4640291.500
  0
VERTEX
  8
Unknown_Area_Type
  10
395916.000
  20
4641639.000
  0
VERTEX
  8
Unknown_Area_Type
  10
395864.500
  20
4643685.500
  0
VERTEX
  8
Unknown_Area_Type
  10
396747.000
  20
4644047.500
  0
VERTEX
  8
Unknown_Area_Type
  10
396748.000
  20
4644048.000
  0
SEQEND
  8
Unknown_Area_Type
  0
INSERT
  8
FeatureAttribs
  2
FEATURE
  41
1
  42
1
  43
1
  50
0
  10
397324.663
  20
4642374.954
 66
1
  0
ATTRIB
  8
FeatureAttribs
 70
0
  1
PNOA-H_AMS_1956-57_33k_ES_PAN_2
  2
NAME
  10
397324.663
  20
4642374.954
 40
33.75130
  0
SEQEND
  0
POLYLINE
  8
Unknown_Area_Type
  70
1
  66
1
  0
VERTEX
  8
Unknown_Area_Type
  10
396748.000
  20
4644048.000
  0
VERTEX
  8
Unknown_Area_Type
  10
396747.000
  20
4644047.500
  0
VERTEX
  8
Unknown_Area_Type
  10
395864.500
  20
4643685.500
  0
VERTEX
  8
Unknown_Area_Type
  10
395916.000
  20
4641639.000
  0
VERTEX
  8
Unknown_Area_Type
  10
397583.000
  20
4640291.500
  0
VERTEX
  8
Unknown_Area_Type
  10
398753.500
  20
4641547.500
  0
VERTEX
  8
Unknown_Area_Type
  10
398714.000
  20
4643625.000
  0
VERTEX
  8
Unknown_Area_Type
  10
396748.000
  20
4644048.000
  0
SEQEND
  8
Unknown_Area_Type
  0
INSERT
  8
FeatureAttribs
  2
FEATURE
  41
1
  42
1
  43
1
  50
0
  10
386243.077
  20
4642648.298
 66
1
  0
ATTRIB
  8
FeatureAttribs
 70
0
  1
PNOA-H_AMS_1956-57_33k_ES_PAN_2
  2
NAME
  10
386243.077
  20
4642648.298
 40
33.75130
  0
SEQEND
  0
POLYLINE
  8
Unknown_Area_Type
  70
1
  66
1
  0
VERTEX
  8
Unknown_Area_Type
  10
387239.500
  20
4642056.000
  0
VERTEX
  8
Unknown_Area_Type
  10
386358.000
  20
4639948.000
  0
VERTEX
  8
Unknown_Area_Type
  10
384804.500
  20
4643018.500
  0
VERTEX
  8
Unknown_Area_Type
  10
384858.500
  20
4644133.500
  0
VERTEX
  8
Unknown_Area_Type
  10
387624.500
  20
4644129.000
  0
VERTEX
  8
Unknown_Area_Type
  10
387549.500
  20
4642797.500
  0
VERTEX
  8
Unknown_Area_Type
  10
387239.500
  20
4642057.000
  0
VERTEX
  8
Unknown_Area_Type
  10
387239.500
  20
4642056.000
  0
SEQEND
  8
Unknown_Area_Type
  0
INSERT
  8
FeatureAttribs
  2
FEATURE
  41
1
  42
1
  43
1
  50
0
  10
386243.077
  20
4642648.298
 66
1
  0
ATTRIB
  8
FeatureAttribs
 70
0
  1
PNOA-H_AMS_1956-57_33k_ES_PAN_2
  2
NAME
  10
386243.077
  20
4642648.298
 40
33.75130
  0
SEQEND
  0
POLYLINE
  8
Unknown_Area_Type
  70
1
  66
1
  0
VERTEX
  8
Unknown_Area_Type
  10
387239.500
  20
4642056.000
  0
VERTEX
  8
Unknown_Area_Type
  10
387239.500
  20
4642057.000
  0
VERTEX
  8
Unknown_Area_Type
  10
387549.500
  20
4642797.500
  0
VERTEX
  8
Unknown_Area_Type
  10
387624.500
  20
4644129.000
  0
VERTEX
  8
Unknown_Area_Type
  10
384858.500
  20
4644133.500
  0
VERTEX
  8
Unknown_Area_Type
  10
384804.500
  20
4643018.500
  0
VERTEX
  8
Unknown_Area_Type
  10
386358.000
  20
4639948.000
  0
VERTEX
  8
Unknown_Area_Type
  10
387239.500
  20
4642056.000
  0
SEQEND
  8
Unknown_Area_Type
  0
INSERT
  8
FeatureAttribs
  2
FEATURE
  41
1
  42
1
  43
1
  50
0
  10
391677.474
  20
4642451.691
 66
1
  0
ATTRIB
  8
FeatureAttribs
 70
0
  1
PNOA-H_AMS_1956-57_33k_ES_PAN_2
  2
NAME
  10
391677.474
  20
4642451.691
 40
33.75130
  0
SEQEND
  0
POLYLINE
  8
Unknown_Area_Type
  70
1
  66
1
  0
VERTEX
  8
Unknown_Area_Type
  10
390765.500
  20
4644113.500
  0
VERTEX
  8
Unknown_Area_Type
  10
393019.500
  20
4643737.000
  0
VERTEX
  8
Unknown_Area_Type
  10
393029.000
  20
4641913.500
  0
VERTEX
  8
Unknown_Area_Type
  10
392071.500
  20
4640094.000
  0
VERTEX
  8
Unknown_Area_Type
  10
392054.000
  20
4640112.500
  0
VERTEX
  8
Unknown_Area_Type
  10
390214.500
  20
4642187.000
  0
VERTEX
  8
Unknown_Area_Type
  10
390270.500
  20
4643886.000
  0
VERTEX
  8
Unknown_Area_Type
  10
390764.500
  20
4644113.000
  0
VERTEX
  8
Unknown_Area_Type
  10
390765.500
  20
4644113.500
  0
SEQEND
  8
Unknown_Area_Type
  0
INSERT
  8
FeatureAttribs
  2
FEATURE
  41
1
  42
1
  43
1
  50
0
  10
391677.474
  20
4642451.691
 66
1
  0
ATTRIB
  8
FeatureAttribs
 70
0
  1
PNOA-H_AMS_1956-57_33k_ES_PAN_2
  2
NAME
  10
391677.474
  20
4642451.691
 40
33.75130
  0
SEQEND
  0
POLYLINE
  8
Unknown_Area_Type
  70
1
  66
1
  0
VERTEX
  8
Unknown_Area_Type
  10
390765.500
  20
4644113.500
  0
VERTEX
  8
Unknown_Area_Type
  10
390764.500
  20
4644113.000
  0
VERTEX
  8
Unknown_Area_Type
  10
390270.500
  20
4643886.000
  0
VERTEX
  8
Unknown_Area_Type
  10
390214.500
  20
4642187.000
  0
VERTEX
  8
Unknown_Area_Type
  10
392054.000
  20
4640112.500
  0
VERTEX
  8
Unknown_Area_Type
  10
392071.500
  20
4640094.000
  0
VERTEX
  8
Unknown_Area_Type
  10
393029.000
  20
4641913.500
  0
VERTEX
  8
Unknown_Area_Type
  10
393019.500
  20
4643737.000
  0
VERTEX
  8
Unknown_Area_Type
  10
390765.500
  20
4644113.500
  0
SEQEND
  8
Unknown_Area_Type
  0
INSERT
  8
FeatureAttribs
  2
FEATURE
  41
1
  42
1
  43
1
  50
0
  10
380707.420
  20
4642864.197
 66
1
  0
ATTRIB
  8
FeatureAttribs
 70
0
  1
PNOA-H_AMS_1956-57_33k_ES_PAN_2
  2
NAME
  10
380707.420
  20
4642864.197
 40
33.75130
  0
SEQEND
  0
POLYLINE
  8
Unknown_Area_Type
  70
1
  66
1
  0
VERTEX
  8
Unknown_Area_Type
  10
380825.500
  20
4640008.000
  0
VERTEX
  8
Unknown_Area_Type
  10
380821.500
  20
4639995.500
  0
VERTEX
  8
Unknown_Area_Type
  10
380819.000
  20
4639999.500
  0
VERTEX
  8
Unknown_Area_Type
  10
379138.500
  20
4644027.500
  0
VERTEX
  8
Unknown_Area_Type
  10
379138.000
  20
4644049.500
  0
VERTEX
  8
Unknown_Area_Type
  10
379142.000
  20
4644226.000
  0
VERTEX
  8
Unknown_Area_Type
  10
381475.000
  20
4644464.000
  0
VERTEX
  8
Unknown_Area_Type
  10
382024.500
  20
4644159.500
  0
VERTEX
  8
Unknown_Area_Type
  10
381989.500
  20
4643350.500
  0
VERTEX
  8
Unknown_Area_Type
  10
380826.000
  20
4640010.000
  0
VERTEX
  8
Unknown_Area_Type
  10
380825.500
  20
4640008.000
  0
SEQEND
  8
Unknown_Area_Type
  0
INSERT
  8
FeatureAttribs
  2
FEATURE
  41
1
  42
1
  43
1
  50
0
  10
380707.420
  20
4642864.197
 66
1
  0
ATTRIB
  8
FeatureAttribs
 70
0
  1
PNOA-H_AMS_1956-57_33k_ES_PAN_2
  2
NAME
  10
380707.420
  20
4642864.197
 40
33.75130
  0
SEQEND
  0
POLYLINE
  8
Unknown_Area_Type
  70
1
  66
1
  0
VERTEX
  8
Unknown_Area_Type
  10
380825.500
  20
4640008.000
  0
VERTEX
  8
Unknown_Area_Type
  10
380826.000
  20
4640010.000
  0
VERTEX
  8
Unknown_Area_Type
  10
381989.500
  20
4643350.500
  0
VERTEX
  8
Unknown_Area_Type
  10
382024.500
  20
4644159.500
  0
VERTEX
  8
Unknown_Area_Type
  10
381475.000
  20
4644464.000
  0
VERTEX
  8
Unknown_Area_Type
  10
379142.000
  20
4644226.000
  0
VERTEX
  8
Unknown_Area_Type
  10
379138.000
  20
4644049.500
  0
VERTEX
  8
Unknown_Area_Type
  10
379138.500
  20
4644027.500
  0
VERTEX
  8
Unknown_Area_Type
  10
380819.000
  20
4639999.500
  0
VERTEX
  8
Unknown_Area_Type
  10
380821.500
  20
4639995.500
  0
VERTEX
  8
Unknown_Area_Type
  10
380825.500
  20
4640008.000
  0
SEQEND
  8
Unknown_Area_Type
  0
INSERT
  8
FeatureAttribs
  2
FEATURE
  41
1
  42
1
  43
1
  50
0
  10
400115.295
  20
4642343.118
 66
1
  0
ATTRIB
  8
FeatureAttribs
 70
0
  1
PNOA-H_AMS_1956-57_33k_ES_PAN_2
  2
NAME
  10
400115.295
  20
4642343.118
 40
33.75130
  0
SEQEND
  0
POLYLINE
  8
Unknown_Area_Type
  70
1
  66
1
  0
VERTEX
  8
Unknown_Area_Type
  10
399607.500
  20
4644011.500
  0
VERTEX
  8
Unknown_Area_Type
  10
401040.000
  20
4643672.500
  0
VERTEX
  8
Unknown_Area_Type
  10
401042.000
  20
4643672.000
  0
VERTEX
  8
Unknown_Area_Type
  10
401547.500
  20
4643553.000
  0
VERTEX
  8
Unknown_Area_Type
  10
401424.000
  20
4641318.500
  0
VERTEX
  8
Unknown_Area_Type
  10
400208.500
  20
4640333.500
  0
VERTEX
  8
Unknown_Area_Type
  10
398753.500
  20
4641547.500
  0
VERTEX
  8
Unknown_Area_Type
  10
398714.000
  20
4643625.000
  0
VERTEX
  8
Unknown_Area_Type
  10
399607.500
  20
4644011.500
  0
SEQEND
  8
Unknown_Area_Type
  0
INSERT
  8
FeatureAttribs
  2
FEATURE
  41
1
  42
1
  43
1
  50
0
  10
400115.295
  20
4642343.118
 66
1
  0
ATTRIB
  8
FeatureAttribs
 70
0
  1
PNOA-H_AMS_1956-57_33k_ES_PAN_2
  2
NAME
  10
400115.295
  20
4642343.118
 40
33.75130
  0
SEQEND
  0
POLYLINE
  8
Unknown_Area_Type
  70
1
  66
1
  0
VERTEX
  8
Unknown_Area_Type
  10
399607.500
  20
4644011.500
  0
VERTEX
  8
Unknown_Area_Type
  10
398714.000
  20
4643625.000
  0
VERTEX
  8
Unknown_Area_Type
  10
398753.500
  20
4641547.500
  0
VERTEX
  8
Unknown_Area_Type
  10
400208.500
  20
4640333.500
  0
VERTEX
  8
Unknown_Area_Type
  10
401424.000
  20
4641318.500
  0
VERTEX
  8
Unknown_Area_Type
  10
401547.500
  20
4643553.000
  0
VERTEX
  8
Unknown_Area_Type
  10
401042.000
  20
4643672.000
  0
VERTEX
  8
Unknown_Area_Type
  10
401040.000
  20
4643672.500
  0
VERTEX
  8
Unknown_Area_Type
  10
399607.500
  20
4644011.500
  0
SEQEND
  8
Unknown_Area_Type
  0
INSERT
  8
FeatureAttribs
  2
FEATURE
  41
1
  42
1
  43
1
  50
0
  10
383488.462
  20
4642794.966
 66
1
  0
ATTRIB
  8
FeatureAttribs
 70
0
  1
PNOA-H_AMS_1956-57_33k_ES_PAN_2
  2
NAME
  10
383488.462
  20
4642794.966
 40
33.75130
  0
SEQEND
  0
POLYLINE
  8
Unknown_Area_Type
  70
1
  66
1
  0
VERTEX
  8
Unknown_Area_Type
  10
384658.000
  20
4644254.500
  0
VERTEX
  8
Unknown_Area_Type
  10
384858.500
  20
4644133.500
  0
VERTEX
  8
Unknown_Area_Type
  10
384804.500
  20
4643018.000
  0
VERTEX
  8
Unknown_Area_Type
  10
383609.500
  20
4640127.000
  0
VERTEX
  8
Unknown_Area_Type
  10
383598.500
  20
4640102.500
  0
VERTEX
  8
Unknown_Area_Type
  10
381989.500
  20
4643352.000
  0
VERTEX
  8
Unknown_Area_Type
  10
382024.500
  20
4644159.500
  0
VERTEX
  8
Unknown_Area_Type
  10
384533.000
  20
4644330.000
  0
VERTEX
  8
Unknown_Area_Type
  10
384657.000
  20
4644255.000
  0
VERTEX
  8
Unknown_Area_Type
  10
384658.000
  20
4644254.500
  0
SEQEND
  8
Unknown_Area_Type
  0
INSERT
  8
FeatureAttribs
  2
FEATURE
  41
1
  42
1
  43
1
  50
0
  10
383488.462
  20
4642794.966
 66
1
  0
ATTRIB
  8
FeatureAttribs
 70
0
  1
PNOA-H_AMS_1956-57_33k_ES_PAN_2
  2
NAME
  10
383488.462
  20
4642794.966
 40
33.75130
  0
SEQEND
  0
POLYLINE
  8
Unknown_Area_Type
  70
1
  66
1
  0
VERTEX
  8
Unknown_Area_Type
  10
384658.000
  20
4644254.500
  0
VERTEX
  8
Unknown_Area_Type
  10
384657.000
  20
4644255.000
  0
VERTEX
  8
Unknown_Area_Type
  10
384533.000
  20
4644330.000
  0
VERTEX
  8
Unknown_Area_Type
  10
382024.500
  20
4644159.500
  0
VERTEX
  8
Unknown_Area_Type
  10
381989.500
  20
4643352.000
  0
VERTEX
  8
Unknown_Area_Type
  10
383598.500
  20
4640102.500
  0
VERTEX
  8
Unknown_Area_Type
  10
383609.500
  20
4640127.000
  0
VERTEX
  8
Unknown_Area_Type
  10
384804.500
  20
4643018.000
  0
VERTEX
  8
Unknown_Area_Type
  10
384858.500
  20
4644133.500
  0
VERTEX
  8
Unknown_Area_Type
  10
384658.000
  20
4644254.500
  0
SEQEND
  8
Unknown_Area_Type
  0
ENDSEC
  0
EOF
