  0
SECTION
  2
HEADER
  9
$ACADVER
  1
AC1009
  9
$LUNITS
  70
2
  9
$LIMMIN
  10
346039.234
  20
4632389.628
  9
$LIMMAX
  10
374046.654
  20
4651439.147
  9
$EXTMIN
  10
346039.234
  20
4632389.628
  9
$EXTMAX
  10
374046.654
  20
4651439.147
  999
Created by Global Mapper
  999
Projection: UTM
  999
Datum: ETRS89
  999
Ground Units: meters
  999
ZONE: 30
  0
ENDSEC
  0
SECTION
  2
TABLES
  0
ENDSEC
  0
SECTION
  2
BLOCKS
  0
BLOCK
  8
FeatureAttribs
  70
0
  2
FEATURE
  3
FEATURE
  10
0.00000000
  20
0.00000000
  0
ATTDEF
  8
FeatureAttribs
  70
0
  1
 
  2
NAME
  3
NAME
  10
0.00000000
  20
0.00000000
  40
1.00000000
  0
ENDBLK
  0
ENDSEC
  0
SECTION
  2
ENTITIES
  0
INSERT
  8
FeatureAttribs
  2
FEATURE
  41
1
  42
1
  43
1
  50
0
  10
346090.940
  20
4650279.824
 66
1
  0
ATTRIB
  8
FeatureAttribs
 70
0
  1
PNOA-H_AMS_1956-57_33k_ES_PAN_2
  2
NAME
  10
346090.940
  20
4650279.824
 40
33.87181
  0
SEQEND
  0
POLYLINE
  8
Unknown_Area_Type
  70
1
  66
1
  0
VERTEX
  8
Unknown_Area_Type
  10
346157.790
  20
4651439.147
  0
VERTEX
  8
Unknown_Area_Type
  10
346127.500
  20
4649120.500
  0
VERTEX
  8
Unknown_Area_Type
  10
346039.234
  20
4649120.965
  0
VERTEX
  8
Unknown_Area_Type
  10
346039.234
  20
4651439.147
  0
VERTEX
  8
Unknown_Area_Type
  10
346157.790
  20
4651439.147
  0
SEQEND
  8
Unknown_Area_Type
  0
INSERT
  8
FeatureAttribs
  2
FEATURE
  41
1
  42
1
  43
1
  50
0
  10
368637.013
  20
4651202.297
 66
1
  0
ATTRIB
  8
FeatureAttribs
 70
0
  1
PNOA-H_AMS_1956-57_33k_ES_PAN_2
  2
NAME
  10
368637.013
  20
4651202.297
 40
33.87181
  0
SEQEND
  0
POLYLINE
  8
Unknown_Area_Type
  70
1
  66
1
  0
VERTEX
  8
Unknown_Area_Type
  10
370150.981
  20
4651439.147
  0
VERTEX
  8
Unknown_Area_Type
  10
370141.455
  20
4650965.448
  0
VERTEX
  8
Unknown_Area_Type
  10
367144.884
  20
4651020.872
  0
VERTEX
  8
Unknown_Area_Type
  10
367123.389
  20
4651021.280
  0
VERTEX
  8
Unknown_Area_Type
  10
367133.591
  20
4651439.147
  0
VERTEX
  8
Unknown_Area_Type
  10
370150.981
  20
4651439.147
  0
SEQEND
  8
Unknown_Area_Type
  0
INSERT
  8
FeatureAttribs
  2
FEATURE
  41
1
  42
1
  43
1
  50
0
  10
368610.609
  20
4649851.619
 66
1
  0
ATTRIB
  8
FeatureAttribs
 70
0
  1
PNOA-H_AMS_1956-57_33k_ES_PAN_2
  2
NAME
  10
368610.609
  20
4649851.619
 40
33.87181
  0
SEQEND
  0
POLYLINE
  8
Unknown_Area_Type
  70
1
  66
1
  0
VERTEX
  8
Unknown_Area_Type
  10
370141.455
  20
4650965.448
  0
VERTEX
  8
Unknown_Area_Type
  10
370098.500
  20
4648829.500
  0
VERTEX
  8
Unknown_Area_Type
  10
369806.500
  20
4648645.000
  0
VERTEX
  8
Unknown_Area_Type
  10
367068.500
  20
4648773.000
  0
VERTEX
  8
Unknown_Area_Type
  10
367123.389
  20
4651021.280
  0
VERTEX
  8
Unknown_Area_Type
  10
367144.884
  20
4651020.872
  0
VERTEX
  8
Unknown_Area_Type
  10
370141.455
  20
4650965.448
  0
SEQEND
  8
Unknown_Area_Type
  0
INSERT
  8
FeatureAttribs
  2
FEATURE
  41
1
  42
1
  43
1
  50
0
  10
368610.609
  20
4649851.619
 66
1
  0
ATTRIB
  8
FeatureAttribs
 70
0
  1
PNOA-H_AMS_1956-57_33k_ES_PAN_2
  2
NAME
  10
368610.609
  20
4649851.619
 40
33.87181
  0
SEQEND
  0
POLYLINE
  8
Unknown_Area_Type
  70
1
  66
1
  0
VERTEX
  8
Unknown_Area_Type
  10
370141.455
  20
4650965.448
  0
VERTEX
  8
Unknown_Area_Type
  10
367144.884
  20
4651020.872
  0
VERTEX
  8
Unknown_Area_Type
  10
367123.389
  20
4651021.280
  0
VERTEX
  8
Unknown_Area_Type
  10
367068.500
  20
4648773.000
  0
VERTEX
  8
Unknown_Area_Type
  10
369806.500
  20
4648645.000
  0
VERTEX
  8
Unknown_Area_Type
  10
370098.500
  20
4648829.500
  0
VERTEX
  8
Unknown_Area_Type
  10
370141.455
  20
4650965.448
  0
SEQEND
  8
Unknown_Area_Type
  0
INSERT
  8
FeatureAttribs
  2
FEATURE
  41
1
  42
1
  43
1
  50
0
  10
359688.193
  20
4651287.149
 66
1
  0
ATTRIB
  8
FeatureAttribs
 70
0
  1
PNOA-H_AMS_1956-57_33k_ES_PAN_2
  2
NAME
  10
359688.193
  20
4651287.149
 40
33.87181
  0
SEQEND
  0
POLYLINE
  8
Unknown_Area_Type
  70
1
  66
1
  0
VERTEX
  8
Unknown_Area_Type
  10
361202.792
  20
4651439.147
  0
VERTEX
  8
Unknown_Area_Type
  10
361188.942
  20
4651135.152
  0
VERTEX
  8
Unknown_Area_Type
  10
360243.113
  20
4651153.567
  0
VERTEX
  8
Unknown_Area_Type
  10
358176.127
  20
4651194.817
  0
VERTEX
  8
Unknown_Area_Type
  10
358187.751
  20
4651439.147
  0
VERTEX
  8
Unknown_Area_Type
  10
361202.792
  20
4651439.147
  0
SEQEND
  8
Unknown_Area_Type
  0
INSERT
  8
FeatureAttribs
  2
FEATURE
  41
1
  42
1
  43
1
  50
0
  10
359618.768
  20
4649958.291
 66
1
  0
ATTRIB
  8
FeatureAttribs
 70
0
  1
PNOA-H_AMS_1956-57_33k_ES_PAN_2
  2
NAME
  10
359618.768
  20
4649958.291
 40
33.87181
  0
SEQEND
  0
POLYLINE
  8
Unknown_Area_Type
  70
1
  66
1
  0
VERTEX
  8
Unknown_Area_Type
  10
361188.942
  20
4651135.152
  0
VERTEX
  8
Unknown_Area_Type
  10
361081.000
  20
4648766.000
  0
VERTEX
  8
Unknown_Area_Type
  10
358278.000
  20
4648733.500
  0
VERTEX
  8
Unknown_Area_Type
  10
358258.500
  20
4648734.000
  0
VERTEX
  8
Unknown_Area_Type
  10
358064.500
  20
4648848.500
  0
VERTEX
  8
Unknown_Area_Type
  10
358176.127
  20
4651194.817
  0
VERTEX
  8
Unknown_Area_Type
  10
360243.113
  20
4651153.567
  0
VERTEX
  8
Unknown_Area_Type
  10
361188.942
  20
4651135.152
  0
SEQEND
  8
Unknown_Area_Type
  0
INSERT
  8
FeatureAttribs
  2
FEATURE
  41
1
  42
1
  43
1
  50
0
  10
359618.768
  20
4649958.291
 66
1
  0
ATTRIB
  8
FeatureAttribs
 70
0
  1
PNOA-H_AMS_1956-57_33k_ES_PAN_2
  2
NAME
  10
359618.768
  20
4649958.291
 40
33.87181
  0
SEQEND
  0
POLYLINE
  8
Unknown_Area_Type
  70
1
  66
1
  0
VERTEX
  8
Unknown_Area_Type
  10
361188.942
  20
4651135.152
  0
VERTEX
  8
Unknown_Area_Type
  10
360243.113
  20
4651153.567
  0
VERTEX
  8
Unknown_Area_Type
  10
358176.127
  20
4651194.817
  0
VERTEX
  8
Unknown_Area_Type
  10
358064.500
  20
4648848.500
  0
VERTEX
  8
Unknown_Area_Type
  10
358258.500
  20
4648734.000
  0
VERTEX
  8
Unknown_Area_Type
  10
358278.000
  20
4648733.500
  0
VERTEX
  8
Unknown_Area_Type
  10
361081.000
  20
4648766.000
  0
VERTEX
  8
Unknown_Area_Type
  10
361188.942
  20
4651135.152
  0
SEQEND
  8
Unknown_Area_Type
  0
INSERT
  8
FeatureAttribs
  2
FEATURE
  41
1
  42
1
  43
1
  50
0
  10
371647.648
  20
4651175.143
 66
1
  0
ATTRIB
  8
FeatureAttribs
 70
0
  1
PNOA-H_AMS_1956-57_33k_ES_PAN_2
  2
NAME
  10
371647.648
  20
4651175.143
 40
33.87181
  0
SEQEND
  0
POLYLINE
  8
Unknown_Area_Type
  70
1
  66
1
  0
VERTEX
  8
Unknown_Area_Type
  10
373154.337
  20
4651439.147
  0
VERTEX
  8
Unknown_Area_Type
  10
373144.913
  20
4650911.138
  0
VERTEX
  8
Unknown_Area_Type
  10
370595.759
  20
4650957.045
  0
VERTEX
  8
Unknown_Area_Type
  10
370141.455
  20
4650965.448
  0
VERTEX
  8
Unknown_Area_Type
  10
370150.981
  20
4651439.147
  0
VERTEX
  8
Unknown_Area_Type
  10
373154.337
  20
4651439.147
  0
SEQEND
  8
Unknown_Area_Type
  0
INSERT
  8
FeatureAttribs
  2
FEATURE
  41
1
  42
1
  43
1
  50
0
  10
371632.185
  20
4649828.946
 66
1
  0
ATTRIB
  8
FeatureAttribs
 70
0
  1
PNOA-H_AMS_1956-57_33k_ES_PAN_2
  2
NAME
  10
371632.185
  20
4649828.946
 40
33.87181
  0
SEQEND
  0
POLYLINE
  8
Unknown_Area_Type
  70
1
  66
1
  0
VERTEX
  8
Unknown_Area_Type
  10
373144.913
  20
4650911.138
  0
VERTEX
  8
Unknown_Area_Type
  10
373108.500
  20
4648871.000
  0
VERTEX
  8
Unknown_Area_Type
  10
372683.000
  20
4648609.000
  0
VERTEX
  8
Unknown_Area_Type
  10
370098.500
  20
4648829.500
  0
VERTEX
  8
Unknown_Area_Type
  10
370141.455
  20
4650965.448
  0
VERTEX
  8
Unknown_Area_Type
  10
370595.759
  20
4650957.045
  0
VERTEX
  8
Unknown_Area_Type
  10
373144.913
  20
4650911.138
  0
SEQEND
  8
Unknown_Area_Type
  0
INSERT
  8
FeatureAttribs
  2
FEATURE
  41
1
  42
1
  43
1
  50
0
  10
371632.185
  20
4649828.946
 66
1
  0
ATTRIB
  8
FeatureAttribs
 70
0
  1
PNOA-H_AMS_1956-57_33k_ES_PAN_2
  2
NAME
  10
371632.185
  20
4649828.946
 40
33.87181
  0
SEQEND
  0
POLYLINE
  8
Unknown_Area_Type
  70
1
  66
1
  0
VERTEX
  8
Unknown_Area_Type
  10
373144.913
  20
4650911.138
  0
VERTEX
  8
Unknown_Area_Type
  10
370595.759
  20
4650957.045
  0
VERTEX
  8
Unknown_Area_Type
  10
370141.455
  20
4650965.448
  0
VERTEX
  8
Unknown_Area_Type
  10
370098.500
  20
4648829.500
  0
VERTEX
  8
Unknown_Area_Type
  10
372683.000
  20
4648609.000
  0
VERTEX
  8
Unknown_Area_Type
  10
373108.500
  20
4648871.000
  0
VERTEX
  8
Unknown_Area_Type
  10
373144.913
  20
4650911.138
  0
SEQEND
  8
Unknown_Area_Type
  0
INSERT
  8
FeatureAttribs
  2
FEATURE
  41
1
  42
1
  43
1
  50
0
  10
362676.993
  20
4651258.398
 66
1
  0
ATTRIB
  8
FeatureAttribs
 70
0
  1
PNOA-H_AMS_1956-57_33k_ES_PAN_2
  2
NAME
  10
362676.993
  20
4651258.398
 40
33.87181
  0
SEQEND
  0
POLYLINE
  8
Unknown_Area_Type
  70
1
  66
1
  0
VERTEX
  8
Unknown_Area_Type
  10
364164.946
  20
4651439.147
  0
VERTEX
  8
Unknown_Area_Type
  10
364153.898
  20
4651077.649
  0
VERTEX
  8
Unknown_Area_Type
  10
363694.003
  20
4651086.379
  0
VERTEX
  8
Unknown_Area_Type
  10
361188.950
  20
4651135.152
  0
VERTEX
  8
Unknown_Area_Type
  10
361202.799
  20
4651439.147
  0
VERTEX
  8
Unknown_Area_Type
  10
364164.946
  20
4651439.147
  0
SEQEND
  8
Unknown_Area_Type
  0
INSERT
  8
FeatureAttribs
  2
FEATURE
  41
1
  42
1
  43
1
  50
0
  10
362625.427
  20
4649901.983
 66
1
  0
ATTRIB
  8
FeatureAttribs
 70
0
  1
PNOA-H_AMS_1956-57_33k_ES_PAN_2
  2
NAME
  10
362625.427
  20
4649901.983
 40
33.87181
  0
SEQEND
  0
POLYLINE
  8
Unknown_Area_Type
  70
1
  66
1
  0
VERTEX
  8
Unknown_Area_Type
  10
364153.898
  20
4651077.649
  0
VERTEX
  8
Unknown_Area_Type
  10
364082.500
  20
4648741.500
  0
VERTEX
  8
Unknown_Area_Type
  10
364081.500
  20
4648735.000
  0
VERTEX
  8
Unknown_Area_Type
  10
363980.000
  20
4648672.500
  0
VERTEX
  8
Unknown_Area_Type
  10
361141.500
  20
4648730.500
  0
VERTEX
  8
Unknown_Area_Type
  10
361135.000
  20
4648731.000
  0
VERTEX
  8
Unknown_Area_Type
  10
361081.000
  20
4648765.500
  0
VERTEX
  8
Unknown_Area_Type
  10
361188.950
  20
4651135.152
  0
VERTEX
  8
Unknown_Area_Type
  10
363694.003
  20
4651086.379
  0
VERTEX
  8
Unknown_Area_Type
  10
364153.898
  20
4651077.649
  0
SEQEND
  8
Unknown_Area_Type
  0
INSERT
  8
FeatureAttribs
  2
FEATURE
  41
1
  42
1
  43
1
  50
0
  10
362625.427
  20
4649901.983
 66
1
  0
ATTRIB
  8
FeatureAttribs
 70
0
  1
PNOA-H_AMS_1956-57_33k_ES_PAN_2
  2
NAME
  10
362625.427
  20
4649901.983
 40
33.87181
  0
SEQEND
  0
POLYLINE
  8
Unknown_Area_Type
  70
1
  66
1
  0
VERTEX
  8
Unknown_Area_Type
  10
364153.898
  20
4651077.649
  0
VERTEX
  8
Unknown_Area_Type
  10
363694.003
  20
4651086.379
  0
VERTEX
  8
Unknown_Area_Type
  10
361188.950
  20
4651135.152
  0
VERTEX
  8
Unknown_Area_Type
  10
361081.000
  20
4648765.500
  0
VERTEX
  8
Unknown_Area_Type
  10
361135.000
  20
4648731.000
  0
VERTEX
  8
Unknown_Area_Type
  10
361141.500
  20
4648730.500
  0
VERTEX
  8
Unknown_Area_Type
  10
363980.000
  20
4648672.500
  0
VERTEX
  8
Unknown_Area_Type
  10
364081.500
  20
4648735.000
  0
VERTEX
  8
Unknown_Area_Type
  10
364082.500
  20
4648741.500
  0
VERTEX
  8
Unknown_Area_Type
  10
364153.898
  20
4651077.649
  0
SEQEND
  8
Unknown_Area_Type
  0
INSERT
  8
FeatureAttribs
  2
FEATURE
  41
1
  42
1
  43
1
  50
0
  10
365643.623
  20
4651230.211
 66
1
  0
ATTRIB
  8
FeatureAttribs
 70
0
  1
PNOA-H_AMS_1956-57_33k_ES_PAN_2
  2
NAME
  10
365643.623
  20
4651230.211
 40
33.87181
  0
SEQEND
  0
POLYLINE
  8
Unknown_Area_Type
  70
1
  66
1
  0
VERTEX
  8
Unknown_Area_Type
  10
367133.753
  20
4651439.147
  0
VERTEX
  8
Unknown_Area_Type
  10
367123.601
  20
4651021.276
  0
VERTEX
  8
Unknown_Area_Type
  10
364153.887
  20
4651077.649
  0
VERTEX
  8
Unknown_Area_Type
  10
364164.982
  20
4651439.147
  0
VERTEX
  8
Unknown_Area_Type
  10
367133.753
  20
4651439.147
  0
SEQEND
  8
Unknown_Area_Type
  0
INSERT
  8
FeatureAttribs
  2
FEATURE
  41
1
  42
1
  43
1
  50
0
  10
365606.567
  20
4649873.968
 66
1
  0
ATTRIB
  8
FeatureAttribs
 70
0
  1
PNOA-H_AMS_1956-57_33k_ES_PAN_2
  2
NAME
  10
365606.567
  20
4649873.968
 40
33.87181
  0
SEQEND
  0
POLYLINE
  8
Unknown_Area_Type
  70
1
  66
1
  0
VERTEX
  8
Unknown_Area_Type
  10
367123.601
  20
4651021.276
  0
VERTEX
  8
Unknown_Area_Type
  10
367069.000
  20
4648774.000
  0
VERTEX
  8
Unknown_Area_Type
  10
367063.000
  20
4648769.000
  0
VERTEX
  8
Unknown_Area_Type
  10
366900.500
  20
4648663.500
  0
VERTEX
  8
Unknown_Area_Type
  10
364082.000
  20
4648735.500
  0
VERTEX
  8
Unknown_Area_Type
  10
364153.887
  20
4651077.649
  0
VERTEX
  8
Unknown_Area_Type
  10
367123.601
  20
4651021.276
  0
SEQEND
  8
Unknown_Area_Type
  0
INSERT
  8
FeatureAttribs
  2
FEATURE
  41
1
  42
1
  43
1
  50
0
  10
365606.567
  20
4649873.968
 66
1
  0
ATTRIB
  8
FeatureAttribs
 70
0
  1
PNOA-H_AMS_1956-57_33k_ES_PAN_2
  2
NAME
  10
365606.567
  20
4649873.968
 40
33.87181
  0
SEQEND
  0
POLYLINE
  8
Unknown_Area_Type
  70
1
  66
1
  0
VERTEX
  8
Unknown_Area_Type
  10
367123.601
  20
4651021.276
  0
VERTEX
  8
Unknown_Area_Type
  10
364153.887
  20
4651077.649
  0
VERTEX
  8
Unknown_Area_Type
  10
364082.000
  20
4648735.500
  0
VERTEX
  8
Unknown_Area_Type
  10
366900.500
  20
4648663.500
  0
VERTEX
  8
Unknown_Area_Type
  10
367063.000
  20
4648769.000
  0
VERTEX
  8
Unknown_Area_Type
  10
367069.000
  20
4648774.000
  0
VERTEX
  8
Unknown_Area_Type
  10
367123.601
  20
4651021.276
  0
SEQEND
  8
Unknown_Area_Type
  0
INSERT
  8
FeatureAttribs
  2
FEATURE
  41
1
  42
1
  43
1
  50
0
  10
353669.156
  20
4651347.294
 66
1
  0
ATTRIB
  8
FeatureAttribs
 70
0
  1
PNOA-H_AMS_1956-57_33k_ES_PAN_2
  2
NAME
  10
353669.156
  20
4651347.294
 40
33.87181
  0
SEQEND
  0
POLYLINE
  8
Unknown_Area_Type
  70
1
  66
1
  0
VERTEX
  8
Unknown_Area_Type
  10
355186.197
  20
4651439.147
  0
VERTEX
  8
Unknown_Area_Type
  10
355177.820
  20
4651255.440
  0
VERTEX
  8
Unknown_Area_Type
  10
353341.310
  20
4651292.985
  0
VERTEX
  8
Unknown_Area_Type
  10
352155.316
  20
4651317.809
  0
VERTEX
  8
Unknown_Area_Type
  10
352159.377
  20
4651439.147
  0
VERTEX
  8
Unknown_Area_Type
  10
355186.197
  20
4651439.147
  0
SEQEND
  8
Unknown_Area_Type
  0
INSERT
  8
FeatureAttribs
  2
FEATURE
  41
1
  42
1
  43
1
  50
0
  10
353609.046
  20
4650082.174
 66
1
  0
ATTRIB
  8
FeatureAttribs
 70
0
  1
PNOA-H_AMS_1956-57_33k_ES_PAN_2
  2
NAME
  10
353609.046
  20
4650082.174
 40
33.87181
  0
SEQEND
  0
POLYLINE
  8
Unknown_Area_Type
  70
1
  66
1
  0
VERTEX
  8
Unknown_Area_Type
  10
355177.820
  20
4651255.440
  0
VERTEX
  8
Unknown_Area_Type
  10
355070.500
  20
4648902.000
  0
VERTEX
  8
Unknown_Area_Type
  10
352315.000
  20
4648840.000
  0
VERTEX
  8
Unknown_Area_Type
  10
352077.000
  20
4648978.000
  0
VERTEX
  8
Unknown_Area_Type
  10
352155.316
  20
4651317.809
  0
VERTEX
  8
Unknown_Area_Type
  10
353341.310
  20
4651292.985
  0
VERTEX
  8
Unknown_Area_Type
  10
355177.820
  20
4651255.440
  0
SEQEND
  8
Unknown_Area_Type
  0
INSERT
  8
FeatureAttribs
  2
FEATURE
  41
1
  42
1
  43
1
  50
0
  10
353609.046
  20
4650082.174
 66
1
  0
ATTRIB
  8
FeatureAttribs
 70
0
  1
PNOA-H_AMS_1956-57_33k_ES_PAN_2
  2
NAME
  10
353609.046
  20
4650082.174
 40
33.87181
  0
SEQEND
  0
POLYLINE
  8
Unknown_Area_Type
  70
1
  66
1
  0
VERTEX
  8
Unknown_Area_Type
  10
355177.820
  20
4651255.440
  0
VERTEX
  8
Unknown_Area_Type
  10
353341.310
  20
4651292.985
  0
VERTEX
  8
Unknown_Area_Type
  10
352155.316
  20
4651317.809
  0
VERTEX
  8
Unknown_Area_Type
  10
352077.000
  20
4648978.000
  0
VERTEX
  8
Unknown_Area_Type
  10
352315.000
  20
4648840.000
  0
VERTEX
  8
Unknown_Area_Type
  10
355070.500
  20
4648902.000
  0
VERTEX
  8
Unknown_Area_Type
  10
355177.820
  20
4651255.440
  0
SEQEND
  8
Unknown_Area_Type
  0
INSERT
  8
FeatureAttribs
  2
FEATURE
  41
1
  42
1
  43
1
  50
0
  10
346439.257
  20
4651439.138
 66
1
  0
ATTRIB
  8
FeatureAttribs
 70
0
  1
PNOA-H_AMS_1956-57_33k_ES_PAN_2
  2
NAME
  10
346439.257
  20
4651439.138
 40
33.87181
  0
SEQEND
  0
POLYLINE
  8
Unknown_Area_Type
  70
1
  66
1
  0
VERTEX
  8
Unknown_Area_Type
  10
346439.475
  20
4651439.147
  0
VERTEX
  8
Unknown_Area_Type
  10
346439.474
  20
4651439.128
  0
VERTEX
  8
Unknown_Area_Type
  10
346438.605
  20
4651439.147
  0
VERTEX
  8
Unknown_Area_Type
  10
346439.475
  20
4651439.147
  0
SEQEND
  8
Unknown_Area_Type
  0
INSERT
  8
FeatureAttribs
  2
FEATURE
  41
1
  42
1
  43
1
  50
0
  10
348458.110
  20
4651410.315
 66
1
  0
ATTRIB
  8
FeatureAttribs
 70
0
  1
PNOA-H_AMS_1956-57_33k_ES_PAN_2
  2
NAME
  10
348458.110
  20
4651410.315
 40
33.87181
  0
SEQEND
  0
POLYLINE
  8
Unknown_Area_Type
  70
1
  66
1
  0
VERTEX
  8
Unknown_Area_Type
  10
349132.062
  20
4651439.147
  0
VERTEX
  8
Unknown_Area_Type
  10
349130.896
  20
4651381.483
  0
VERTEX
  8
Unknown_Area_Type
  10
346439.474
  20
4651439.128
  0
VERTEX
  8
Unknown_Area_Type
  10
346439.475
  20
4651439.147
  0
VERTEX
  8
Unknown_Area_Type
  10
349132.062
  20
4651439.147
  0
SEQEND
  8
Unknown_Area_Type
  0
INSERT
  8
FeatureAttribs
  2
FEATURE
  41
1
  42
1
  43
1
  50
0
  10
346277.730
  20
4650235.074
 66
1
  0
ATTRIB
  8
FeatureAttribs
 70
0
  1
PNOA-H_AMS_1956-57_33k_ES_PAN_2
  2
NAME
  10
346277.730
  20
4650235.074
 40
33.87181
  0
SEQEND
  0
POLYLINE
  8
Unknown_Area_Type
  70
1
  66
1
  0
VERTEX
  8
Unknown_Area_Type
  10
346387.348
  20
4649032.184
  0
VERTEX
  8
Unknown_Area_Type
  10
346276.500
  20
4649031.000
  0
VERTEX
  8
Unknown_Area_Type
  10
346127.500
  20
4649120.500
  0
VERTEX
  8
Unknown_Area_Type
  10
346157.794
  20
4651439.147
  0
VERTEX
  8
Unknown_Area_Type
  10
346438.605
  20
4651439.147
  0
VERTEX
  8
Unknown_Area_Type
  10
346439.474
  20
4651439.128
  0
VERTEX
  8
Unknown_Area_Type
  10
346389.376
  20
4649125.902
  0
VERTEX
  8
Unknown_Area_Type
  10
346387.348
  20
4649032.184
  0
SEQEND
  8
Unknown_Area_Type
  0
INSERT
  8
FeatureAttribs
  2
FEATURE
  41
1
  42
1
  43
1
  50
0
  10
347752.211
  20
4650228.243
 66
1
  0
ATTRIB
  8
FeatureAttribs
 70
0
  1
PNOA-H_AMS_1956-57_33k_ES_PAN_2
  2
NAME
  10
347752.211
  20
4650228.243
 40
33.87181
  0
SEQEND
  0
POLYLINE
  8
Unknown_Area_Type
  70
1
  66
1
  0
VERTEX
  8
Unknown_Area_Type
  10
349130.896
  20
4651381.483
  0
VERTEX
  8
Unknown_Area_Type
  10
349084.000
  20
4649061.000
  0
VERTEX
  8
Unknown_Area_Type
  10
346387.348
  20
4649032.184
  0
VERTEX
  8
Unknown_Area_Type
  10
346389.376
  20
4649125.902
  0
VERTEX
  8
Unknown_Area_Type
  10
346439.474
  20
4651439.128
  0
VERTEX
  8
Unknown_Area_Type
  10
349130.896
  20
4651381.483
  0
SEQEND
  8
Unknown_Area_Type
  0
INSERT
  8
FeatureAttribs
  2
FEATURE
  41
1
  42
1
  43
1
  50
0
  10
347752.211
  20
4650228.243
 66
1
  0
ATTRIB
  8
FeatureAttribs
 70
0
  1
PNOA-H_AMS_1956-57_33k_ES_PAN_2
  2
NAME
  10
347752.211
  20
4650228.243
 40
33.87181
  0
SEQEND
  0
POLYLINE
  8
Unknown_Area_Type
  70
1
  66
1
  0
VERTEX
  8
Unknown_Area_Type
  10
349130.896
  20
4651381.483
  0
VERTEX
  8
Unknown_Area_Type
  10
346439.474
  20
4651439.128
  0
VERTEX
  8
Unknown_Area_Type
  10
346389.376
  20
4649125.902
  0
VERTEX
  8
Unknown_Area_Type
  10
346387.348
  20
4649032.184
  0
VERTEX
  8
Unknown_Area_Type
  10
349084.000
  20
4649061.000
  0
VERTEX
  8
Unknown_Area_Type
  10
349130.896
  20
4651381.483
  0
SEQEND
  8
Unknown_Area_Type
  0
INSERT
  8
FeatureAttribs
  2
FEATURE
  41
1
  42
1
  43
1
  50
0
  10
356681.155
  20
4651316.982
 66
1
  0
ATTRIB
  8
FeatureAttribs
 70
0
  1
PNOA-H_AMS_1956-57_33k_ES_PAN_2
  2
NAME
  10
356681.155
  20
4651316.982
 40
33.87181
  0
SEQEND
  0
POLYLINE
  8
Unknown_Area_Type
  70
1
  66
1
  0
VERTEX
  8
Unknown_Area_Type
  10
358187.751
  20
4651439.147
  0
VERTEX
  8
Unknown_Area_Type
  10
358176.127
  20
4651194.817
  0
VERTEX
  8
Unknown_Area_Type
  10
356792.216
  20
4651222.436
  0
VERTEX
  8
Unknown_Area_Type
  10
355177.572
  20
4651255.445
  0
VERTEX
  8
Unknown_Area_Type
  10
355185.929
  20
4651439.147
  0
VERTEX
  8
Unknown_Area_Type
  10
358187.751
  20
4651439.147
  0
SEQEND
  8
Unknown_Area_Type
  0
INSERT
  8
FeatureAttribs
  2
FEATURE
  41
1
  42
1
  43
1
  50
0
  10
356608.012
  20
4650015.837
 66
1
  0
ATTRIB
  8
FeatureAttribs
 70
0
  1
PNOA-H_AMS_1956-57_33k_ES_PAN_2
  2
NAME
  10
356608.012
  20
4650015.837
 40
33.87181
  0
SEQEND
  0
POLYLINE
  8
Unknown_Area_Type
  70
1
  66
1
  0
VERTEX
  8
Unknown_Area_Type
  10
358176.127
  20
4651194.817
  0
VERTEX
  8
Unknown_Area_Type
  10
358064.500
  20
4648848.500
  0
VERTEX
  8
Unknown_Area_Type
  10
355316.500
  20
4648759.500
  0
VERTEX
  8
Unknown_Area_Type
  10
355070.500
  20
4648902.000
  0
VERTEX
  8
Unknown_Area_Type
  10
355177.572
  20
4651255.445
  0
VERTEX
  8
Unknown_Area_Type
  10
356792.216
  20
4651222.436
  0
VERTEX
  8
Unknown_Area_Type
  10
358176.127
  20
4651194.817
  0
SEQEND
  8
Unknown_Area_Type
  0
INSERT
  8
FeatureAttribs
  2
FEATURE
  41
1
  42
1
  43
1
  50
0
  10
356608.012
  20
4650015.837
 66
1
  0
ATTRIB
  8
FeatureAttribs
 70
0
  1
PNOA-H_AMS_1956-57_33k_ES_PAN_2
  2
NAME
  10
356608.012
  20
4650015.837
 40
33.87181
  0
SEQEND
  0
POLYLINE
  8
Unknown_Area_Type
  70
1
  66
1
  0
VERTEX
  8
Unknown_Area_Type
  10
358176.127
  20
4651194.817
  0
VERTEX
  8
Unknown_Area_Type
  10
356792.216
  20
4651222.436
  0
VERTEX
  8
Unknown_Area_Type
  10
355177.572
  20
4651255.445
  0
VERTEX
  8
Unknown_Area_Type
  10
355070.500
  20
4648902.000
  0
VERTEX
  8
Unknown_Area_Type
  10
355316.500
  20
4648759.500
  0
VERTEX
  8
Unknown_Area_Type
  10
358064.500
  20
4648848.500
  0
VERTEX
  8
Unknown_Area_Type
  10
358176.127
  20
4651194.817
  0
SEQEND
  8
Unknown_Area_Type
  0
INSERT
  8
FeatureAttribs
  2
FEATURE
  41
1
  42
1
  43
1
  50
0
  10
350714.267
  20
4651378.478
 66
1
  0
ATTRIB
  8
FeatureAttribs
 70
0
  1
PNOA-H_AMS_1956-57_33k_ES_PAN_2
  2
NAME
  10
350714.267
  20
4651378.478
 40
33.87181
  0
SEQEND
  0
POLYLINE
  8
Unknown_Area_Type
  70
1
  66
1
  0
VERTEX
  8
Unknown_Area_Type
  10
352159.371
  20
4651439.147
  0
VERTEX
  8
Unknown_Area_Type
  10
352155.310
  20
4651317.809
  0
VERTEX
  8
Unknown_Area_Type
  10
349890.396
  20
4651365.216
  0
VERTEX
  8
Unknown_Area_Type
  10
349130.896
  20
4651381.483
  0
VERTEX
  8
Unknown_Area_Type
  10
349132.062
  20
4651439.147
  0
VERTEX
  8
Unknown_Area_Type
  10
352159.371
  20
4651439.147
  0
SEQEND
  8
Unknown_Area_Type
  0
INSERT
  8
FeatureAttribs
  2
FEATURE
  41
1
  42
1
  43
1
  50
0
  10
350601.088
  20
4650152.163
 66
1
  0
ATTRIB
  8
FeatureAttribs
 70
0
  1
PNOA-H_AMS_1956-57_33k_ES_PAN_2
  2
NAME
  10
350601.088
  20
4650152.163
 40
33.87181
  0
SEQEND
  0
POLYLINE
  8
Unknown_Area_Type
  70
1
  66
1
  0
VERTEX
  8
Unknown_Area_Type
  10
352155.310
  20
4651317.809
  0
VERTEX
  8
Unknown_Area_Type
  10
352077.000
  20
4648978.500
  0
VERTEX
  8
Unknown_Area_Type
  10
349331.000
  20
4648916.000
  0
VERTEX
  8
Unknown_Area_Type
  10
349084.000
  20
4649061.000
  0
VERTEX
  8
Unknown_Area_Type
  10
349130.896
  20
4651381.483
  0
VERTEX
  8
Unknown_Area_Type
  10
349890.396
  20
4651365.216
  0
VERTEX
  8
Unknown_Area_Type
  10
352155.310
  20
4651317.809
  0
SEQEND
  8
Unknown_Area_Type
  0
INSERT
  8
FeatureAttribs
  2
FEATURE
  41
1
  42
1
  43
1
  50
0
  10
350601.088
  20
4650152.163
 66
1
  0
ATTRIB
  8
FeatureAttribs
 70
0
  1
PNOA-H_AMS_1956-57_33k_ES_PAN_2
  2
NAME
  10
350601.088
  20
4650152.163
 40
33.87181
  0
SEQEND
  0
POLYLINE
  8
Unknown_Area_Type
  70
1
  66
1
  0
VERTEX
  8
Unknown_Area_Type
  10
352155.310
  20
4651317.809
  0
VERTEX
  8
Unknown_Area_Type
  10
349890.396
  20
4651365.216
  0
VERTEX
  8
Unknown_Area_Type
  10
349130.896
  20
4651381.483
  0
VERTEX
  8
Unknown_Area_Type
  10
349084.000
  20
4649061.000
  0
VERTEX
  8
Unknown_Area_Type
  10
349331.000
  20
4648916.000
  0
VERTEX
  8
Unknown_Area_Type
  10
352077.000
  20
4648978.500
  0
VERTEX
  8
Unknown_Area_Type
  10
352155.310
  20
4651317.809
  0
SEQEND
  8
Unknown_Area_Type
  0
INSERT
  8
FeatureAttribs
  2
FEATURE
  41
1
  42
1
  43
1
  50
0
  10
373597.925
  20
4651167.023
 66
1
  0
ATTRIB
  8
FeatureAttribs
 70
0
  1
PNOA-H_AMS_1956-57_33k_ES_PAN_2
  2
NAME
  10
373597.925
  20
4651167.023
 40
33.87181
  0
SEQEND
  0
POLYLINE
  8
Unknown_Area_Type
  70
1
  66
1
  0
VERTEX
  8
Unknown_Area_Type
  10
373154.020
  20
4651439.147
  0
VERTEX
  8
Unknown_Area_Type
  10
374046.654
  20
4651439.147
  0
VERTEX
  8
Unknown_Area_Type
  10
374046.654
  20
4650896.476
  0
VERTEX
  8
Unknown_Area_Type
  10
374046.626
  20
4650894.899
  0
VERTEX
  8
Unknown_Area_Type
  10
373144.661
  20
4650911.143
  0
VERTEX
  8
Unknown_Area_Type
  10
373154.020
  20
4651439.147
  0
SEQEND
  8
Unknown_Area_Type
  0
INSERT
  8
FeatureAttribs
  2
FEATURE
  41
1
  42
1
  43
1
  50
0
  10
374046.640
  20
4650895.293
 66
1
  0
ATTRIB
  8
FeatureAttribs
 70
0
  1
PNOA-H_AMS_1956-57_33k_ES_PAN_2
  2
NAME
  10
374046.640
  20
4650895.293
 40
33.87181
  0
SEQEND
  0
POLYLINE
  8
Unknown_Area_Type
  70
1
  66
1
  0
VERTEX
  8
Unknown_Area_Type
  10
374046.654
  20
4650896.476
  0
VERTEX
  8
Unknown_Area_Type
  10
374046.654
  20
4650894.899
  0
VERTEX
  8
Unknown_Area_Type
  10
374046.626
  20
4650894.899
  0
VERTEX
  8
Unknown_Area_Type
  10
374046.654
  20
4650896.476
  0
SEQEND
  8
Unknown_Area_Type
  0
INSERT
  8
FeatureAttribs
  2
FEATURE
  41
1
  42
1
  43
1
  50
0
  10
374037.151
  20
4649826.441
 66
1
  0
ATTRIB
  8
FeatureAttribs
 70
0
  1
PNOA-H_AMS_1956-57_33k_ES_PAN_2
  2
NAME
  10
374037.151
  20
4649826.441
 40
33.87181
  0
SEQEND
  0
POLYLINE
  8
Unknown_Area_Type
  70
1
  66
1
  0
VERTEX
  8
Unknown_Area_Type
  10
374046.654
  20
4648757.983
  0
VERTEX
  8
Unknown_Area_Type
  10
374008.752
  20
4648762.549
  0
VERTEX
  8
Unknown_Area_Type
  10
374046.626
  20
4650894.899
  0
VERTEX
  8
Unknown_Area_Type
  10
374046.654
  20
4650894.899
  0
VERTEX
  8
Unknown_Area_Type
  10
374046.654
  20
4648757.983
  0
SEQEND
  8
Unknown_Area_Type
  0
INSERT
  8
FeatureAttribs
  2
FEATURE
  41
1
  42
1
  43
1
  50
0
  10
373580.454
  20
4649859.683
 66
1
  0
ATTRIB
  8
FeatureAttribs
 70
0
  1
PNOA-H_AMS_1956-57_33k_ES_PAN_2
  2
NAME
  10
373580.454
  20
4649859.683
 40
33.87181
  0
SEQEND
  0
POLYLINE
  8
Unknown_Area_Type
  70
1
  66
1
  0
VERTEX
  8
Unknown_Area_Type
  10
374008.752
  20
4648762.549
  0
VERTEX
  8
Unknown_Area_Type
  10
373108.500
  20
4648871.000
  0
VERTEX
  8
Unknown_Area_Type
  10
373144.661
  20
4650911.143
  0
VERTEX
  8
Unknown_Area_Type
  10
374046.626
  20
4650894.899
  0
VERTEX
  8
Unknown_Area_Type
  10
374008.752
  20
4648762.549
  0
SEQEND
  8
Unknown_Area_Type
  0
INSERT
  8
FeatureAttribs
  2
FEATURE
  41
1
  42
1
  43
1
  50
0
  10
373580.454
  20
4649859.683
 66
1
  0
ATTRIB
  8
FeatureAttribs
 70
0
  1
PNOA-H_AMS_1956-57_33k_ES_PAN_2
  2
NAME
  10
373580.454
  20
4649859.683
 40
33.87181
  0
SEQEND
  0
POLYLINE
  8
Unknown_Area_Type
  70
1
  66
1
  0
VERTEX
  8
Unknown_Area_Type
  10
374008.752
  20
4648762.549
  0
VERTEX
  8
Unknown_Area_Type
  10
374046.626
  20
4650894.899
  0
VERTEX
  8
Unknown_Area_Type
  10
373144.661
  20
4650911.143
  0
VERTEX
  8
Unknown_Area_Type
  10
373108.500
  20
4648871.000
  0
VERTEX
  8
Unknown_Area_Type
  10
374008.752
  20
4648762.549
  0
SEQEND
  8
Unknown_Area_Type
  0
INSERT
  8
FeatureAttribs
  2
FEATURE
  41
1
  42
1
  43
1
  50
0
  10
349755.340
  20
4644214.237
 66
1
  0
ATTRIB
  8
FeatureAttribs
 70
0
  1
PNOA-H_AMS_1956-57_33k_ES_PAN_2
  2
NAME
  10
349755.340
  20
4644214.237
 40
33.87181
  0
SEQEND
  0
POLYLINE
  8
Unknown_Area_Type
  70
1
  66
1
  0
VERTEX
  8
Unknown_Area_Type
  10
349184.500
  20
4645642.000
  0
VERTEX
  8
Unknown_Area_Type
  10
351298.000
  20
4644762.500
  0
VERTEX
  8
Unknown_Area_Type
  10
351239.000
  20
4643581.500
  0
VERTEX
  8
Unknown_Area_Type
  10
350838.000
  20
4643123.000
  0
VERTEX
  8
Unknown_Area_Type
  10
349801.000
  20
4642972.500
  0
VERTEX
  8
Unknown_Area_Type
  10
348292.500
  20
4643493.000
  0
VERTEX
  8
Unknown_Area_Type
  10
348351.000
  20
4644942.000
  0
VERTEX
  8
Unknown_Area_Type
  10
349183.500
  20
4645641.500
  0
VERTEX
  8
Unknown_Area_Type
  10
349184.500
  20
4645642.000
  0
SEQEND
  8
Unknown_Area_Type
  0
INSERT
  8
FeatureAttribs
  2
FEATURE
  41
1
  42
1
  43
1
  50
0
  10
349755.340
  20
4644214.237
 66
1
  0
ATTRIB
  8
FeatureAttribs
 70
0
  1
PNOA-H_AMS_1956-57_33k_ES_PAN_2
  2
NAME
  10
349755.340
  20
4644214.237
 40
33.87181
  0
SEQEND
  0
POLYLINE
  8
Unknown_Area_Type
  70
1
  66
1
  0
VERTEX
  8
Unknown_Area_Type
  10
349184.500
  20
4645642.000
  0
VERTEX
  8
Unknown_Area_Type
  10
349183.500
  20
4645641.500
  0
VERTEX
  8
Unknown_Area_Type
  10
348351.000
  20
4644942.000
  0
VERTEX
  8
Unknown_Area_Type
  10
348292.500
  20
4643493.000
  0
VERTEX
  8
Unknown_Area_Type
  10
349801.000
  20
4642972.500
  0
VERTEX
  8
Unknown_Area_Type
  10
350838.000
  20
4643123.000
  0
VERTEX
  8
Unknown_Area_Type
  10
351239.000
  20
4643581.500
  0
VERTEX
  8
Unknown_Area_Type
  10
351298.000
  20
4644762.500
  0
VERTEX
  8
Unknown_Area_Type
  10
349184.500
  20
4645642.000
  0
SEQEND
  8
Unknown_Area_Type
  0
INSERT
  8
FeatureAttribs
  2
FEATURE
  41
1
  42
1
  43
1
  50
0
  10
346163.929
  20
4644470.850
 66
1
  0
ATTRIB
  8
FeatureAttribs
 70
0
  1
PNOA-H_AMS_1956-57_33k_ES_PAN_2
  2
NAME
  10
346163.929
  20
4644470.850
 40
33.87181
  0
SEQEND
  0
POLYLINE
  8
Unknown_Area_Type
  70
1
  66
1
  0
VERTEX
  8
Unknown_Area_Type
  10
346314.295
  20
4645657.196
  0
VERTEX
  8
Unknown_Area_Type
  10
346289.242
  20
4644499.472
  0
VERTEX
  8
Unknown_Area_Type
  10
346261.624
  20
4643222.700
  0
VERTEX
  8
Unknown_Area_Type
  10
346039.234
  20
4643281.097
  0
VERTEX
  8
Unknown_Area_Type
  10
346039.234
  20
4645631.398
  0
VERTEX
  8
Unknown_Area_Type
  10
346138.500
  20
4645719.000
  0
VERTEX
  8
Unknown_Area_Type
  10
346314.295
  20
4645657.196
  0
SEQEND
  8
Unknown_Area_Type
  0
INSERT
  8
FeatureAttribs
  2
FEATURE
  41
1
  42
1
  43
1
  50
0
  10
347236.721
  20
4644220.801
 66
1
  0
ATTRIB
  8
FeatureAttribs
 70
0
  1
PNOA-H_AMS_1956-57_33k_ES_PAN_2
  2
NAME
  10
347236.721
  20
4644220.801
 40
33.87181
  0
SEQEND
  0
POLYLINE
  8
Unknown_Area_Type
  70
1
  66
1
  0
VERTEX
  8
Unknown_Area_Type
  10
346314.295
  20
4645657.196
  0
VERTEX
  8
Unknown_Area_Type
  10
347792.500
  20
4645137.500
  0
VERTEX
  8
Unknown_Area_Type
  10
347794.000
  20
4645137.000
  0
VERTEX
  8
Unknown_Area_Type
  10
348351.000
  20
4644941.500
  0
VERTEX
  8
Unknown_Area_Type
  10
348292.500
  20
4643492.500
  0
VERTEX
  8
Unknown_Area_Type
  10
347993.000
  20
4643147.000
  0
VERTEX
  8
Unknown_Area_Type
  10
347157.000
  20
4642992.500
  0
VERTEX
  8
Unknown_Area_Type
  10
347144.000
  20
4642991.000
  0
VERTEX
  8
Unknown_Area_Type
  10
346261.624
  20
4643222.700
  0
VERTEX
  8
Unknown_Area_Type
  10
346289.242
  20
4644499.472
  0
VERTEX
  8
Unknown_Area_Type
  10
346314.295
  20
4645657.196
  0
SEQEND
  8
Unknown_Area_Type
  0
INSERT
  8
FeatureAttribs
  2
FEATURE
  41
1
  42
1
  43
1
  50
0
  10
347236.721
  20
4644220.801
 66
1
  0
ATTRIB
  8
FeatureAttribs
 70
0
  1
PNOA-H_AMS_1956-57_33k_ES_PAN_2
  2
NAME
  10
347236.721
  20
4644220.801
 40
33.87181
  0
SEQEND
  0
POLYLINE
  8
Unknown_Area_Type
  70
1
  66
1
  0
VERTEX
  8
Unknown_Area_Type
  10
346314.295
  20
4645657.196
  0
VERTEX
  8
Unknown_Area_Type
  10
346289.242
  20
4644499.472
  0
VERTEX
  8
Unknown_Area_Type
  10
346261.624
  20
4643222.700
  0
VERTEX
  8
Unknown_Area_Type
  10
347144.000
  20
4642991.000
  0
VERTEX
  8
Unknown_Area_Type
  10
347157.000
  20
4642992.500
  0
VERTEX
  8
Unknown_Area_Type
  10
347993.000
  20
4643147.000
  0
VERTEX
  8
Unknown_Area_Type
  10
348292.500
  20
4643492.500
  0
VERTEX
  8
Unknown_Area_Type
  10
348351.000
  20
4644941.500
  0
VERTEX
  8
Unknown_Area_Type
  10
347794.000
  20
4645137.000
  0
VERTEX
  8
Unknown_Area_Type
  10
347792.500
  20
4645137.500
  0
VERTEX
  8
Unknown_Area_Type
  10
346314.295
  20
4645657.196
  0
SEQEND
  8
Unknown_Area_Type
  0
INSERT
  8
FeatureAttribs
  2
FEATURE
  41
1
  42
1
  43
1
  50
0
  10
358484.105
  20
4643897.068
 66
1
  0
ATTRIB
  8
FeatureAttribs
 70
0
  1
PNOA-H_AMS_1956-57_33k_ES_PAN_2
  2
NAME
  10
358484.105
  20
4643897.068
 40
33.87181
  0
SEQEND
  0
POLYLINE
  8
Unknown_Area_Type
  70
1
  66
1
  0
VERTEX
  8
Unknown_Area_Type
  10
358033.500
  20
4645087.000
  0
VERTEX
  8
Unknown_Area_Type
  10
358294.500
  20
4645232.500
  0
VERTEX
  8
Unknown_Area_Type
  10
358297.500
  20
4645233.000
  0
VERTEX
  8
Unknown_Area_Type
  10
359846.500
  20
4644559.000
  0
VERTEX
  8
Unknown_Area_Type
  10
359795.500
  20
4642978.000
  0
VERTEX
  8
Unknown_Area_Type
  10
357948.000
  20
4642648.500
  0
VERTEX
  8
Unknown_Area_Type
  10
357071.000
  20
4643515.000
  0
VERTEX
  8
Unknown_Area_Type
  10
357164.000
  20
4644603.000
  0
VERTEX
  8
Unknown_Area_Type
  10
358032.500
  20
4645086.500
  0
VERTEX
  8
Unknown_Area_Type
  10
358033.500
  20
4645087.000
  0
SEQEND
  8
Unknown_Area_Type
  0
INSERT
  8
FeatureAttribs
  2
FEATURE
  41
1
  42
1
  43
1
  50
0
  10
358484.105
  20
4643897.068
 66
1
  0
ATTRIB
  8
FeatureAttribs
 70
0
  1
PNOA-H_AMS_1956-57_33k_ES_PAN_2
  2
NAME
  10
358484.105
  20
4643897.068
 40
33.87181
  0
SEQEND
  0
POLYLINE
  8
Unknown_Area_Type
  70
1
  66
1
  0
VERTEX
  8
Unknown_Area_Type
  10
358033.500
  20
4645087.000
  0
VERTEX
  8
Unknown_Area_Type
  10
358032.500
  20
4645086.500
  0
VERTEX
  8
Unknown_Area_Type
  10
357164.000
  20
4644603.000
  0
VERTEX
  8
Unknown_Area_Type
  10
357071.000
  20
4643515.000
  0
VERTEX
  8
Unknown_Area_Type
  10
357948.000
  20
4642648.500
  0
VERTEX
  8
Unknown_Area_Type
  10
359795.500
  20
4642978.000
  0
VERTEX
  8
Unknown_Area_Type
  10
359846.500
  20
4644559.000
  0
VERTEX
  8
Unknown_Area_Type
  10
358297.500
  20
4645233.000
  0
VERTEX
  8
Unknown_Area_Type
  10
358294.500
  20
4645232.500
  0
VERTEX
  8
Unknown_Area_Type
  10
358033.500
  20
4645087.000
  0
SEQEND
  8
Unknown_Area_Type
  0
INSERT
  8
FeatureAttribs
  2
FEATURE
  41
1
  42
1
  43
1
  50
0
  10
363907.583
  20
4643784.561
 66
1
  0
ATTRIB
  8
FeatureAttribs
 70
0
  1
PNOA-H_AMS_1956-57_33k_ES_PAN_2
  2
NAME
  10
363907.583
  20
4643784.561
 40
33.87181
  0
SEQEND
  0
POLYLINE
  8
Unknown_Area_Type
  70
1
  66
1
  0
VERTEX
  8
Unknown_Area_Type
  10
364082.500
  20
4645150.000
  0
VERTEX
  8
Unknown_Area_Type
  10
364084.500
  20
4645150.000
  0
VERTEX
  8
Unknown_Area_Type
  10
364264.000
  20
4645060.500
  0
VERTEX
  8
Unknown_Area_Type
  10
365361.000
  20
4644512.000
  0
VERTEX
  8
Unknown_Area_Type
  10
365183.000
  20
4642731.000
  0
VERTEX
  8
Unknown_Area_Type
  10
365181.500
  20
4642726.500
  0
VERTEX
  8
Unknown_Area_Type
  10
362594.500
  20
4642667.500
  0
VERTEX
  8
Unknown_Area_Type
  10
362578.000
  20
4642667.500
  0
VERTEX
  8
Unknown_Area_Type
  10
362576.500
  20
4642670.500
  0
VERTEX
  8
Unknown_Area_Type
  10
362499.000
  20
4642852.500
  0
VERTEX
  8
Unknown_Area_Type
  10
362563.500
  20
4644541.000
  0
VERTEX
  8
Unknown_Area_Type
  10
364081.000
  20
4645149.500
  0
VERTEX
  8
Unknown_Area_Type
  10
364082.500
  20
4645150.000
  0
SEQEND
  8
Unknown_Area_Type
  0
INSERT
  8
FeatureAttribs
  2
FEATURE
  41
1
  42
1
  43
1
  50
0
  10
363907.583
  20
4643784.561
 66
1
  0
ATTRIB
  8
FeatureAttribs
 70
0
  1
PNOA-H_AMS_1956-57_33k_ES_PAN_2
  2
NAME
  10
363907.583
  20
4643784.561
 40
33.87181
  0
SEQEND
  0
POLYLINE
  8
Unknown_Area_Type
  70
1
  66
1
  0
VERTEX
  8
Unknown_Area_Type
  10
364082.500
  20
4645150.000
  0
VERTEX
  8
Unknown_Area_Type
  10
364081.000
  20
4645149.500
  0
VERTEX
  8
Unknown_Area_Type
  10
362563.500
  20
4644541.000
  0
VERTEX
  8
Unknown_Area_Type
  10
362499.000
  20
4642852.500
  0
VERTEX
  8
Unknown_Area_Type
  10
362576.500
  20
4642670.500
  0
VERTEX
  8
Unknown_Area_Type
  10
362578.000
  20
4642667.500
  0
VERTEX
  8
Unknown_Area_Type
  10
362594.500
  20
4642667.500
  0
VERTEX
  8
Unknown_Area_Type
  10
365181.500
  20
4642726.500
  0
VERTEX
  8
Unknown_Area_Type
  10
365183.000
  20
4642731.000
  0
VERTEX
  8
Unknown_Area_Type
  10
365361.000
  20
4644512.000
  0
VERTEX
  8
Unknown_Area_Type
  10
364264.000
  20
4645060.500
  0
VERTEX
  8
Unknown_Area_Type
  10
364084.500
  20
4645150.000
  0
VERTEX
  8
Unknown_Area_Type
  10
364082.500
  20
4645150.000
  0
SEQEND
  8
Unknown_Area_Type
  0
INSERT
  8
FeatureAttribs
  2
FEATURE
  41
1
  42
1
  43
1
  50
0
  10
352723.560
  20
4644151.380
 66
1
  0
ATTRIB
  8
FeatureAttribs
 70
0
  1
PNOA-H_AMS_1956-57_33k_ES_PAN_2
  2
NAME
  10
352723.560
  20
4644151.380
 40
33.87181
  0
SEQEND
  0
POLYLINE
  8
Unknown_Area_Type
  70
1
  66
1
  0
VERTEX
  8
Unknown_Area_Type
  10
353938.000
  20
4644806.000
  0
VERTEX
  8
Unknown_Area_Type
  10
354281.500
  20
4644657.000
  0
VERTEX
  8
Unknown_Area_Type
  10
354204.500
  20
4643609.500
  0
VERTEX
  8
Unknown_Area_Type
  10
353760.500
  20
4643130.000
  0
VERTEX
  8
Unknown_Area_Type
  10
352502.000
  20
4642928.000
  0
VERTEX
  8
Unknown_Area_Type
  10
351239.000
  20
4643581.500
  0
VERTEX
  8
Unknown_Area_Type
  10
351298.000
  20
4644762.500
  0
VERTEX
  8
Unknown_Area_Type
  10
352263.500
  20
4645532.500
  0
VERTEX
  8
Unknown_Area_Type
  10
353936.000
  20
4644806.500
  0
VERTEX
  8
Unknown_Area_Type
  10
353938.000
  20
4644806.000
  0
SEQEND
  8
Unknown_Area_Type
  0
INSERT
  8
FeatureAttribs
  2
FEATURE
  41
1
  42
1
  43
1
  50
0
  10
352723.560
  20
4644151.380
 66
1
  0
ATTRIB
  8
FeatureAttribs
 70
0
  1
PNOA-H_AMS_1956-57_33k_ES_PAN_2
  2
NAME
  10
352723.560
  20
4644151.380
 40
33.87181
  0
SEQEND
  0
POLYLINE
  8
Unknown_Area_Type
  70
1
  66
1
  0
VERTEX
  8
Unknown_Area_Type
  10
353938.000
  20
4644806.000
  0
VERTEX
  8
Unknown_Area_Type
  10
353936.000
  20
4644806.500
  0
VERTEX
  8
Unknown_Area_Type
  10
352263.500
  20
4645532.500
  0
VERTEX
  8
Unknown_Area_Type
  10
351298.000
  20
4644762.500
  0
VERTEX
  8
Unknown_Area_Type
  10
351239.000
  20
4643581.500
  0
VERTEX
  8
Unknown_Area_Type
  10
352502.000
  20
4642928.000
  0
VERTEX
  8
Unknown_Area_Type
  10
353760.500
  20
4643130.000
  0
VERTEX
  8
Unknown_Area_Type
  10
354204.500
  20
4643609.500
  0
VERTEX
  8
Unknown_Area_Type
  10
354281.500
  20
4644657.000
  0
VERTEX
  8
Unknown_Area_Type
  10
353938.000
  20
4644806.000
  0
SEQEND
  8
Unknown_Area_Type
  0
INSERT
  8
FeatureAttribs
  2
FEATURE
  41
1
  42
1
  43
1
  50
0
  10
355665.636
  20
4644046.116
 66
1
  0
ATTRIB
  8
FeatureAttribs
 70
0
  1
PNOA-H_AMS_1956-57_33k_ES_PAN_2
  2
NAME
  10
355665.636
  20
4644046.116
 40
33.87181
  0
SEQEND
  0
POLYLINE
  8
Unknown_Area_Type
  70
1
  66
1
  0
VERTEX
  8
Unknown_Area_Type
  10
355321.000
  20
4645394.500
  0
VERTEX
  8
Unknown_Area_Type
  10
357164.000
  20
4644603.000
  0
VERTEX
  8
Unknown_Area_Type
  10
357071.500
  20
4643515.500
  0
VERTEX
  8
Unknown_Area_Type
  10
356552.500
  20
4643006.500
  0
VERTEX
  8
Unknown_Area_Type
  10
355282.000
  20
4642802.000
  0
VERTEX
  8
Unknown_Area_Type
  10
354204.500
  20
4643610.000
  0
VERTEX
  8
Unknown_Area_Type
  10
354281.500
  20
4644657.000
  0
VERTEX
  8
Unknown_Area_Type
  10
355320.500
  20
4645393.500
  0
VERTEX
  8
Unknown_Area_Type
  10
355321.000
  20
4645394.500
  0
SEQEND
  8
Unknown_Area_Type
  0
INSERT
  8
FeatureAttribs
  2
FEATURE
  41
1
  42
1
  43
1
  50
0
  10
355665.636
  20
4644046.116
 66
1
  0
ATTRIB
  8
FeatureAttribs
 70
0
  1
PNOA-H_AMS_1956-57_33k_ES_PAN_2
  2
NAME
  10
355665.636
  20
4644046.116
 40
33.87181
  0
SEQEND
  0
POLYLINE
  8
Unknown_Area_Type
  70
1
  66
1
  0
VERTEX
  8
Unknown_Area_Type
  10
355321.000
  20
4645394.500
  0
VERTEX
  8
Unknown_Area_Type
  10
355320.500
  20
4645393.500
  0
VERTEX
  8
Unknown_Area_Type
  10
354281.500
  20
4644657.000
  0
VERTEX
  8
Unknown_Area_Type
  10
354204.500
  20
4643610.000
  0
VERTEX
  8
Unknown_Area_Type
  10
355282.000
  20
4642802.000
  0
VERTEX
  8
Unknown_Area_Type
  10
356552.500
  20
4643006.500
  0
VERTEX
  8
Unknown_Area_Type
  10
357071.500
  20
4643515.500
  0
VERTEX
  8
Unknown_Area_Type
  10
357164.000
  20
4644603.000
  0
VERTEX
  8
Unknown_Area_Type
  10
355321.000
  20
4645394.500
  0
SEQEND
  8
Unknown_Area_Type
  0
INSERT
  8
FeatureAttribs
  2
FEATURE
  41
1
  42
1
  43
1
  50
0
  10
366651.742
  20
4643665.257
 66
1
  0
ATTRIB
  8
FeatureAttribs
 70
0
  1
PNOA-H_AMS_1956-57_33k_ES_PAN_2
  2
NAME
  10
366651.742
  20
4643665.257
 40
33.87181
  0
SEQEND
  0
POLYLINE
  8
Unknown_Area_Type
  70
1
  66
1
  0
VERTEX
  8
Unknown_Area_Type
  10
366224.500
  20
4644777.500
  0
VERTEX
  8
Unknown_Area_Type
  10
367007.000
  20
4645017.500
  0
VERTEX
  8
Unknown_Area_Type
  10
368025.500
  20
4644490.500
  0
VERTEX
  8
Unknown_Area_Type
  10
367820.000
  20
4642400.000
  0
VERTEX
  8
Unknown_Area_Type
  10
365182.500
  20
4642729.000
  0
VERTEX
  8
Unknown_Area_Type
  10
365361.000
  20
4644512.500
  0
VERTEX
  8
Unknown_Area_Type
  10
366223.000
  20
4644777.000
  0
VERTEX
  8
Unknown_Area_Type
  10
366224.500
  20
4644777.500
  0
SEQEND
  8
Unknown_Area_Type
  0
INSERT
  8
FeatureAttribs
  2
FEATURE
  41
1
  42
1
  43
1
  50
0
  10
366651.742
  20
4643665.257
 66
1
  0
ATTRIB
  8
FeatureAttribs
 70
0
  1
PNOA-H_AMS_1956-57_33k_ES_PAN_2
  2
NAME
  10
366651.742
  20
4643665.257
 40
33.87181
  0
SEQEND
  0
POLYLINE
  8
Unknown_Area_Type
  70
1
  66
1
  0
VERTEX
  8
Unknown_Area_Type
  10
366224.500
  20
4644777.500
  0
VERTEX
  8
Unknown_Area_Type
  10
366223.000
  20
4644777.000
  0
VERTEX
  8
Unknown_Area_Type
  10
365361.000
  20
4644512.500
  0
VERTEX
  8
Unknown_Area_Type
  10
365182.500
  20
4642729.000
  0
VERTEX
  8
Unknown_Area_Type
  10
367820.000
  20
4642400.000
  0
VERTEX
  8
Unknown_Area_Type
  10
368025.500
  20
4644490.500
  0
VERTEX
  8
Unknown_Area_Type
  10
367007.000
  20
4645017.500
  0
VERTEX
  8
Unknown_Area_Type
  10
366224.500
  20
4644777.500
  0
SEQEND
  8
Unknown_Area_Type
  0
INSERT
  8
FeatureAttribs
  2
FEATURE
  41
1
  42
1
  43
1
  50
0
  10
361155.472
  20
4643810.304
 66
1
  0
ATTRIB
  8
FeatureAttribs
 70
0
  1
PNOA-H_AMS_1956-57_33k_ES_PAN_2
  2
NAME
  10
361155.472
  20
4643810.304
 40
33.87181
  0
SEQEND
  0
POLYLINE
  8
Unknown_Area_Type
  70
1
  66
1
  0
VERTEX
  8
Unknown_Area_Type
  10
362130.000
  20
4644744.500
  0
VERTEX
  8
Unknown_Area_Type
  10
362563.500
  20
4644541.000
  0
VERTEX
  8
Unknown_Area_Type
  10
362499.000
  20
4642853.000
  0
VERTEX
  8
Unknown_Area_Type
  10
359980.000
  20
4642608.500
  0
VERTEX
  8
Unknown_Area_Type
  10
359796.000
  20
4642977.500
  0
VERTEX
  8
Unknown_Area_Type
  10
359846.500
  20
4644559.000
  0
VERTEX
  8
Unknown_Area_Type
  10
361180.500
  20
4645191.000
  0
VERTEX
  8
Unknown_Area_Type
  10
362129.000
  20
4644745.000
  0
VERTEX
  8
Unknown_Area_Type
  10
362130.000
  20
4644744.500
  0
SEQEND
  8
Unknown_Area_Type
  0
INSERT
  8
FeatureAttribs
  2
FEATURE
  41
1
  42
1
  43
1
  50
0
  10
361155.472
  20
4643810.304
 66
1
  0
ATTRIB
  8
FeatureAttribs
 70
0
  1
PNOA-H_AMS_1956-57_33k_ES_PAN_2
  2
NAME
  10
361155.472
  20
4643810.304
 40
33.87181
  0
SEQEND
  0
POLYLINE
  8
Unknown_Area_Type
  70
1
  66
1
  0
VERTEX
  8
Unknown_Area_Type
  10
362130.000
  20
4644744.500
  0
VERTEX
  8
Unknown_Area_Type
  10
362129.000
  20
4644745.000
  0
VERTEX
  8
Unknown_Area_Type
  10
361180.500
  20
4645191.000
  0
VERTEX
  8
Unknown_Area_Type
  10
359846.500
  20
4644559.000
  0
VERTEX
  8
Unknown_Area_Type
  10
359796.000
  20
4642977.500
  0
VERTEX
  8
Unknown_Area_Type
  10
359980.000
  20
4642608.500
  0
VERTEX
  8
Unknown_Area_Type
  10
362499.000
  20
4642853.000
  0
VERTEX
  8
Unknown_Area_Type
  10
362563.500
  20
4644541.000
  0
VERTEX
  8
Unknown_Area_Type
  10
362130.000
  20
4644744.500
  0
SEQEND
  8
Unknown_Area_Type
  0
INSERT
  8
FeatureAttribs
  2
FEATURE
  41
1
  42
1
  43
1
  50
0
  10
369181.586
  20
4643535.471
 66
1
  0
ATTRIB
  8
FeatureAttribs
 70
0
  1
PNOA-H_AMS_1956-57_33k_ES_PAN_2
  2
NAME
  10
369181.586
  20
4643535.471
 40
33.87181
  0
SEQEND
  0
POLYLINE
  8
Unknown_Area_Type
  70
1
  66
1
  0
VERTEX
  8
Unknown_Area_Type
  10
370322.000
  20
4644617.500
  0
VERTEX
  8
Unknown_Area_Type
  10
370553.500
  20
4644492.500
  0
VERTEX
  8
Unknown_Area_Type
  10
370417.000
  20
4642641.500
  0
VERTEX
  8
Unknown_Area_Type
  10
370415.500
  20
4642632.000
  0
VERTEX
  8
Unknown_Area_Type
  10
367859.500
  20
4642203.000
  0
VERTEX
  8
Unknown_Area_Type
  10
367820.000
  20
4642398.500
  0
VERTEX
  8
Unknown_Area_Type
  10
367820.000
  20
4642402.500
  0
VERTEX
  8
Unknown_Area_Type
  10
368026.000
  20
4644490.500
  0
VERTEX
  8
Unknown_Area_Type
  10
369908.000
  20
4644841.500
  0
VERTEX
  8
Unknown_Area_Type
  10
369911.500
  20
4644840.500
  0
VERTEX
  8
Unknown_Area_Type
  10
370321.000
  20
4644618.000
  0
VERTEX
  8
Unknown_Area_Type
  10
370322.000
  20
4644617.500
  0
SEQEND
  8
Unknown_Area_Type
  0
INSERT
  8
FeatureAttribs
  2
FEATURE
  41
1
  42
1
  43
1
  50
0
  10
369181.586
  20
4643535.471
 66
1
  0
ATTRIB
  8
FeatureAttribs
 70
0
  1
PNOA-H_AMS_1956-57_33k_ES_PAN_2
  2
NAME
  10
369181.586
  20
4643535.471
 40
33.87181
  0
SEQEND
  0
POLYLINE
  8
Unknown_Area_Type
  70
1
  66
1
  0
VERTEX
  8
Unknown_Area_Type
  10
370322.000
  20
4644617.500
  0
VERTEX
  8
Unknown_Area_Type
  10
370321.000
  20
4644618.000
  0
VERTEX
  8
Unknown_Area_Type
  10
369911.500
  20
4644840.500
  0
VERTEX
  8
Unknown_Area_Type
  10
369908.000
  20
4644841.500
  0
VERTEX
  8
Unknown_Area_Type
  10
368026.000
  20
4644490.500
  0
VERTEX
  8
Unknown_Area_Type
  10
367820.000
  20
4642402.500
  0
VERTEX
  8
Unknown_Area_Type
  10
367820.000
  20
4642398.500
  0
VERTEX
  8
Unknown_Area_Type
  10
367859.500
  20
4642203.000
  0
VERTEX
  8
Unknown_Area_Type
  10
370415.500
  20
4642632.000
  0
VERTEX
  8
Unknown_Area_Type
  10
370417.000
  20
4642641.500
  0
VERTEX
  8
Unknown_Area_Type
  10
370553.500
  20
4644492.500
  0
VERTEX
  8
Unknown_Area_Type
  10
370322.000
  20
4644617.500
  0
SEQEND
  8
Unknown_Area_Type
  0
INSERT
  8
FeatureAttribs
  2
FEATURE
  41
1
  42
1
  43
1
  50
0
  10
346123.638
  20
4647376.018
 66
1
  0
ATTRIB
  8
FeatureAttribs
 70
0
  1
PNOA-H_AMS_1956-57_33k_ES_PAN_2
  2
NAME
  10
346123.638
  20
4647376.018
 40
33.87181
  0
SEQEND
  0
POLYLINE
  8
Unknown_Area_Type
  70
1
  66
1
  0
VERTEX
  8
Unknown_Area_Type
  10
346039.234
  20
4649120.968
  0
VERTEX
  8
Unknown_Area_Type
  10
346128.000
  20
4649120.500
  0
VERTEX
  8
Unknown_Area_Type
  10
346277.000
  20
4649031.000
  0
VERTEX
  8
Unknown_Area_Type
  10
346139.000
  20
4645719.000
  0
VERTEX
  8
Unknown_Area_Type
  10
346039.234
  20
4645631.069
  0
VERTEX
  8
Unknown_Area_Type
  10
346039.234
  20
4649120.968
  0
SEQEND
  8
Unknown_Area_Type
  0
INSERT
  8
FeatureAttribs
  2
FEATURE
  41
1
  42
1
  43
1
  50
0
  10
371639.929
  20
4643373.641
 66
1
  0
ATTRIB
  8
FeatureAttribs
 70
0
  1
PNOA-H_AMS_1956-57_33k_ES_PAN_2
  2
NAME
  10
371639.929
  20
4643373.641
 40
33.87181
  0
SEQEND
  0
POLYLINE
  8
Unknown_Area_Type
  70
1
  66
1
  0
VERTEX
  8
Unknown_Area_Type
  10
370553.500
  20
4644492.500
  0
VERTEX
  8
Unknown_Area_Type
  10
372762.000
  20
4644700.000
  0
VERTEX
  8
Unknown_Area_Type
  10
373203.500
  20
4644438.500
  0
VERTEX
  8
Unknown_Area_Type
  10
373073.000
  20
4643243.000
  0
VERTEX
  8
Unknown_Area_Type
  10
371517.500
  20
4642056.000
  0
VERTEX
  8
Unknown_Area_Type
  10
371516.500
  20
4642056.000
  0
VERTEX
  8
Unknown_Area_Type
  10
370607.500
  20
4641362.500
  0
VERTEX
  8
Unknown_Area_Type
  10
370416.000
  20
4642631.000
  0
VERTEX
  8
Unknown_Area_Type
  10
370553.500
  20
4644492.500
  0
SEQEND
  8
Unknown_Area_Type
  0
INSERT
  8
FeatureAttribs
  2
FEATURE
  41
1
  42
1
  43
1
  50
0
  10
371639.929
  20
4643373.641
 66
1
  0
ATTRIB
  8
FeatureAttribs
 70
0
  1
PNOA-H_AMS_1956-57_33k_ES_PAN_2
  2
NAME
  10
371639.929
  20
4643373.641
 40
33.87181
  0
SEQEND
  0
POLYLINE
  8
Unknown_Area_Type
  70
1
  66
1
  0
VERTEX
  8
Unknown_Area_Type
  10
370553.500
  20
4644492.500
  0
VERTEX
  8
Unknown_Area_Type
  10
370416.000
  20
4642631.000
  0
VERTEX
  8
Unknown_Area_Type
  10
370607.500
  20
4641362.500
  0
VERTEX
  8
Unknown_Area_Type
  10
371516.500
  20
4642056.000
  0
VERTEX
  8
Unknown_Area_Type
  10
371517.500
  20
4642056.000
  0
VERTEX
  8
Unknown_Area_Type
  10
373073.000
  20
4643243.000
  0
VERTEX
  8
Unknown_Area_Type
  10
373203.500
  20
4644438.500
  0
VERTEX
  8
Unknown_Area_Type
  10
372762.000
  20
4644700.000
  0
VERTEX
  8
Unknown_Area_Type
  10
370553.500
  20
4644492.500
  0
SEQEND
  8
Unknown_Area_Type
  0
INSERT
  8
FeatureAttribs
  2
FEATURE
  41
1
  42
1
  43
1
  50
0
  10
373969.621
  20
4642217.547
 66
1
  0
ATTRIB
  8
FeatureAttribs
 70
0
  1
PNOA-H_AMS_1956-57_33k_ES_PAN_2
  2
NAME
  10
373969.621
  20
4642217.547
 40
33.87181
  0
SEQEND
  0
POLYLINE
  8
Unknown_Area_Type
  70
1
  66
1
  0
VERTEX
  8
Unknown_Area_Type
  10
374046.654
  20
4644461.594
  0
VERTEX
  8
Unknown_Area_Type
  10
374046.654
  20
4640083.838
  0
VERTEX
  8
Unknown_Area_Type
  10
374019.500
  20
4639973.500
  0
VERTEX
  8
Unknown_Area_Type
  10
373852.821
  20
4639975.200
  0
VERTEX
  8
Unknown_Area_Type
  10
373882.382
  20
4641642.211
  0
VERTEX
  8
Unknown_Area_Type
  10
373923.418
  20
4643955.371
  0
VERTEX
  8
Unknown_Area_Type
  10
373932.346
  20
4644458.445
  0
VERTEX
  8
Unknown_Area_Type
  10
374046.654
  20
4644461.594
  0
SEQEND
  8
Unknown_Area_Type
  0
INSERT
  8
FeatureAttribs
  2
FEATURE
  41
1
  42
1
  43
1
  50
0
  10
373528.368
  20
4642331.338
 66
1
  0
ATTRIB
  8
FeatureAttribs
 70
0
  1
PNOA-H_AMS_1956-57_33k_ES_PAN_2
  2
NAME
  10
373528.368
  20
4642331.338
 40
33.87181
  0
SEQEND
  0
POLYLINE
  8
Unknown_Area_Type
  70
1
  66
1
  0
VERTEX
  8
Unknown_Area_Type
  10
373932.346
  20
4644458.445
  0
VERTEX
  8
Unknown_Area_Type
  10
373923.418
  20
4643955.371
  0
VERTEX
  8
Unknown_Area_Type
  10
373882.382
  20
4641642.211
  0
VERTEX
  8
Unknown_Area_Type
  10
373852.821
  20
4639975.200
  0
VERTEX
  8
Unknown_Area_Type
  10
373284.000
  20
4639981.000
  0
VERTEX
  8
Unknown_Area_Type
  10
373073.000
  20
4643235.500
  0
VERTEX
  8
Unknown_Area_Type
  10
373073.000
  20
4643247.500
  0
VERTEX
  8
Unknown_Area_Type
  10
373203.000
  20
4644436.000
  0
VERTEX
  8
Unknown_Area_Type
  10
373203.500
  20
4644438.000
  0
VERTEX
  8
Unknown_Area_Type
  10
373208.500
  20
4644438.500
  0
VERTEX
  8
Unknown_Area_Type
  10
373932.346
  20
4644458.445
  0
SEQEND
  8
Unknown_Area_Type
  0
INSERT
  8
FeatureAttribs
  2
FEATURE
  41
1
  42
1
  43
1
  50
0
  10
373528.368
  20
4642331.338
 66
1
  0
ATTRIB
  8
FeatureAttribs
 70
0
  1
PNOA-H_AMS_1956-57_33k_ES_PAN_2
  2
NAME
  10
373528.368
  20
4642331.338
 40
33.87181
  0
SEQEND
  0
POLYLINE
  8
Unknown_Area_Type
  70
1
  66
1
  0
VERTEX
  8
Unknown_Area_Type
  10
373932.346
  20
4644458.445
  0
VERTEX
  8
Unknown_Area_Type
  10
373208.500
  20
4644438.500
  0
VERTEX
  8
Unknown_Area_Type
  10
373203.500
  20
4644438.000
  0
VERTEX
  8
Unknown_Area_Type
  10
373203.000
  20
4644436.000
  0
VERTEX
  8
Unknown_Area_Type
  10
373073.000
  20
4643247.500
  0
VERTEX
  8
Unknown_Area_Type
  10
373073.000
  20
4643235.500
  0
VERTEX
  8
Unknown_Area_Type
  10
373284.000
  20
4639981.000
  0
VERTEX
  8
Unknown_Area_Type
  10
373852.821
  20
4639975.200
  0
VERTEX
  8
Unknown_Area_Type
  10
373882.382
  20
4641642.211
  0
VERTEX
  8
Unknown_Area_Type
  10
373923.418
  20
4643955.371
  0
VERTEX
  8
Unknown_Area_Type
  10
373932.346
  20
4644458.445
  0
SEQEND
  8
Unknown_Area_Type
  0
INSERT
  8
FeatureAttribs
  2
FEATURE
  41
1
  42
1
  43
1
  50
0
  10
362594.906
  20
4646766.856
 66
1
  0
ATTRIB
  8
FeatureAttribs
 70
0
  1
PNOA-H_AMS_1956-57_33k_ES_PAN_2
  2
NAME
  10
362594.906
  20
4646766.856
 40
33.87181
  0
SEQEND
  0
POLYLINE
  8
Unknown_Area_Type
  70
1
  66
1
  0
VERTEX
  8
Unknown_Area_Type
  10
362130.000
  20
4648710.500
  0
VERTEX
  8
Unknown_Area_Type
  10
363979.000
  20
4648672.000
  0
VERTEX
  8
Unknown_Area_Type
  10
364083.500
  20
4645150.000
  0
VERTEX
  8
Unknown_Area_Type
  10
362564.500
  20
4644541.000
  0
VERTEX
  8
Unknown_Area_Type
  10
362534.000
  20
4644554.500
  0
VERTEX
  8
Unknown_Area_Type
  10
361181.000
  20
4645191.000
  0
VERTEX
  8
Unknown_Area_Type
  10
361135.500
  20
4648731.000
  0
VERTEX
  8
Unknown_Area_Type
  10
362108.000
  20
4648710.500
  0
VERTEX
  8
Unknown_Area_Type
  10
362130.000
  20
4648710.500
  0
SEQEND
  8
Unknown_Area_Type
  0
INSERT
  8
FeatureAttribs
  2
FEATURE
  41
1
  42
1
  43
1
  50
0
  10
362594.906
  20
4646766.856
 66
1
  0
ATTRIB
  8
FeatureAttribs
 70
0
  1
PNOA-H_AMS_1956-57_33k_ES_PAN_2
  2
NAME
  10
362594.906
  20
4646766.856
 40
33.87181
  0
SEQEND
  0
POLYLINE
  8
Unknown_Area_Type
  70
1
  66
1
  0
VERTEX
  8
Unknown_Area_Type
  10
362130.000
  20
4648710.500
  0
VERTEX
  8
Unknown_Area_Type
  10
362108.000
  20
4648710.500
  0
VERTEX
  8
Unknown_Area_Type
  10
361135.500
  20
4648731.000
  0
VERTEX
  8
Unknown_Area_Type
  10
361181.000
  20
4645191.000
  0
VERTEX
  8
Unknown_Area_Type
  10
362534.000
  20
4644554.500
  0
VERTEX
  8
Unknown_Area_Type
  10
362564.500
  20
4644541.000
  0
VERTEX
  8
Unknown_Area_Type
  10
364083.500
  20
4645150.000
  0
VERTEX
  8
Unknown_Area_Type
  10
363979.000
  20
4648672.000
  0
VERTEX
  8
Unknown_Area_Type
  10
362130.000
  20
4648710.500
  0
SEQEND
  8
Unknown_Area_Type
  0
INSERT
  8
FeatureAttribs
  2
FEATURE
  41
1
  42
1
  43
1
  50
0
  10
346278.779
  20
4647344.783
 66
1
  0
ATTRIB
  8
FeatureAttribs
 70
0
  1
PNOA-H_AMS_1956-57_33k_ES_PAN_2
  2
NAME
  10
346278.779
  20
4647344.783
 40
33.87181
  0
SEQEND
  0
POLYLINE
  8
Unknown_Area_Type
  70
1
  66
1
  0
VERTEX
  8
Unknown_Area_Type
  10
346387.348
  20
4649032.183
  0
VERTEX
  8
Unknown_Area_Type
  10
346339.299
  20
4646812.683
  0
VERTEX
  8
Unknown_Area_Type
  10
346314.299
  20
4645657.384
  0
VERTEX
  8
Unknown_Area_Type
  10
346139.000
  20
4645719.000
  0
VERTEX
  8
Unknown_Area_Type
  10
346277.000
  20
4649031.000
  0
VERTEX
  8
Unknown_Area_Type
  10
346387.348
  20
4649032.183
  0
SEQEND
  8
Unknown_Area_Type
  0
INSERT
  8
FeatureAttribs
  2
FEATURE
  41
1
  42
1
  43
1
  50
0
  10
347820.229
  20
4647172.953
 66
1
  0
ATTRIB
  8
FeatureAttribs
 70
0
  1
PNOA-H_AMS_1956-57_33k_ES_PAN_2
  2
NAME
  10
347820.229
  20
4647172.953
 40
33.87181
  0
SEQEND
  0
POLYLINE
  8
Unknown_Area_Type
  70
1
  66
1
  0
VERTEX
  8
Unknown_Area_Type
  10
346387.348
  20
4649032.183
  0
VERTEX
  8
Unknown_Area_Type
  10
349029.500
  20
4649060.500
  0
VERTEX
  8
Unknown_Area_Type
  10
349076.000
  20
4649061.000
  0
VERTEX
  8
Unknown_Area_Type
  10
349084.500
  20
4649061.000
  0
VERTEX
  8
Unknown_Area_Type
  10
349331.000
  20
4648916.500
  0
VERTEX
  8
Unknown_Area_Type
  10
349185.000
  20
4645643.000
  0
VERTEX
  8
Unknown_Area_Type
  10
349181.000
  20
4645638.500
  0
VERTEX
  8
Unknown_Area_Type
  10
348351.000
  20
4644941.500
  0
VERTEX
  8
Unknown_Area_Type
  10
346314.299
  20
4645657.384
  0
VERTEX
  8
Unknown_Area_Type
  10
346339.299
  20
4646812.683
  0
VERTEX
  8
Unknown_Area_Type
  10
346387.348
  20
4649032.183
  0
SEQEND
  8
Unknown_Area_Type
  0
INSERT
  8
FeatureAttribs
  2
FEATURE
  41
1
  42
1
  43
1
  50
0
  10
347820.229
  20
4647172.953
 66
1
  0
ATTRIB
  8
FeatureAttribs
 70
0
  1
PNOA-H_AMS_1956-57_33k_ES_PAN_2
  2
NAME
  10
347820.229
  20
4647172.953
 40
33.87181
  0
SEQEND
  0
POLYLINE
  8
Unknown_Area_Type
  70
1
  66
1
  0
VERTEX
  8
Unknown_Area_Type
  10
346387.348
  20
4649032.183
  0
VERTEX
  8
Unknown_Area_Type
  10
346339.299
  20
4646812.683
  0
VERTEX
  8
Unknown_Area_Type
  10
346314.299
  20
4645657.384
  0
VERTEX
  8
Unknown_Area_Type
  10
348351.000
  20
4644941.500
  0
VERTEX
  8
Unknown_Area_Type
  10
349181.000
  20
4645638.500
  0
VERTEX
  8
Unknown_Area_Type
  10
349185.000
  20
4645643.000
  0
VERTEX
  8
Unknown_Area_Type
  10
349331.000
  20
4648916.500
  0
VERTEX
  8
Unknown_Area_Type
  10
349084.500
  20
4649061.000
  0
VERTEX
  8
Unknown_Area_Type
  10
349076.000
  20
4649061.000
  0
VERTEX
  8
Unknown_Area_Type
  10
349029.500
  20
4649060.500
  0
VERTEX
  8
Unknown_Area_Type
  10
346387.348
  20
4649032.183
  0
SEQEND
  8
Unknown_Area_Type
  0
INSERT
  8
FeatureAttribs
  2
FEATURE
  41
1
  42
1
  43
1
  50
0
  10
368402.905
  20
4646701.902
 66
1
  0
ATTRIB
  8
FeatureAttribs
 70
0
  1
PNOA-H_AMS_1956-57_33k_ES_PAN_2
  2
NAME
  10
368402.905
  20
4646701.902
 40
33.87181
  0
SEQEND
  0
POLYLINE
  8
Unknown_Area_Type
  70
1
  66
1
  0
VERTEX
  8
Unknown_Area_Type
  10
368274.000
  20
4648716.500
  0
VERTEX
  8
Unknown_Area_Type
  10
369805.500
  20
4648645.000
  0
VERTEX
  8
Unknown_Area_Type
  10
369909.000
  20
4644841.500
  0
VERTEX
  8
Unknown_Area_Type
  10
368026.000
  20
4644490.000
  0
VERTEX
  8
Unknown_Area_Type
  10
367007.000
  20
4645017.000
  0
VERTEX
  8
Unknown_Area_Type
  10
366900.000
  20
4648663.500
  0
VERTEX
  8
Unknown_Area_Type
  10
367068.000
  20
4648773.000
  0
VERTEX
  8
Unknown_Area_Type
  10
368270.500
  20
4648716.500
  0
VERTEX
  8
Unknown_Area_Type
  10
368274.000
  20
4648716.500
  0
SEQEND
  8
Unknown_Area_Type
  0
INSERT
  8
FeatureAttribs
  2
FEATURE
  41
1
  42
1
  43
1
  50
0
  10
368402.905
  20
4646701.902
 66
1
  0
ATTRIB
  8
FeatureAttribs
 70
0
  1
PNOA-H_AMS_1956-57_33k_ES_PAN_2
  2
NAME
  10
368402.905
  20
4646701.902
 40
33.87181
  0
SEQEND
  0
POLYLINE
  8
Unknown_Area_Type
  70
1
  66
1
  0
VERTEX
  8
Unknown_Area_Type
  10
368274.000
  20
4648716.500
  0
VERTEX
  8
Unknown_Area_Type
  10
368270.500
  20
4648716.500
  0
VERTEX
  8
Unknown_Area_Type
  10
367068.000
  20
4648773.000
  0
VERTEX
  8
Unknown_Area_Type
  10
366900.000
  20
4648663.500
  0
VERTEX
  8
Unknown_Area_Type
  10
367007.000
  20
4645017.000
  0
VERTEX
  8
Unknown_Area_Type
  10
368026.000
  20
4644490.000
  0
VERTEX
  8
Unknown_Area_Type
  10
369909.000
  20
4644841.500
  0
VERTEX
  8
Unknown_Area_Type
  10
369805.500
  20
4648645.000
  0
VERTEX
  8
Unknown_Area_Type
  10
368274.000
  20
4648716.500
  0
SEQEND
  8
Unknown_Area_Type
  0
INSERT
  8
FeatureAttribs
  2
FEATURE
  41
1
  42
1
  43
1
  50
0
  10
359727.571
  20
4646812.268
 66
1
  0
ATTRIB
  8
FeatureAttribs
 70
0
  1
PNOA-H_AMS_1956-57_33k_ES_PAN_2
  2
NAME
  10
359727.571
  20
4646812.268
 40
33.87181
  0
SEQEND
  0
POLYLINE
  8
Unknown_Area_Type
  70
1
  66
1
  0
VERTEX
  8
Unknown_Area_Type
  10
361070.500
  20
4648766.000
  0
VERTEX
  8
Unknown_Area_Type
  10
361081.000
  20
4648766.000
  0
VERTEX
  8
Unknown_Area_Type
  10
361083.500
  20
4648764.500
  0
VERTEX
  8
Unknown_Area_Type
  10
361134.500
  20
4648732.000
  0
VERTEX
  8
Unknown_Area_Type
  10
361136.000
  20
4648726.500
  0
VERTEX
  8
Unknown_Area_Type
  10
361181.000
  20
4645191.000
  0
VERTEX
  8
Unknown_Area_Type
  10
359847.500
  20
4644559.000
  0
VERTEX
  8
Unknown_Area_Type
  10
359839.500
  20
4644561.500
  0
VERTEX
  8
Unknown_Area_Type
  10
358296.500
  20
4645233.000
  0
VERTEX
  8
Unknown_Area_Type
  10
358260.000
  20
4648733.500
  0
VERTEX
  8
Unknown_Area_Type
  10
361027.000
  20
4648765.500
  0
VERTEX
  8
Unknown_Area_Type
  10
361070.500
  20
4648766.000
  0
SEQEND
  8
Unknown_Area_Type
  0
INSERT
  8
FeatureAttribs
  2
FEATURE
  41
1
  42
1
  43
1
  50
0
  10
359727.571
  20
4646812.268
 66
1
  0
ATTRIB
  8
FeatureAttribs
 70
0
  1
PNOA-H_AMS_1956-57_33k_ES_PAN_2
  2
NAME
  10
359727.571
  20
4646812.268
 40
33.87181
  0
SEQEND
  0
POLYLINE
  8
Unknown_Area_Type
  70
1
  66
1
  0
VERTEX
  8
Unknown_Area_Type
  10
361070.500
  20
4648766.000
  0
VERTEX
  8
Unknown_Area_Type
  10
361027.000
  20
4648765.500
  0
VERTEX
  8
Unknown_Area_Type
  10
358260.000
  20
4648733.500
  0
VERTEX
  8
Unknown_Area_Type
  10
358296.500
  20
4645233.000
  0
VERTEX
  8
Unknown_Area_Type
  10
359839.500
  20
4644561.500
  0
VERTEX
  8
Unknown_Area_Type
  10
359847.500
  20
4644559.000
  0
VERTEX
  8
Unknown_Area_Type
  10
361181.000
  20
4645191.000
  0
VERTEX
  8
Unknown_Area_Type
  10
361136.000
  20
4648726.500
  0
VERTEX
  8
Unknown_Area_Type
  10
361134.500
  20
4648732.000
  0
VERTEX
  8
Unknown_Area_Type
  10
361083.500
  20
4648764.500
  0
VERTEX
  8
Unknown_Area_Type
  10
361081.000
  20
4648766.000
  0
VERTEX
  8
Unknown_Area_Type
  10
361070.500
  20
4648766.000
  0
SEQEND
  8
Unknown_Area_Type
  0
INSERT
  8
FeatureAttribs
  2
FEATURE
  41
1
  42
1
  43
1
  50
0
  10
353831.442
  20
4646955.387
 66
1
  0
ATTRIB
  8
FeatureAttribs
 70
0
  1
PNOA-H_AMS_1956-57_33k_ES_PAN_2
  2
NAME
  10
353831.442
  20
4646955.387
 40
33.87181
  0
SEQEND
  0
POLYLINE
  8
Unknown_Area_Type
  70
1
  66
1
  0
VERTEX
  8
Unknown_Area_Type
  10
355055.500
  20
4648902.000
  0
VERTEX
  8
Unknown_Area_Type
  10
355071.000
  20
4648902.000
  0
VERTEX
  8
Unknown_Area_Type
  10
355316.500
  20
4648760.000
  0
VERTEX
  8
Unknown_Area_Type
  10
355321.500
  20
4645394.500
  0
VERTEX
  8
Unknown_Area_Type
  10
354282.000
  20
4644657.000
  0
VERTEX
  8
Unknown_Area_Type
  10
352264.000
  20
4645532.500
  0
VERTEX
  8
Unknown_Area_Type
  10
352315.500
  20
4648840.000
  0
VERTEX
  8
Unknown_Area_Type
  10
355033.000
  20
4648901.500
  0
VERTEX
  8
Unknown_Area_Type
  10
355055.500
  20
4648902.000
  0
SEQEND
  8
Unknown_Area_Type
  0
INSERT
  8
FeatureAttribs
  2
FEATURE
  41
1
  42
1
  43
1
  50
0
  10
353831.442
  20
4646955.387
 66
1
  0
ATTRIB
  8
FeatureAttribs
 70
0
  1
PNOA-H_AMS_1956-57_33k_ES_PAN_2
  2
NAME
  10
353831.442
  20
4646955.387
 40
33.87181
  0
SEQEND
  0
POLYLINE
  8
Unknown_Area_Type
  70
1
  66
1
  0
VERTEX
  8
Unknown_Area_Type
  10
355055.500
  20
4648902.000
  0
VERTEX
  8
Unknown_Area_Type
  10
355033.000
  20
4648901.500
  0
VERTEX
  8
Unknown_Area_Type
  10
352315.500
  20
4648840.000
  0
VERTEX
  8
Unknown_Area_Type
  10
352264.000
  20
4645532.500
  0
VERTEX
  8
Unknown_Area_Type
  10
354282.000
  20
4644657.000
  0
VERTEX
  8
Unknown_Area_Type
  10
355321.500
  20
4645394.500
  0
VERTEX
  8
Unknown_Area_Type
  10
355316.500
  20
4648760.000
  0
VERTEX
  8
Unknown_Area_Type
  10
355071.000
  20
4648902.000
  0
VERTEX
  8
Unknown_Area_Type
  10
355055.500
  20
4648902.000
  0
SEQEND
  8
Unknown_Area_Type
  0
INSERT
  8
FeatureAttribs
  2
FEATURE
  41
1
  42
1
  43
1
  50
0
  10
356825.041
  20
4646876.035
 66
1
  0
ATTRIB
  8
FeatureAttribs
 70
0
  1
PNOA-H_AMS_1956-57_33k_ES_PAN_2
  2
NAME
  10
356825.041
  20
4646876.035
 40
33.87181
  0
SEQEND
  0
POLYLINE
  8
Unknown_Area_Type
  70
1
  66
1
  0
VERTEX
  8
Unknown_Area_Type
  10
355981.000
  20
4648781.500
  0
VERTEX
  8
Unknown_Area_Type
  10
358065.000
  20
4648848.500
  0
VERTEX
  8
Unknown_Area_Type
  10
358260.000
  20
4648733.500
  0
VERTEX
  8
Unknown_Area_Type
  10
358296.500
  20
4645233.000
  0
VERTEX
  8
Unknown_Area_Type
  10
357164.500
  20
4644603.000
  0
VERTEX
  8
Unknown_Area_Type
  10
355321.500
  20
4645394.500
  0
VERTEX
  8
Unknown_Area_Type
  10
355316.500
  20
4648759.500
  0
VERTEX
  8
Unknown_Area_Type
  10
355966.000
  20
4648781.000
  0
VERTEX
  8
Unknown_Area_Type
  10
355981.000
  20
4648781.500
  0
SEQEND
  8
Unknown_Area_Type
  0
INSERT
  8
FeatureAttribs
  2
FEATURE
  41
1
  42
1
  43
1
  50
0
  10
356825.041
  20
4646876.035
 66
1
  0
ATTRIB
  8
FeatureAttribs
 70
0
  1
PNOA-H_AMS_1956-57_33k_ES_PAN_2
  2
NAME
  10
356825.041
  20
4646876.035
 40
33.87181
  0
SEQEND
  0
POLYLINE
  8
Unknown_Area_Type
  70
1
  66
1
  0
VERTEX
  8
Unknown_Area_Type
  10
355981.000
  20
4648781.500
  0
VERTEX
  8
Unknown_Area_Type
  10
355966.000
  20
4648781.000
  0
VERTEX
  8
Unknown_Area_Type
  10
355316.500
  20
4648759.500
  0
VERTEX
  8
Unknown_Area_Type
  10
355321.500
  20
4645394.500
  0
VERTEX
  8
Unknown_Area_Type
  10
357164.500
  20
4644603.000
  0
VERTEX
  8
Unknown_Area_Type
  10
358296.500
  20
4645233.000
  0
VERTEX
  8
Unknown_Area_Type
  10
358260.000
  20
4648733.500
  0
VERTEX
  8
Unknown_Area_Type
  10
358065.000
  20
4648848.500
  0
VERTEX
  8
Unknown_Area_Type
  10
355981.000
  20
4648781.500
  0
SEQEND
  8
Unknown_Area_Type
  0
INSERT
  8
FeatureAttribs
  2
FEATURE
  41
1
  42
1
  43
1
  50
0
  10
350799.014
  20
4647045.727
 66
1
  0
ATTRIB
  8
FeatureAttribs
 70
0
  1
PNOA-H_AMS_1956-57_33k_ES_PAN_2
  2
NAME
  10
350799.014
  20
4647045.727
 40
33.87181
  0
SEQEND
  0
POLYLINE
  8
Unknown_Area_Type
  70
1
  66
1
  0
VERTEX
  8
Unknown_Area_Type
  10
349823.500
  20
4648927.500
  0
VERTEX
  8
Unknown_Area_Type
  10
352077.000
  20
4648978.500
  0
VERTEX
  8
Unknown_Area_Type
  10
352315.500
  20
4648840.000
  0
VERTEX
  8
Unknown_Area_Type
  10
352264.000
  20
4645532.500
  0
VERTEX
  8
Unknown_Area_Type
  10
351298.500
  20
4644762.500
  0
VERTEX
  8
Unknown_Area_Type
  10
351255.500
  20
4644779.500
  0
VERTEX
  8
Unknown_Area_Type
  10
349184.500
  20
4645642.000
  0
VERTEX
  8
Unknown_Area_Type
  10
349331.000
  20
4648916.000
  0
VERTEX
  8
Unknown_Area_Type
  10
349801.000
  20
4648927.000
  0
VERTEX
  8
Unknown_Area_Type
  10
349823.500
  20
4648927.500
  0
SEQEND
  8
Unknown_Area_Type
  0
INSERT
  8
FeatureAttribs
  2
FEATURE
  41
1
  42
1
  43
1
  50
0
  10
350799.014
  20
4647045.727
 66
1
  0
ATTRIB
  8
FeatureAttribs
 70
0
  1
PNOA-H_AMS_1956-57_33k_ES_PAN_2
  2
NAME
  10
350799.014
  20
4647045.727
 40
33.87181
  0
SEQEND
  0
POLYLINE
  8
Unknown_Area_Type
  70
1
  66
1
  0
VERTEX
  8
Unknown_Area_Type
  10
349823.500
  20
4648927.500
  0
VERTEX
  8
Unknown_Area_Type
  10
349801.000
  20
4648927.000
  0
VERTEX
  8
Unknown_Area_Type
  10
349331.000
  20
4648916.000
  0
VERTEX
  8
Unknown_Area_Type
  10
349184.500
  20
4645642.000
  0
VERTEX
  8
Unknown_Area_Type
  10
351255.500
  20
4644779.500
  0
VERTEX
  8
Unknown_Area_Type
  10
351298.500
  20
4644762.500
  0
VERTEX
  8
Unknown_Area_Type
  10
352264.000
  20
4645532.500
  0
VERTEX
  8
Unknown_Area_Type
  10
352315.500
  20
4648840.000
  0
VERTEX
  8
Unknown_Area_Type
  10
352077.000
  20
4648978.500
  0
VERTEX
  8
Unknown_Area_Type
  10
349823.500
  20
4648927.500
  0
SEQEND
  8
Unknown_Area_Type
  0
INSERT
  8
FeatureAttribs
  2
FEATURE
  41
1
  42
1
  43
1
  50
0
  10
371278.009
  20
4646669.546
 66
1
  0
ATTRIB
  8
FeatureAttribs
 70
0
  1
PNOA-H_AMS_1956-57_33k_ES_PAN_2
  2
NAME
  10
371278.009
  20
4646669.546
 40
33.87181
  0
SEQEND
  0
POLYLINE
  8
Unknown_Area_Type
  70
1
  66
1
  0
VERTEX
  8
Unknown_Area_Type
  10
370097.500
  20
4648828.500
  0
VERTEX
  8
Unknown_Area_Type
  10
370098.000
  20
4648829.500
  0
VERTEX
  8
Unknown_Area_Type
  10
372682.500
  20
4648609.000
  0
VERTEX
  8
Unknown_Area_Type
  10
372763.000
  20
4644700.000
  0
VERTEX
  8
Unknown_Area_Type
  10
370553.000
  20
4644492.500
  0
VERTEX
  8
Unknown_Area_Type
  10
369909.000
  20
4644841.500
  0
VERTEX
  8
Unknown_Area_Type
  10
369805.500
  20
4648645.000
  0
VERTEX
  8
Unknown_Area_Type
  10
370097.500
  20
4648828.500
  0
SEQEND
  8
Unknown_Area_Type
  0
INSERT
  8
FeatureAttribs
  2
FEATURE
  41
1
  42
1
  43
1
  50
0
  10
371278.009
  20
4646669.546
 66
1
  0
ATTRIB
  8
FeatureAttribs
 70
0
  1
PNOA-H_AMS_1956-57_33k_ES_PAN_2
  2
NAME
  10
371278.009
  20
4646669.546
 40
33.87181
  0
SEQEND
  0
POLYLINE
  8
Unknown_Area_Type
  70
1
  66
1
  0
VERTEX
  8
Unknown_Area_Type
  10
370097.500
  20
4648828.500
  0
VERTEX
  8
Unknown_Area_Type
  10
369805.500
  20
4648645.000
  0
VERTEX
  8
Unknown_Area_Type
  10
369909.000
  20
4644841.500
  0
VERTEX
  8
Unknown_Area_Type
  10
370553.000
  20
4644492.500
  0
VERTEX
  8
Unknown_Area_Type
  10
372763.000
  20
4644700.000
  0
VERTEX
  8
Unknown_Area_Type
  10
372682.500
  20
4648609.000
  0
VERTEX
  8
Unknown_Area_Type
  10
370098.000
  20
4648829.500
  0
VERTEX
  8
Unknown_Area_Type
  10
370097.500
  20
4648828.500
  0
SEQEND
  8
Unknown_Area_Type
  0
INSERT
  8
FeatureAttribs
  2
FEATURE
  41
1
  42
1
  43
1
  50
0
  10
365495.114
  20
4646743.167
 66
1
  0
ATTRIB
  8
FeatureAttribs
 70
0
  1
PNOA-H_AMS_1956-57_33k_ES_PAN_2
  2
NAME
  10
365495.114
  20
4646743.167
 40
33.87181
  0
SEQEND
  0
POLYLINE
  8
Unknown_Area_Type
  70
1
  66
1
  0
VERTEX
  8
Unknown_Area_Type
  10
364081.500
  20
4648735.500
  0
VERTEX
  8
Unknown_Area_Type
  10
366900.000
  20
4648663.500
  0
VERTEX
  8
Unknown_Area_Type
  10
367006.500
  20
4645017.000
  0
VERTEX
  8
Unknown_Area_Type
  10
365360.500
  20
4644512.000
  0
VERTEX
  8
Unknown_Area_Type
  10
364083.500
  20
4645150.000
  0
VERTEX
  8
Unknown_Area_Type
  10
363979.000
  20
4648655.500
  0
VERTEX
  8
Unknown_Area_Type
  10
363979.000
  20
4648672.500
  0
VERTEX
  8
Unknown_Area_Type
  10
364080.500
  20
4648735.000
  0
VERTEX
  8
Unknown_Area_Type
  10
364081.500
  20
4648735.500
  0
SEQEND
  8
Unknown_Area_Type
  0
INSERT
  8
FeatureAttribs
  2
FEATURE
  41
1
  42
1
  43
1
  50
0
  10
365495.114
  20
4646743.167
 66
1
  0
ATTRIB
  8
FeatureAttribs
 70
0
  1
PNOA-H_AMS_1956-57_33k_ES_PAN_2
  2
NAME
  10
365495.114
  20
4646743.167
 40
33.87181
  0
SEQEND
  0
POLYLINE
  8
Unknown_Area_Type
  70
1
  66
1
  0
VERTEX
  8
Unknown_Area_Type
  10
364081.500
  20
4648735.500
  0
VERTEX
  8
Unknown_Area_Type
  10
364080.500
  20
4648735.000
  0
VERTEX
  8
Unknown_Area_Type
  10
363979.000
  20
4648672.500
  0
VERTEX
  8
Unknown_Area_Type
  10
363979.000
  20
4648655.500
  0
VERTEX
  8
Unknown_Area_Type
  10
364083.500
  20
4645150.000
  0
VERTEX
  8
Unknown_Area_Type
  10
365360.500
  20
4644512.000
  0
VERTEX
  8
Unknown_Area_Type
  10
367006.500
  20
4645017.000
  0
VERTEX
  8
Unknown_Area_Type
  10
366900.000
  20
4648663.500
  0
VERTEX
  8
Unknown_Area_Type
  10
364081.500
  20
4648735.500
  0
SEQEND
  8
Unknown_Area_Type
  0
INSERT
  8
FeatureAttribs
  2
FEATURE
  41
1
  42
1
  43
1
  50
0
  10
374008.596
  20
4646610.303
 66
1
  0
ATTRIB
  8
FeatureAttribs
 70
0
  1
PNOA-H_AMS_1956-57_33k_ES_PAN_2
  2
NAME
  10
374008.596
  20
4646610.303
 40
33.87181
  0
SEQEND
  0
POLYLINE
  8
Unknown_Area_Type
  70
1
  66
1
  0
VERTEX
  8
Unknown_Area_Type
  10
374046.654
  20
4644461.306
  0
VERTEX
  8
Unknown_Area_Type
  10
373932.341
  20
4644458.128
  0
VERTEX
  8
Unknown_Area_Type
  10
373964.471
  20
4646268.539
  0
VERTEX
  8
Unknown_Area_Type
  10
374005.540
  20
4648581.715
  0
VERTEX
  8
Unknown_Area_Type
  10
374008.751
  20
4648762.478
  0
VERTEX
  8
Unknown_Area_Type
  10
374046.654
  20
4648757.914
  0
VERTEX
  8
Unknown_Area_Type
  10
374046.654
  20
4644461.306
  0
SEQEND
  8
Unknown_Area_Type
  0
INSERT
  8
FeatureAttribs
  2
FEATURE
  41
1
  42
1
  43
1
  50
0
  10
373353.209
  20
4646689.512
 66
1
  0
ATTRIB
  8
FeatureAttribs
 70
0
  1
PNOA-H_AMS_1956-57_33k_ES_PAN_2
  2
NAME
  10
373353.209
  20
4646689.512
 40
33.87181
  0
SEQEND
  0
POLYLINE
  8
Unknown_Area_Type
  70
1
  66
1
  0
VERTEX
  8
Unknown_Area_Type
  10
373932.341
  20
4644458.128
  0
VERTEX
  8
Unknown_Area_Type
  10
373208.500
  20
4644438.000
  0
VERTEX
  8
Unknown_Area_Type
  10
373203.500
  20
4644438.000
  0
VERTEX
  8
Unknown_Area_Type
  10
373200.500
  20
4644439.500
  0
VERTEX
  8
Unknown_Area_Type
  10
372777.000
  20
4644691.000
  0
VERTEX
  8
Unknown_Area_Type
  10
372763.000
  20
4644699.500
  0
VERTEX
  8
Unknown_Area_Type
  10
372762.500
  20
4644701.500
  0
VERTEX
  8
Unknown_Area_Type
  10
372682.500
  20
4648609.000
  0
VERTEX
  8
Unknown_Area_Type
  10
373107.500
  20
4648871.000
  0
VERTEX
  8
Unknown_Area_Type
  10
374008.751
  20
4648762.478
  0
VERTEX
  8
Unknown_Area_Type
  10
374005.540
  20
4648581.715
  0
VERTEX
  8
Unknown_Area_Type
  10
373964.471
  20
4646268.539
  0
VERTEX
  8
Unknown_Area_Type
  10
373932.341
  20
4644458.128
  0
SEQEND
  8
Unknown_Area_Type
  0
INSERT
  8
FeatureAttribs
  2
FEATURE
  41
1
  42
1
  43
1
  50
0
  10
373353.209
  20
4646689.512
 66
1
  0
ATTRIB
  8
FeatureAttribs
 70
0
  1
PNOA-H_AMS_1956-57_33k_ES_PAN_2
  2
NAME
  10
373353.209
  20
4646689.512
 40
33.87181
  0
SEQEND
  0
POLYLINE
  8
Unknown_Area_Type
  70
1
  66
1
  0
VERTEX
  8
Unknown_Area_Type
  10
373932.341
  20
4644458.128
  0
VERTEX
  8
Unknown_Area_Type
  10
373964.471
  20
4646268.539
  0
VERTEX
  8
Unknown_Area_Type
  10
374005.540
  20
4648581.715
  0
VERTEX
  8
Unknown_Area_Type
  10
374008.751
  20
4648762.478
  0
VERTEX
  8
Unknown_Area_Type
  10
373107.500
  20
4648871.000
  0
VERTEX
  8
Unknown_Area_Type
  10
372682.500
  20
4648609.000
  0
VERTEX
  8
Unknown_Area_Type
  10
372762.500
  20
4644701.500
  0
VERTEX
  8
Unknown_Area_Type
  10
372763.000
  20
4644699.500
  0
VERTEX
  8
Unknown_Area_Type
  10
372777.000
  20
4644691.000
  0
VERTEX
  8
Unknown_Area_Type
  10
373200.500
  20
4644439.500
  0
VERTEX
  8
Unknown_Area_Type
  10
373203.500
  20
4644438.000
  0
VERTEX
  8
Unknown_Area_Type
  10
373208.500
  20
4644438.000
  0
VERTEX
  8
Unknown_Area_Type
  10
373932.341
  20
4644458.128
  0
SEQEND
  8
Unknown_Area_Type
  0
INSERT
  8
FeatureAttribs
  2
FEATURE
  41
1
  42
1
  43
1
  50
0
  10
346058.323
  20
4634699.998
 66
1
  0
ATTRIB
  8
FeatureAttribs
 70
0
  1
PNOA-H_AMS_1956-57_33k_ES_PAN_2
  2
NAME
  10
346058.323
  20
4634699.998
 40
33.87181
  0
SEQEND
  0
POLYLINE
  8
Unknown_Area_Type
  70
1
  66
1
  0
VERTEX
  8
Unknown_Area_Type
  10
346114.924
  20
4636436.546
  0
VERTEX
  8
Unknown_Area_Type
  10
346089.217
  20
4635246.703
  0
VERTEX
  8
Unknown_Area_Type
  10
346039.262
  20
4632933.530
  0
VERTEX
  8
Unknown_Area_Type
  10
346039.234
  20
4632933.531
  0
VERTEX
  8
Unknown_Area_Type
  10
346039.234
  20
4636466.466
  0
VERTEX
  8
Unknown_Area_Type
  10
346114.924
  20
4636436.546
  0
SEQEND
  8
Unknown_Area_Type
  0
INSERT
  8
FeatureAttribs
  2
FEATURE
  41
1
  42
1
  43
1
  50
0
  10
346039.248
  20
4632933.206
 66
1
  0
ATTRIB
  8
FeatureAttribs
 70
0
  1
PNOA-H_AMS_1956-57_33k_ES_PAN_2
  2
NAME
  10
346039.248
  20
4632933.206
 40
33.87181
  0
SEQEND
  0
POLYLINE
  8
Unknown_Area_Type
  70
1
  66
1
  0
VERTEX
  8
Unknown_Area_Type
  10
346039.234
  20
4632933.531
  0
VERTEX
  8
Unknown_Area_Type
  10
346039.262
  20
4632933.530
  0
VERTEX
  8
Unknown_Area_Type
  10
346039.234
  20
4632932.233
  0
VERTEX
  8
Unknown_Area_Type
  10
346039.234
  20
4632933.531
  0
SEQEND
  8
Unknown_Area_Type
  0
INSERT
  8
FeatureAttribs
  2
FEATURE
  41
1
  42
1
  43
1
  50
0
  10
346369.635
  20
4632661.579
 66
1
  0
ATTRIB
  8
FeatureAttribs
 70
0
  1
PNOA-H_AMS_1956-57_33k_ES_PAN_2
  2
NAME
  10
346369.635
  20
4632661.579
 40
33.87181
  0
SEQEND
  0
POLYLINE
  8
Unknown_Area_Type
  70
1
  66
1
  0
VERTEX
  8
Unknown_Area_Type
  10
346694.507
  20
4632389.628
  0
VERTEX
  8
Unknown_Area_Type
  10
346039.234
  20
4632389.628
  0
VERTEX
  8
Unknown_Area_Type
  10
346039.234
  20
4632932.233
  0
VERTEX
  8
Unknown_Area_Type
  10
346039.262
  20
4632933.530
  0
VERTEX
  8
Unknown_Area_Type
  10
346705.275
  20
4632919.311
  0
VERTEX
  8
Unknown_Area_Type
  10
346694.507
  20
4632389.628
  0
SEQEND
  8
Unknown_Area_Type
  0
INSERT
  8
FeatureAttribs
  2
FEATURE
  41
1
  42
1
  43
1
  50
0
  10
346403.686
  20
4634615.611
 66
1
  0
ATTRIB
  8
FeatureAttribs
 70
0
  1
PNOA-H_AMS_1956-57_33k_ES_PAN_2
  2
NAME
  10
346403.686
  20
4634615.611
 40
33.87181
  0
SEQEND
  0
POLYLINE
  8
Unknown_Area_Type
  70
1
  66
1
  0
VERTEX
  8
Unknown_Area_Type
  10
346705.275
  20
4632919.311
  0
VERTEX
  8
Unknown_Area_Type
  10
346039.262
  20
4632933.530
  0
VERTEX
  8
Unknown_Area_Type
  10
346089.217
  20
4635246.703
  0
VERTEX
  8
Unknown_Area_Type
  10
346114.924
  20
4636436.546
  0
VERTEX
  8
Unknown_Area_Type
  10
346771.500
  20
4636177.000
  0
VERTEX
  8
Unknown_Area_Type
  10
346705.275
  20
4632919.311
  0
SEQEND
  8
Unknown_Area_Type
  0
INSERT
  8
FeatureAttribs
  2
FEATURE
  41
1
  42
1
  43
1
  50
0
  10
346403.686
  20
4634615.611
 66
1
  0
ATTRIB
  8
FeatureAttribs
 70
0
  1
PNOA-H_AMS_1956-57_33k_ES_PAN_2
  2
NAME
  10
346403.686
  20
4634615.611
 40
33.87181
  0
SEQEND
  0
POLYLINE
  8
Unknown_Area_Type
  70
1
  66
1
  0
VERTEX
  8
Unknown_Area_Type
  10
346705.275
  20
4632919.311
  0
VERTEX
  8
Unknown_Area_Type
  10
346771.500
  20
4636177.000
  0
VERTEX
  8
Unknown_Area_Type
  10
346114.924
  20
4636436.546
  0
VERTEX
  8
Unknown_Area_Type
  10
346089.217
  20
4635246.703
  0
VERTEX
  8
Unknown_Area_Type
  10
346039.262
  20
4632933.530
  0
VERTEX
  8
Unknown_Area_Type
  10
346705.275
  20
4632919.311
  0
SEQEND
  8
Unknown_Area_Type
  0
INSERT
  8
FeatureAttribs
  2
FEATURE
  41
1
  42
1
  43
1
  50
0
  10
371196.160
  20
4632419.819
 66
1
  0
ATTRIB
  8
FeatureAttribs
 70
0
  1
PNOA-H_AMS_1956-57_33k_ES_PAN_2
  2
NAME
  10
371196.160
  20
4632419.819
 40
33.87181
  0
SEQEND
  0
POLYLINE
  8
Unknown_Area_Type
  70
1
  66
1
  0
VERTEX
  8
Unknown_Area_Type
  10
372975.053
  20
4632402.991
  0
VERTEX
  8
Unknown_Area_Type
  10
372974.389
  20
4632389.628
  0
VERTEX
  8
Unknown_Area_Type
  10
370353.872
  20
4632389.628
  0
VERTEX
  8
Unknown_Area_Type
  10
370355.650
  20
4632450.010
  0
VERTEX
  8
Unknown_Area_Type
  10
372975.053
  20
4632402.991
  0
SEQEND
  8
Unknown_Area_Type
  0
INSERT
  8
FeatureAttribs
  2
FEATURE
  41
1
  42
1
  43
1
  50
0
  10
371738.177
  20
4634053.225
 66
1
  0
ATTRIB
  8
FeatureAttribs
 70
0
  1
PNOA-H_AMS_1956-57_33k_ES_PAN_2
  2
NAME
  10
371738.177
  20
4634053.225
 40
33.87181
  0
SEQEND
  0
POLYLINE
  8
Unknown_Area_Type
  70
1
  66
1
  0
VERTEX
  8
Unknown_Area_Type
  10
372975.053
  20
4632402.991
  0
VERTEX
  8
Unknown_Area_Type
  10
370355.650
  20
4632450.010
  0
VERTEX
  8
Unknown_Area_Type
  10
370448.500
  20
4635604.000
  0
VERTEX
  8
Unknown_Area_Type
  10
372789.000
  20
4635737.500
  0
VERTEX
  8
Unknown_Area_Type
  10
373130.500
  20
4635533.000
  0
VERTEX
  8
Unknown_Area_Type
  10
372975.053
  20
4632402.991
  0
SEQEND
  8
Unknown_Area_Type
  0
INSERT
  8
FeatureAttribs
  2
FEATURE
  41
1
  42
1
  43
1
  50
0
  10
371738.177
  20
4634053.225
 66
1
  0
ATTRIB
  8
FeatureAttribs
 70
0
  1
PNOA-H_AMS_1956-57_33k_ES_PAN_2
  2
NAME
  10
371738.177
  20
4634053.225
 40
33.87181
  0
SEQEND
  0
POLYLINE
  8
Unknown_Area_Type
  70
1
  66
1
  0
VERTEX
  8
Unknown_Area_Type
  10
372975.053
  20
4632402.991
  0
VERTEX
  8
Unknown_Area_Type
  10
373130.500
  20
4635533.000
  0
VERTEX
  8
Unknown_Area_Type
  10
372789.000
  20
4635737.500
  0
VERTEX
  8
Unknown_Area_Type
  10
370448.500
  20
4635604.000
  0
VERTEX
  8
Unknown_Area_Type
  10
370355.650
  20
4632450.010
  0
VERTEX
  8
Unknown_Area_Type
  10
372975.053
  20
4632402.991
  0
SEQEND
  8
Unknown_Area_Type
  0
INSERT
  8
FeatureAttribs
  2
FEATURE
  41
1
  42
1
  43
1
  50
0
  10
363662.610
  20
4632495.037
 66
1
  0
ATTRIB
  8
FeatureAttribs
 70
0
  1
PNOA-H_AMS_1956-57_33k_ES_PAN_2
  2
NAME
  10
363662.610
  20
4632495.037
 40
33.87181
  0
SEQEND
  0
POLYLINE
  8
Unknown_Area_Type
  70
1
  66
1
  0
VERTEX
  8
Unknown_Area_Type
  10
364988.519
  20
4632389.628
  0
VERTEX
  8
Unknown_Area_Type
  10
362330.635
  20
4632389.628
  0
VERTEX
  8
Unknown_Area_Type
  10
362337.033
  20
4632600.446
  0
VERTEX
  8
Unknown_Area_Type
  10
363338.789
  20
4632581.005
  0
VERTEX
  8
Unknown_Area_Type
  10
364992.874
  20
4632549.708
  0
VERTEX
  8
Unknown_Area_Type
  10
364988.519
  20
4632389.628
  0
SEQEND
  8
Unknown_Area_Type
  0
INSERT
  8
FeatureAttribs
  2
FEATURE
  41
1
  42
1
  43
1
  50
0
  10
363720.471
  20
4634238.032
 66
1
  0
ATTRIB
  8
FeatureAttribs
 70
0
  1
PNOA-H_AMS_1956-57_33k_ES_PAN_2
  2
NAME
  10
363720.471
  20
4634238.032
 40
33.87181
  0
SEQEND
  0
POLYLINE
  8
Unknown_Area_Type
  70
1
  66
1
  0
VERTEX
  8
Unknown_Area_Type
  10
364992.874
  20
4632549.708
  0
VERTEX
  8
Unknown_Area_Type
  10
363338.789
  20
4632581.005
  0
VERTEX
  8
Unknown_Area_Type
  10
362337.033
  20
4632600.446
  0
VERTEX
  8
Unknown_Area_Type
  10
362435.500
  20
4635845.000
  0
VERTEX
  8
Unknown_Area_Type
  10
364166.000
  20
4635939.500
  0
VERTEX
  8
Unknown_Area_Type
  10
364175.500
  20
4635940.000
  0
VERTEX
  8
Unknown_Area_Type
  10
364736.000
  20
4635970.500
  0
VERTEX
  8
Unknown_Area_Type
  10
365080.500
  20
4635770.500
  0
VERTEX
  8
Unknown_Area_Type
  10
364992.874
  20
4632549.708
  0
SEQEND
  8
Unknown_Area_Type
  0
INSERT
  8
FeatureAttribs
  2
FEATURE
  41
1
  42
1
  43
1
  50
0
  10
363720.471
  20
4634238.032
 66
1
  0
ATTRIB
  8
FeatureAttribs
 70
0
  1
PNOA-H_AMS_1956-57_33k_ES_PAN_2
  2
NAME
  10
363720.471
  20
4634238.032
 40
33.87181
  0
SEQEND
  0
POLYLINE
  8
Unknown_Area_Type
  70
1
  66
1
  0
VERTEX
  8
Unknown_Area_Type
  10
364992.874
  20
4632549.708
  0
VERTEX
  8
Unknown_Area_Type
  10
365080.500
  20
4635770.500
  0
VERTEX
  8
Unknown_Area_Type
  10
364736.000
  20
4635970.500
  0
VERTEX
  8
Unknown_Area_Type
  10
364175.500
  20
4635940.000
  0
VERTEX
  8
Unknown_Area_Type
  10
364166.000
  20
4635939.500
  0
VERTEX
  8
Unknown_Area_Type
  10
362435.500
  20
4635845.000
  0
VERTEX
  8
Unknown_Area_Type
  10
362337.033
  20
4632600.446
  0
VERTEX
  8
Unknown_Area_Type
  10
363338.789
  20
4632581.005
  0
VERTEX
  8
Unknown_Area_Type
  10
364992.874
  20
4632549.708
  0
SEQEND
  8
Unknown_Area_Type
  0
INSERT
  8
FeatureAttribs
  2
FEATURE
  41
1
  42
1
  43
1
  50
0
  10
366328.194
  20
4632469.669
 66
1
  0
ATTRIB
  8
FeatureAttribs
 70
0
  1
PNOA-H_AMS_1956-57_33k_ES_PAN_2
  2
NAME
  10
366328.194
  20
4632469.669
 40
33.87181
  0
SEQEND
  0
POLYLINE
  8
Unknown_Area_Type
  70
1
  66
1
  0
VERTEX
  8
Unknown_Area_Type
  10
367663.769
  20
4632389.628
  0
VERTEX
  8
Unknown_Area_Type
  10
364988.430
  20
4632389.628
  0
VERTEX
  8
Unknown_Area_Type
  10
364992.771
  20
4632549.709
  0
VERTEX
  8
Unknown_Area_Type
  10
366798.669
  20
4632515.539
  0
VERTEX
  8
Unknown_Area_Type
  10
367666.540
  20
4632499.539
  0
VERTEX
  8
Unknown_Area_Type
  10
367663.769
  20
4632389.628
  0
SEQEND
  8
Unknown_Area_Type
  0
INSERT
  8
FeatureAttribs
  2
FEATURE
  41
1
  42
1
  43
1
  50
0
  10
366379.783
  20
4634171.940
 66
1
  0
ATTRIB
  8
FeatureAttribs
 70
0
  1
PNOA-H_AMS_1956-57_33k_ES_PAN_2
  2
NAME
  10
366379.783
  20
4634171.940
 40
33.87181
  0
SEQEND
  0
POLYLINE
  8
Unknown_Area_Type
  70
1
  66
1
  0
VERTEX
  8
Unknown_Area_Type
  10
367666.540
  20
4632499.539
  0
VERTEX
  8
Unknown_Area_Type
  10
366798.669
  20
4632515.539
  0
VERTEX
  8
Unknown_Area_Type
  10
364992.771
  20
4632549.709
  0
VERTEX
  8
Unknown_Area_Type
  10
365080.000
  20
4635766.500
  0
VERTEX
  8
Unknown_Area_Type
  10
365080.500
  20
4635770.500
  0
VERTEX
  8
Unknown_Area_Type
  10
365083.500
  20
4635771.000
  0
VERTEX
  8
Unknown_Area_Type
  10
367399.500
  20
4635879.000
  0
VERTEX
  8
Unknown_Area_Type
  10
367410.000
  20
4635879.500
  0
VERTEX
  8
Unknown_Area_Type
  10
367416.500
  20
4635879.500
  0
VERTEX
  8
Unknown_Area_Type
  10
367419.500
  20
4635878.000
  0
VERTEX
  8
Unknown_Area_Type
  10
367747.000
  20
4635691.500
  0
VERTEX
  8
Unknown_Area_Type
  10
367666.540
  20
4632499.539
  0
SEQEND
  8
Unknown_Area_Type
  0
INSERT
  8
FeatureAttribs
  2
FEATURE
  41
1
  42
1
  43
1
  50
0
  10
366379.783
  20
4634171.940
 66
1
  0
ATTRIB
  8
FeatureAttribs
 70
0
  1
PNOA-H_AMS_1956-57_33k_ES_PAN_2
  2
NAME
  10
366379.783
  20
4634171.940
 40
33.87181
  0
SEQEND
  0
POLYLINE
  8
Unknown_Area_Type
  70
1
  66
1
  0
VERTEX
  8
Unknown_Area_Type
  10
367666.540
  20
4632499.539
  0
VERTEX
  8
Unknown_Area_Type
  10
367747.000
  20
4635691.500
  0
VERTEX
  8
Unknown_Area_Type
  10
367419.500
  20
4635878.000
  0
VERTEX
  8
Unknown_Area_Type
  10
367416.500
  20
4635879.500
  0
VERTEX
  8
Unknown_Area_Type
  10
367410.000
  20
4635879.500
  0
VERTEX
  8
Unknown_Area_Type
  10
367399.500
  20
4635879.000
  0
VERTEX
  8
Unknown_Area_Type
  10
365083.500
  20
4635771.000
  0
VERTEX
  8
Unknown_Area_Type
  10
365080.500
  20
4635770.500
  0
VERTEX
  8
Unknown_Area_Type
  10
365080.000
  20
4635766.500
  0
VERTEX
  8
Unknown_Area_Type
  10
364992.771
  20
4632549.709
  0
VERTEX
  8
Unknown_Area_Type
  10
366798.669
  20
4632515.539
  0
VERTEX
  8
Unknown_Area_Type
  10
367666.540
  20
4632499.539
  0
SEQEND
  8
Unknown_Area_Type
  0
INSERT
  8
FeatureAttribs
  2
FEATURE
  41
1
  42
1
  43
1
  50
0
  10
358423.852
  20
4632546.385
 66
1
  0
ATTRIB
  8
FeatureAttribs
 70
0
  1
PNOA-H_AMS_1956-57_33k_ES_PAN_2
  2
NAME
  10
358423.852
  20
4632546.385
 40
33.87181
  0
SEQEND
  0
POLYLINE
  8
Unknown_Area_Type
  70
1
  66
1
  0
VERTEX
  8
Unknown_Area_Type
  10
359736.023
  20
4632389.628
  0
VERTEX
  8
Unknown_Area_Type
  10
357106.668
  20
4632389.628
  0
VERTEX
  8
Unknown_Area_Type
  10
357114.426
  20
4632703.142
  0
VERTEX
  8
Unknown_Area_Type
  10
359737.914
  20
4632650.955
  0
VERTEX
  8
Unknown_Area_Type
  10
359736.023
  20
4632389.628
  0
SEQEND
  8
Unknown_Area_Type
  0
INSERT
  8
FeatureAttribs
  2
FEATURE
  41
1
  42
1
  43
1
  50
0
  10
358462.697
  20
4634360.428
 66
1
  0
ATTRIB
  8
FeatureAttribs
 70
0
  1
PNOA-H_AMS_1956-57_33k_ES_PAN_2
  2
NAME
  10
358462.697
  20
4634360.428
 40
33.87181
  0
SEQEND
  0
POLYLINE
  8
Unknown_Area_Type
  70
1
  66
1
  0
VERTEX
  8
Unknown_Area_Type
  10
359737.914
  20
4632650.955
  0
VERTEX
  8
Unknown_Area_Type
  10
357114.426
  20
4632703.142
  0
VERTEX
  8
Unknown_Area_Type
  10
357195.000
  20
4635959.500
  0
VERTEX
  8
Unknown_Area_Type
  10
358026.000
  20
4636039.500
  0
VERTEX
  8
Unknown_Area_Type
  10
358031.000
  20
4636040.000
  0
VERTEX
  8
Unknown_Area_Type
  10
359290.500
  20
4636160.500
  0
VERTEX
  8
Unknown_Area_Type
  10
359761.500
  20
4635910.000
  0
VERTEX
  8
Unknown_Area_Type
  10
359737.914
  20
4632650.955
  0
SEQEND
  8
Unknown_Area_Type
  0
INSERT
  8
FeatureAttribs
  2
FEATURE
  41
1
  42
1
  43
1
  50
0
  10
358462.697
  20
4634360.428
 66
1
  0
ATTRIB
  8
FeatureAttribs
 70
0
  1
PNOA-H_AMS_1956-57_33k_ES_PAN_2
  2
NAME
  10
358462.697
  20
4634360.428
 40
33.87181
  0
SEQEND
  0
POLYLINE
  8
Unknown_Area_Type
  70
1
  66
1
  0
VERTEX
  8
Unknown_Area_Type
  10
359737.914
  20
4632650.955
  0
VERTEX
  8
Unknown_Area_Type
  10
359761.500
  20
4635910.000
  0
VERTEX
  8
Unknown_Area_Type
  10
359290.500
  20
4636160.500
  0
VERTEX
  8
Unknown_Area_Type
  10
358031.000
  20
4636040.000
  0
VERTEX
  8
Unknown_Area_Type
  10
358026.000
  20
4636039.500
  0
VERTEX
  8
Unknown_Area_Type
  10
357195.000
  20
4635959.500
  0
VERTEX
  8
Unknown_Area_Type
  10
357114.426
  20
4632703.142
  0
VERTEX
  8
Unknown_Area_Type
  10
359737.914
  20
4632650.955
  0
SEQEND
  8
Unknown_Area_Type
  0
INSERT
  8
FeatureAttribs
  2
FEATURE
  41
1
  42
1
  43
1
  50
0
  10
355792.834
  20
4632573.019
 66
1
  0
ATTRIB
  8
FeatureAttribs
 70
0
  1
PNOA-H_AMS_1956-57_33k_ES_PAN_2
  2
NAME
  10
355792.834
  20
4632573.019
 40
33.87181
  0
SEQEND
  0
POLYLINE
  8
Unknown_Area_Type
  70
1
  66
1
  0
VERTEX
  8
Unknown_Area_Type
  10
357106.668
  20
4632389.628
  0
VERTEX
  8
Unknown_Area_Type
  10
354465.139
  20
4632389.628
  0
VERTEX
  8
Unknown_Area_Type
  10
354483.786
  20
4632756.411
  0
VERTEX
  8
Unknown_Area_Type
  10
356419.004
  20
4632716.975
  0
VERTEX
  8
Unknown_Area_Type
  10
357114.426
  20
4632703.142
  0
VERTEX
  8
Unknown_Area_Type
  10
357106.668
  20
4632389.628
  0
SEQEND
  8
Unknown_Area_Type
  0
INSERT
  8
FeatureAttribs
  2
FEATURE
  41
1
  42
1
  43
1
  50
0
  10
355870.864
  20
4634429.325
 66
1
  0
ATTRIB
  8
FeatureAttribs
 70
0
  1
PNOA-H_AMS_1956-57_33k_ES_PAN_2
  2
NAME
  10
355870.864
  20
4634429.325
 40
33.87181
  0
SEQEND
  0
POLYLINE
  8
Unknown_Area_Type
  70
1
  66
1
  0
VERTEX
  8
Unknown_Area_Type
  10
357114.426
  20
4632703.142
  0
VERTEX
  8
Unknown_Area_Type
  10
356419.004
  20
4632716.975
  0
VERTEX
  8
Unknown_Area_Type
  10
354483.786
  20
4632756.411
  0
VERTEX
  8
Unknown_Area_Type
  10
354650.500
  20
4636035.500
  0
VERTEX
  8
Unknown_Area_Type
  10
355981.500
  20
4636204.000
  0
VERTEX
  8
Unknown_Area_Type
  10
355985.000
  20
4636204.500
  0
VERTEX
  8
Unknown_Area_Type
  10
356563.500
  20
4636277.000
  0
VERTEX
  8
Unknown_Area_Type
  10
357195.000
  20
4635959.500
  0
VERTEX
  8
Unknown_Area_Type
  10
357114.426
  20
4632703.142
  0
SEQEND
  8
Unknown_Area_Type
  0
INSERT
  8
FeatureAttribs
  2
FEATURE
  41
1
  42
1
  43
1
  50
0
  10
355870.864
  20
4634429.325
 66
1
  0
ATTRIB
  8
FeatureAttribs
 70
0
  1
PNOA-H_AMS_1956-57_33k_ES_PAN_2
  2
NAME
  10
355870.864
  20
4634429.325
 40
33.87181
  0
SEQEND
  0
POLYLINE
  8
Unknown_Area_Type
  70
1
  66
1
  0
VERTEX
  8
Unknown_Area_Type
  10
357114.426
  20
4632703.142
  0
VERTEX
  8
Unknown_Area_Type
  10
357195.000
  20
4635959.500
  0
VERTEX
  8
Unknown_Area_Type
  10
356563.500
  20
4636277.000
  0
VERTEX
  8
Unknown_Area_Type
  10
355985.000
  20
4636204.500
  0
VERTEX
  8
Unknown_Area_Type
  10
355981.500
  20
4636204.000
  0
VERTEX
  8
Unknown_Area_Type
  10
354650.500
  20
4636035.500
  0
VERTEX
  8
Unknown_Area_Type
  10
354483.786
  20
4632756.411
  0
VERTEX
  8
Unknown_Area_Type
  10
356419.004
  20
4632716.975
  0
VERTEX
  8
Unknown_Area_Type
  10
357114.426
  20
4632703.142
  0
SEQEND
  8
Unknown_Area_Type
  0
INSERT
  8
FeatureAttribs
  2
FEATURE
  41
1
  42
1
  43
1
  50
0
  10
353196.399
  20
4632599.395
 66
1
  0
ATTRIB
  8
FeatureAttribs
 70
0
  1
PNOA-H_AMS_1956-57_33k_ES_PAN_2
  2
NAME
  10
353196.399
  20
4632599.395
 40
33.87181
  0
SEQEND
  0
POLYLINE
  8
Unknown_Area_Type
  70
1
  66
1
  0
VERTEX
  8
Unknown_Area_Type
  10
354465.135
  20
4632389.628
  0
VERTEX
  8
Unknown_Area_Type
  10
351914.097
  20
4632389.628
  0
VERTEX
  8
Unknown_Area_Type
  10
351919.902
  20
4632809.161
  0
VERTEX
  8
Unknown_Area_Type
  10
352959.099
  20
4632787.480
  0
VERTEX
  8
Unknown_Area_Type
  10
354483.781
  20
4632756.411
  0
VERTEX
  8
Unknown_Area_Type
  10
354465.135
  20
4632389.628
  0
SEQEND
  8
Unknown_Area_Type
  0
INSERT
  8
FeatureAttribs
  2
FEATURE
  41
1
  42
1
  43
1
  50
0
  10
353266.586
  20
4634531.633
 66
1
  0
ATTRIB
  8
FeatureAttribs
 70
0
  1
PNOA-H_AMS_1956-57_33k_ES_PAN_2
  2
NAME
  10
353266.586
  20
4634531.633
 40
33.87181
  0
SEQEND
  0
POLYLINE
  8
Unknown_Area_Type
  70
1
  66
1
  0
VERTEX
  8
Unknown_Area_Type
  10
354483.781
  20
4632756.411
  0
VERTEX
  8
Unknown_Area_Type
  10
352959.099
  20
4632787.480
  0
VERTEX
  8
Unknown_Area_Type
  10
351919.902
  20
4632809.161
  0
VERTEX
  8
Unknown_Area_Type
  10
351965.500
  20
4636104.500
  0
VERTEX
  8
Unknown_Area_Type
  10
353828.500
  20
4636415.500
  0
VERTEX
  8
Unknown_Area_Type
  10
353831.500
  20
4636416.000
  0
VERTEX
  8
Unknown_Area_Type
  10
353835.000
  20
4636416.000
  0
VERTEX
  8
Unknown_Area_Type
  10
353848.000
  20
4636410.000
  0
VERTEX
  8
Unknown_Area_Type
  10
354650.500
  20
4636036.000
  0
VERTEX
  8
Unknown_Area_Type
  10
354483.781
  20
4632756.411
  0
SEQEND
  8
Unknown_Area_Type
  0
INSERT
  8
FeatureAttribs
  2
FEATURE
  41
1
  42
1
  43
1
  50
0
  10
353266.586
  20
4634531.633
 66
1
  0
ATTRIB
  8
FeatureAttribs
 70
0
  1
PNOA-H_AMS_1956-57_33k_ES_PAN_2
  2
NAME
  10
353266.586
  20
4634531.633
 40
33.87181
  0
SEQEND
  0
POLYLINE
  8
Unknown_Area_Type
  70
1
  66
1
  0
VERTEX
  8
Unknown_Area_Type
  10
354483.781
  20
4632756.411
  0
VERTEX
  8
Unknown_Area_Type
  10
354650.500
  20
4636036.000
  0
VERTEX
  8
Unknown_Area_Type
  10
353848.000
  20
4636410.000
  0
VERTEX
  8
Unknown_Area_Type
  10
353835.000
  20
4636416.000
  0
VERTEX
  8
Unknown_Area_Type
  10
353831.500
  20
4636416.000
  0
VERTEX
  8
Unknown_Area_Type
  10
353828.500
  20
4636415.500
  0
VERTEX
  8
Unknown_Area_Type
  10
351965.500
  20
4636104.500
  0
VERTEX
  8
Unknown_Area_Type
  10
351919.902
  20
4632809.161
  0
VERTEX
  8
Unknown_Area_Type
  10
352959.099
  20
4632787.480
  0
VERTEX
  8
Unknown_Area_Type
  10
354483.781
  20
4632756.411
  0
SEQEND
  8
Unknown_Area_Type
  0
INSERT
  8
FeatureAttribs
  2
FEATURE
  41
1
  42
1
  43
1
  50
0
  10
347991.746
  20
4632654.470
 66
1
  0
ATTRIB
  8
FeatureAttribs
 70
0
  1
PNOA-H_AMS_1956-57_33k_ES_PAN_2
  2
NAME
  10
347991.746
  20
4632654.470
 40
33.87181
  0
SEQEND
  0
POLYLINE
  8
Unknown_Area_Type
  70
1
  66
1
  0
VERTEX
  8
Unknown_Area_Type
  10
349279.016
  20
4632389.628
  0
VERTEX
  8
Unknown_Area_Type
  10
346694.516
  20
4632389.628
  0
VERTEX
  8
Unknown_Area_Type
  10
346705.282
  20
4632919.311
  0
VERTEX
  8
Unknown_Area_Type
  10
349287.217
  20
4632864.190
  0
VERTEX
  8
Unknown_Area_Type
  10
349279.016
  20
4632389.628
  0
SEQEND
  8
Unknown_Area_Type
  0
INSERT
  8
FeatureAttribs
  2
FEATURE
  41
1
  42
1
  43
1
  50
0
  10
348035.354
  20
4634608.421
 66
1
  0
ATTRIB
  8
FeatureAttribs
 70
0
  1
PNOA-H_AMS_1956-57_33k_ES_PAN_2
  2
NAME
  10
348035.354
  20
4634608.421
 40
33.87181
  0
SEQEND
  0
POLYLINE
  8
Unknown_Area_Type
  70
1
  66
1
  0
VERTEX
  8
Unknown_Area_Type
  10
349287.217
  20
4632864.190
  0
VERTEX
  8
Unknown_Area_Type
  10
346705.282
  20
4632919.311
  0
VERTEX
  8
Unknown_Area_Type
  10
346771.500
  20
4636177.000
  0
VERTEX
  8
Unknown_Area_Type
  10
347791.000
  20
4636366.000
  0
VERTEX
  8
Unknown_Area_Type
  10
347793.500
  20
4636366.500
  0
VERTEX
  8
Unknown_Area_Type
  10
348469.000
  20
4636491.500
  0
VERTEX
  8
Unknown_Area_Type
  10
349343.500
  20
4636121.000
  0
VERTEX
  8
Unknown_Area_Type
  10
349287.217
  20
4632864.190
  0
SEQEND
  8
Unknown_Area_Type
  0
INSERT
  8
FeatureAttribs
  2
FEATURE
  41
1
  42
1
  43
1
  50
0
  10
348035.354
  20
4634608.421
 66
1
  0
ATTRIB
  8
FeatureAttribs
 70
0
  1
PNOA-H_AMS_1956-57_33k_ES_PAN_2
  2
NAME
  10
348035.354
  20
4634608.421
 40
33.87181
  0
SEQEND
  0
POLYLINE
  8
Unknown_Area_Type
  70
1
  66
1
  0
VERTEX
  8
Unknown_Area_Type
  10
349287.217
  20
4632864.190
  0
VERTEX
  8
Unknown_Area_Type
  10
349343.500
  20
4636121.000
  0
VERTEX
  8
Unknown_Area_Type
  10
348469.000
  20
4636491.500
  0
VERTEX
  8
Unknown_Area_Type
  10
347793.500
  20
4636366.500
  0
VERTEX
  8
Unknown_Area_Type
  10
347791.000
  20
4636366.000
  0
VERTEX
  8
Unknown_Area_Type
  10
346771.500
  20
4636177.000
  0
VERTEX
  8
Unknown_Area_Type
  10
346705.282
  20
4632919.311
  0
VERTEX
  8
Unknown_Area_Type
  10
349287.217
  20
4632864.190
  0
SEQEND
  8
Unknown_Area_Type
  0
INSERT
  8
FeatureAttribs
  2
FEATURE
  41
1
  42
1
  43
1
  50
0
  10
369010.261
  20
4632444.585
 66
1
  0
ATTRIB
  8
FeatureAttribs
 70
0
  1
PNOA-H_AMS_1956-57_33k_ES_PAN_2
  2
NAME
  10
369010.261
  20
4632444.585
 40
33.87181
  0
SEQEND
  0
POLYLINE
  8
Unknown_Area_Type
  70
1
  66
1
  0
VERTEX
  8
Unknown_Area_Type
  10
370355.650
  20
4632450.010
  0
VERTEX
  8
Unknown_Area_Type
  10
370353.872
  20
4632389.628
  0
VERTEX
  8
Unknown_Area_Type
  10
367663.652
  20
4632389.628
  0
VERTEX
  8
Unknown_Area_Type
  10
367666.410
  20
4632499.542
  0
VERTEX
  8
Unknown_Area_Type
  10
370258.542
  20
4632451.754
  0
VERTEX
  8
Unknown_Area_Type
  10
370355.650
  20
4632450.010
  0
SEQEND
  8
Unknown_Area_Type
  0
INSERT
  8
FeatureAttribs
  2
FEATURE
  41
1
  42
1
  43
1
  50
0
  10
369063.978
  20
4634119.113
 66
1
  0
ATTRIB
  8
FeatureAttribs
 70
0
  1
PNOA-H_AMS_1956-57_33k_ES_PAN_2
  2
NAME
  10
369063.978
  20
4634119.113
 40
33.87181
  0
SEQEND
  0
POLYLINE
  8
Unknown_Area_Type
  70
1
  66
1
  0
VERTEX
  8
Unknown_Area_Type
  10
370355.650
  20
4632450.010
  0
VERTEX
  8
Unknown_Area_Type
  10
370258.542
  20
4632451.754
  0
VERTEX
  8
Unknown_Area_Type
  10
367666.410
  20
4632499.542
  0
VERTEX
  8
Unknown_Area_Type
  10
367746.500
  20
4635691.000
  0
VERTEX
  8
Unknown_Area_Type
  10
368263.000
  20
4635725.500
  0
VERTEX
  8
Unknown_Area_Type
  10
368270.500
  20
4635726.000
  0
VERTEX
  8
Unknown_Area_Type
  10
370041.500
  20
4635841.500
  0
VERTEX
  8
Unknown_Area_Type
  10
370448.500
  20
4635604.000
  0
VERTEX
  8
Unknown_Area_Type
  10
370355.650
  20
4632450.010
  0
SEQEND
  8
Unknown_Area_Type
  0
INSERT
  8
FeatureAttribs
  2
FEATURE
  41
1
  42
1
  43
1
  50
0
  10
369063.978
  20
4634119.113
 66
1
  0
ATTRIB
  8
FeatureAttribs
 70
0
  1
PNOA-H_AMS_1956-57_33k_ES_PAN_2
  2
NAME
  10
369063.978
  20
4634119.113
 40
33.87181
  0
SEQEND
  0
POLYLINE
  8
Unknown_Area_Type
  70
1
  66
1
  0
VERTEX
  8
Unknown_Area_Type
  10
370355.650
  20
4632450.010
  0
VERTEX
  8
Unknown_Area_Type
  10
370448.500
  20
4635604.000
  0
VERTEX
  8
Unknown_Area_Type
  10
370041.500
  20
4635841.500
  0
VERTEX
  8
Unknown_Area_Type
  10
368270.500
  20
4635726.000
  0
VERTEX
  8
Unknown_Area_Type
  10
368263.000
  20
4635725.500
  0
VERTEX
  8
Unknown_Area_Type
  10
367746.500
  20
4635691.000
  0
VERTEX
  8
Unknown_Area_Type
  10
367666.410
  20
4632499.542
  0
VERTEX
  8
Unknown_Area_Type
  10
370258.542
  20
4632451.754
  0
VERTEX
  8
Unknown_Area_Type
  10
370355.650
  20
4632450.010
  0
SEQEND
  8
Unknown_Area_Type
  0
INSERT
  8
FeatureAttribs
  2
FEATURE
  41
1
  42
1
  43
1
  50
0
  10
368773.076
  20
4637917.954
 66
1
  0
ATTRIB
  8
FeatureAttribs
 70
0
  1
PNOA-H_AMS_1956-57_33k_ES_PAN_2
  2
NAME
  10
368773.076
  20
4637917.954
 40
33.87181
  0
SEQEND
  0
POLYLINE
  8
Unknown_Area_Type
  70
1
  66
1
  0
VERTEX
  8
Unknown_Area_Type
  10
367849.500
  20
4640170.000
  0
VERTEX
  8
Unknown_Area_Type
  10
370210.500
  20
4639898.500
  0
VERTEX
  8
Unknown_Area_Type
  10
370040.500
  20
4635841.500
  0
VERTEX
  8
Unknown_Area_Type
  10
367746.000
  20
4635691.500
  0
VERTEX
  8
Unknown_Area_Type
  10
367416.000
  20
4635879.500
  0
VERTEX
  8
Unknown_Area_Type
  10
367491.000
  20
4639976.500
  0
VERTEX
  8
Unknown_Area_Type
  10
367848.500
  20
4640169.500
  0
VERTEX
  8
Unknown_Area_Type
  10
367849.500
  20
4640170.000
  0
SEQEND
  8
Unknown_Area_Type
  0
INSERT
  8
FeatureAttribs
  2
FEATURE
  41
1
  42
1
  43
1
  50
0
  10
368773.076
  20
4637917.954
 66
1
  0
ATTRIB
  8
FeatureAttribs
 70
0
  1
PNOA-H_AMS_1956-57_33k_ES_PAN_2
  2
NAME
  10
368773.076
  20
4637917.954
 40
33.87181
  0
SEQEND
  0
POLYLINE
  8
Unknown_Area_Type
  70
1
  66
1
  0
VERTEX
  8
Unknown_Area_Type
  10
367849.500
  20
4640170.000
  0
VERTEX
  8
Unknown_Area_Type
  10
367848.500
  20
4640169.500
  0
VERTEX
  8
Unknown_Area_Type
  10
367491.000
  20
4639976.500
  0
VERTEX
  8
Unknown_Area_Type
  10
367416.000
  20
4635879.500
  0
VERTEX
  8
Unknown_Area_Type
  10
367746.000
  20
4635691.500
  0
VERTEX
  8
Unknown_Area_Type
  10
370040.500
  20
4635841.500
  0
VERTEX
  8
Unknown_Area_Type
  10
370210.500
  20
4639898.500
  0
VERTEX
  8
Unknown_Area_Type
  10
367849.500
  20
4640170.000
  0
SEQEND
  8
Unknown_Area_Type
  0
INSERT
  8
FeatureAttribs
  2
FEATURE
  41
1
  42
1
  43
1
  50
0
  10
361035.588
  20
4632520.295
 66
1
  0
ATTRIB
  8
FeatureAttribs
 70
0
  1
PNOA-H_AMS_1956-57_33k_ES_PAN_2
  2
NAME
  10
361035.588
  20
4632520.295
 40
33.87181
  0
SEQEND
  0
POLYLINE
  8
Unknown_Area_Type
  70
1
  66
1
  0
VERTEX
  8
Unknown_Area_Type
  10
362330.635
  20
4632389.628
  0
VERTEX
  8
Unknown_Area_Type
  10
359735.616
  20
4632389.628
  0
VERTEX
  8
Unknown_Area_Type
  10
359737.537
  20
4632650.962
  0
VERTEX
  8
Unknown_Area_Type
  10
359878.901
  20
4632648.150
  0
VERTEX
  8
Unknown_Area_Type
  10
362337.033
  20
4632600.446
  0
VERTEX
  8
Unknown_Area_Type
  10
362330.635
  20
4632389.628
  0
SEQEND
  8
Unknown_Area_Type
  0
INSERT
  8
FeatureAttribs
  2
FEATURE
  41
1
  42
1
  43
1
  50
0
  10
361078.541
  20
4634314.650
 66
1
  0
ATTRIB
  8
FeatureAttribs
 70
0
  1
PNOA-H_AMS_1956-57_33k_ES_PAN_2
  2
NAME
  10
361078.541
  20
4634314.650
 40
33.87181
  0
SEQEND
  0
POLYLINE
  8
Unknown_Area_Type
  70
1
  66
1
  0
VERTEX
  8
Unknown_Area_Type
  10
362337.033
  20
4632600.446
  0
VERTEX
  8
Unknown_Area_Type
  10
359878.901
  20
4632648.150
  0
VERTEX
  8
Unknown_Area_Type
  10
359737.537
  20
4632650.962
  0
VERTEX
  8
Unknown_Area_Type
  10
359761.500
  20
4635909.500
  0
VERTEX
  8
Unknown_Area_Type
  10
362033.000
  20
4636073.000
  0
VERTEX
  8
Unknown_Area_Type
  10
362038.000
  20
4636073.000
  0
VERTEX
  8
Unknown_Area_Type
  10
362128.500
  20
4636020.500
  0
VERTEX
  8
Unknown_Area_Type
  10
362130.000
  20
4636020.000
  0
VERTEX
  8
Unknown_Area_Type
  10
362435.500
  20
4635845.000
  0
VERTEX
  8
Unknown_Area_Type
  10
362337.033
  20
4632600.446
  0
SEQEND
  8
Unknown_Area_Type
  0
INSERT
  8
FeatureAttribs
  2
FEATURE
  41
1
  42
1
  43
1
  50
0
  10
361078.541
  20
4634314.650
 66
1
  0
ATTRIB
  8
FeatureAttribs
 70
0
  1
PNOA-H_AMS_1956-57_33k_ES_PAN_2
  2
NAME
  10
361078.541
  20
4634314.650
 40
33.87181
  0
SEQEND
  0
POLYLINE
  8
Unknown_Area_Type
  70
1
  66
1
  0
VERTEX
  8
Unknown_Area_Type
  10
362337.033
  20
4632600.446
  0
VERTEX
  8
Unknown_Area_Type
  10
362435.500
  20
4635845.000
  0
VERTEX
  8
Unknown_Area_Type
  10
362130.000
  20
4636020.000
  0
VERTEX
  8
Unknown_Area_Type
  10
362128.500
  20
4636020.500
  0
VERTEX
  8
Unknown_Area_Type
  10
362038.000
  20
4636073.000
  0
VERTEX
  8
Unknown_Area_Type
  10
362033.000
  20
4636073.000
  0
VERTEX
  8
Unknown_Area_Type
  10
359761.500
  20
4635909.500
  0
VERTEX
  8
Unknown_Area_Type
  10
359737.537
  20
4632650.962
  0
VERTEX
  8
Unknown_Area_Type
  10
359878.901
  20
4632648.150
  0
VERTEX
  8
Unknown_Area_Type
  10
362337.033
  20
4632600.446
  0
SEQEND
  8
Unknown_Area_Type
  0
INSERT
  8
FeatureAttribs
  2
FEATURE
  41
1
  42
1
  43
1
  50
0
  10
366119.262
  20
4637939.609
 66
1
  0
ATTRIB
  8
FeatureAttribs
 70
0
  1
PNOA-H_AMS_1956-57_33k_ES_PAN_2
  2
NAME
  10
366119.262
  20
4637939.609
 40
33.87181
  0
SEQEND
  0
POLYLINE
  8
Unknown_Area_Type
  70
1
  66
1
  0
VERTEX
  8
Unknown_Area_Type
  10
365182.000
  20
4640155.000
  0
VERTEX
  8
Unknown_Area_Type
  10
367491.000
  20
4639976.500
  0
VERTEX
  8
Unknown_Area_Type
  10
367416.000
  20
4635879.500
  0
VERTEX
  8
Unknown_Area_Type
  10
365080.000
  20
4635770.500
  0
VERTEX
  8
Unknown_Area_Type
  10
364736.000
  20
4635970.000
  0
VERTEX
  8
Unknown_Area_Type
  10
364875.500
  20
4639990.000
  0
VERTEX
  8
Unknown_Area_Type
  10
365181.000
  20
4640154.500
  0
VERTEX
  8
Unknown_Area_Type
  10
365182.000
  20
4640155.000
  0
SEQEND
  8
Unknown_Area_Type
  0
INSERT
  8
FeatureAttribs
  2
FEATURE
  41
1
  42
1
  43
1
  50
0
  10
366119.262
  20
4637939.609
 66
1
  0
ATTRIB
  8
FeatureAttribs
 70
0
  1
PNOA-H_AMS_1956-57_33k_ES_PAN_2
  2
NAME
  10
366119.262
  20
4637939.609
 40
33.87181
  0
SEQEND
  0
POLYLINE
  8
Unknown_Area_Type
  70
1
  66
1
  0
VERTEX
  8
Unknown_Area_Type
  10
365182.000
  20
4640155.000
  0
VERTEX
  8
Unknown_Area_Type
  10
365181.000
  20
4640154.500
  0
VERTEX
  8
Unknown_Area_Type
  10
364875.500
  20
4639990.000
  0
VERTEX
  8
Unknown_Area_Type
  10
364736.000
  20
4635970.000
  0
VERTEX
  8
Unknown_Area_Type
  10
365080.000
  20
4635770.500
  0
VERTEX
  8
Unknown_Area_Type
  10
367416.000
  20
4635879.500
  0
VERTEX
  8
Unknown_Area_Type
  10
367491.000
  20
4639976.500
  0
VERTEX
  8
Unknown_Area_Type
  10
365182.000
  20
4640155.000
  0
SEQEND
  8
Unknown_Area_Type
  0
INSERT
  8
FeatureAttribs
  2
FEATURE
  41
1
  42
1
  43
1
  50
0
  10
350600.248
  20
4632626.909
 66
1
  0
ATTRIB
  8
FeatureAttribs
 70
0
  1
PNOA-H_AMS_1956-57_33k_ES_PAN_2
  2
NAME
  10
350600.248
  20
4632626.909
 40
33.87181
  0
SEQEND
  0
POLYLINE
  8
Unknown_Area_Type
  70
1
  66
1
  0
VERTEX
  8
Unknown_Area_Type
  10
351914.097
  20
4632389.628
  0
VERTEX
  8
Unknown_Area_Type
  10
349279.016
  20
4632389.628
  0
VERTEX
  8
Unknown_Area_Type
  10
349287.217
  20
4632864.190
  0
VERTEX
  8
Unknown_Area_Type
  10
349499.185
  20
4632859.665
  0
VERTEX
  8
Unknown_Area_Type
  10
351919.902
  20
4632809.161
  0
VERTEX
  8
Unknown_Area_Type
  10
351914.097
  20
4632389.628
  0
SEQEND
  8
Unknown_Area_Type
  0
INSERT
  8
FeatureAttribs
  2
FEATURE
  41
1
  42
1
  43
1
  50
0
  10
350641.119
  20
4634559.268
 66
1
  0
ATTRIB
  8
FeatureAttribs
 70
0
  1
PNOA-H_AMS_1956-57_33k_ES_PAN_2
  2
NAME
  10
350641.119
  20
4634559.268
 40
33.87181
  0
SEQEND
  0
POLYLINE
  8
Unknown_Area_Type
  70
1
  66
1
  0
VERTEX
  8
Unknown_Area_Type
  10
351919.902
  20
4632809.161
  0
VERTEX
  8
Unknown_Area_Type
  10
349499.185
  20
4632859.665
  0
VERTEX
  8
Unknown_Area_Type
  10
349287.217
  20
4632864.190
  0
VERTEX
  8
Unknown_Area_Type
  10
349343.500
  20
4636121.000
  0
VERTEX
  8
Unknown_Area_Type
  10
351169.000
  20
4636447.500
  0
VERTEX
  8
Unknown_Area_Type
  10
351172.500
  20
4636447.500
  0
VERTEX
  8
Unknown_Area_Type
  10
351179.500
  20
4636444.500
  0
VERTEX
  8
Unknown_Area_Type
  10
351888.000
  20
4636137.500
  0
VERTEX
  8
Unknown_Area_Type
  10
351890.000
  20
4636137.000
  0
VERTEX
  8
Unknown_Area_Type
  10
351965.500
  20
4636104.500
  0
VERTEX
  8
Unknown_Area_Type
  10
351919.902
  20
4632809.161
  0
SEQEND
  8
Unknown_Area_Type
  0
INSERT
  8
FeatureAttribs
  2
FEATURE
  41
1
  42
1
  43
1
  50
0
  10
350641.119
  20
4634559.268
 66
1
  0
ATTRIB
  8
FeatureAttribs
 70
0
  1
PNOA-H_AMS_1956-57_33k_ES_PAN_2
  2
NAME
  10
350641.119
  20
4634559.268
 40
33.87181
  0
SEQEND
  0
POLYLINE
  8
Unknown_Area_Type
  70
1
  66
1
  0
VERTEX
  8
Unknown_Area_Type
  10
351919.902
  20
4632809.161
  0
VERTEX
  8
Unknown_Area_Type
  10
351965.500
  20
4636104.500
  0
VERTEX
  8
Unknown_Area_Type
  10
351890.000
  20
4636137.000
  0
VERTEX
  8
Unknown_Area_Type
  10
351888.000
  20
4636137.500
  0
VERTEX
  8
Unknown_Area_Type
  10
351179.500
  20
4636444.500
  0
VERTEX
  8
Unknown_Area_Type
  10
351172.500
  20
4636447.500
  0
VERTEX
  8
Unknown_Area_Type
  10
351169.000
  20
4636447.500
  0
VERTEX
  8
Unknown_Area_Type
  10
349343.500
  20
4636121.000
  0
VERTEX
  8
Unknown_Area_Type
  10
349287.217
  20
4632864.190
  0
VERTEX
  8
Unknown_Area_Type
  10
349499.185
  20
4632859.665
  0
VERTEX
  8
Unknown_Area_Type
  10
351919.902
  20
4632809.161
  0
SEQEND
  8
Unknown_Area_Type
  0
INSERT
  8
FeatureAttribs
  2
FEATURE
  41
1
  42
1
  43
1
  50
0
  10
358002.654
  20
4638103.293
 66
1
  0
ATTRIB
  8
FeatureAttribs
 70
0
  1
PNOA-H_AMS_1956-57_33k_ES_PAN_2
  2
NAME
  10
358002.654
  20
4638103.293
 40
33.87181
  0
SEQEND
  0
POLYLINE
  8
Unknown_Area_Type
  70
1
  66
1
  0
VERTEX
  8
Unknown_Area_Type
  10
358034.000
  20
4640240.000
  0
VERTEX
  8
Unknown_Area_Type
  10
359458.000
  20
4639993.000
  0
VERTEX
  8
Unknown_Area_Type
  10
359290.500
  20
4636161.500
  0
VERTEX
  8
Unknown_Area_Type
  10
359287.500
  20
4636160.000
  0
VERTEX
  8
Unknown_Area_Type
  10
359267.000
  20
4636158.000
  0
VERTEX
  8
Unknown_Area_Type
  10
357197.000
  20
4635959.500
  0
VERTEX
  8
Unknown_Area_Type
  10
357194.500
  20
4635959.500
  0
VERTEX
  8
Unknown_Area_Type
  10
357149.500
  20
4635982.000
  0
VERTEX
  8
Unknown_Area_Type
  10
356562.500
  20
4636277.000
  0
VERTEX
  8
Unknown_Area_Type
  10
356721.000
  20
4640008.000
  0
VERTEX
  8
Unknown_Area_Type
  10
357894.500
  20
4640263.500
  0
VERTEX
  8
Unknown_Area_Type
  10
357902.000
  20
4640263.000
  0
VERTEX
  8
Unknown_Area_Type
  10
358031.500
  20
4640240.000
  0
VERTEX
  8
Unknown_Area_Type
  10
358034.000
  20
4640240.000
  0
SEQEND
  8
Unknown_Area_Type
  0
INSERT
  8
FeatureAttribs
  2
FEATURE
  41
1
  42
1
  43
1
  50
0
  10
358002.654
  20
4638103.293
 66
1
  0
ATTRIB
  8
FeatureAttribs
 70
0
  1
PNOA-H_AMS_1956-57_33k_ES_PAN_2
  2
NAME
  10
358002.654
  20
4638103.293
 40
33.87181
  0
SEQEND
  0
POLYLINE
  8
Unknown_Area_Type
  70
1
  66
1
  0
VERTEX
  8
Unknown_Area_Type
  10
358034.000
  20
4640240.000
  0
VERTEX
  8
Unknown_Area_Type
  10
358031.500
  20
4640240.000
  0
VERTEX
  8
Unknown_Area_Type
  10
357902.000
  20
4640263.000
  0
VERTEX
  8
Unknown_Area_Type
  10
357894.500
  20
4640263.500
  0
VERTEX
  8
Unknown_Area_Type
  10
356721.000
  20
4640008.000
  0
VERTEX
  8
Unknown_Area_Type
  10
356562.500
  20
4636277.000
  0
VERTEX
  8
Unknown_Area_Type
  10
357149.500
  20
4635982.000
  0
VERTEX
  8
Unknown_Area_Type
  10
357194.500
  20
4635959.500
  0
VERTEX
  8
Unknown_Area_Type
  10
357197.000
  20
4635959.500
  0
VERTEX
  8
Unknown_Area_Type
  10
359267.000
  20
4636158.000
  0
VERTEX
  8
Unknown_Area_Type
  10
359287.500
  20
4636160.000
  0
VERTEX
  8
Unknown_Area_Type
  10
359290.500
  20
4636161.500
  0
VERTEX
  8
Unknown_Area_Type
  10
359458.000
  20
4639993.000
  0
VERTEX
  8
Unknown_Area_Type
  10
358034.000
  20
4640240.000
  0
SEQEND
  8
Unknown_Area_Type
  0
INSERT
  8
FeatureAttribs
  2
FEATURE
  41
1
  42
1
  43
1
  50
0
  10
360722.516
  20
4638057.659
 66
1
  0
ATTRIB
  8
FeatureAttribs
 70
0
  1
PNOA-H_AMS_1956-57_33k_ES_PAN_2
  2
NAME
  10
360722.516
  20
4638057.659
 40
33.87181
  0
SEQEND
  0
POLYLINE
  8
Unknown_Area_Type
  70
1
  66
1
  0
VERTEX
  8
Unknown_Area_Type
  10
362130.000
  20
4639983.000
  0
VERTEX
  8
Unknown_Area_Type
  10
362159.500
  20
4639979.000
  0
VERTEX
  8
Unknown_Area_Type
  10
362159.500
  20
4639971.000
  0
VERTEX
  8
Unknown_Area_Type
  10
362037.000
  20
4636073.000
  0
VERTEX
  8
Unknown_Area_Type
  10
359762.000
  20
4635909.500
  0
VERTEX
  8
Unknown_Area_Type
  10
359290.000
  20
4636160.500
  0
VERTEX
  8
Unknown_Area_Type
  10
359458.000
  20
4639993.000
  0
VERTEX
  8
Unknown_Area_Type
  10
359992.000
  20
4640269.500
  0
VERTEX
  8
Unknown_Area_Type
  10
360002.000
  20
4640274.500
  0
VERTEX
  8
Unknown_Area_Type
  10
360006.500
  20
4640274.500
  0
VERTEX
  8
Unknown_Area_Type
  10
362128.500
  20
4639983.000
  0
VERTEX
  8
Unknown_Area_Type
  10
362130.000
  20
4639983.000
  0
SEQEND
  8
Unknown_Area_Type
  0
INSERT
  8
FeatureAttribs
  2
FEATURE
  41
1
  42
1
  43
1
  50
0
  10
360722.516
  20
4638057.659
 66
1
  0
ATTRIB
  8
FeatureAttribs
 70
0
  1
PNOA-H_AMS_1956-57_33k_ES_PAN_2
  2
NAME
  10
360722.516
  20
4638057.659
 40
33.87181
  0
SEQEND
  0
POLYLINE
  8
Unknown_Area_Type
  70
1
  66
1
  0
VERTEX
  8
Unknown_Area_Type
  10
362130.000
  20
4639983.000
  0
VERTEX
  8
Unknown_Area_Type
  10
362128.500
  20
4639983.000
  0
VERTEX
  8
Unknown_Area_Type
  10
360006.500
  20
4640274.500
  0
VERTEX
  8
Unknown_Area_Type
  10
360002.000
  20
4640274.500
  0
VERTEX
  8
Unknown_Area_Type
  10
359992.000
  20
4640269.500
  0
VERTEX
  8
Unknown_Area_Type
  10
359458.000
  20
4639993.000
  0
VERTEX
  8
Unknown_Area_Type
  10
359290.000
  20
4636160.500
  0
VERTEX
  8
Unknown_Area_Type
  10
359762.000
  20
4635909.500
  0
VERTEX
  8
Unknown_Area_Type
  10
362037.000
  20
4636073.000
  0
VERTEX
  8
Unknown_Area_Type
  10
362159.500
  20
4639971.000
  0
VERTEX
  8
Unknown_Area_Type
  10
362159.500
  20
4639979.000
  0
VERTEX
  8
Unknown_Area_Type
  10
362130.000
  20
4639983.000
  0
SEQEND
  8
Unknown_Area_Type
  0
INSERT
  8
FeatureAttribs
  2
FEATURE
  41
1
  42
1
  43
1
  50
0
  10
363441.587
  20
4638012.841
 66
1
  0
ATTRIB
  8
FeatureAttribs
 70
0
  1
PNOA-H_AMS_1956-57_33k_ES_PAN_2
  2
NAME
  10
363441.587
  20
4638012.841
 40
33.87181
  0
SEQEND
  0
POLYLINE
  8
Unknown_Area_Type
  70
1
  66
1
  0
VERTEX
  8
Unknown_Area_Type
  10
362129.500
  20
4639028.500
  0
VERTEX
  8
Unknown_Area_Type
  10
362159.500
  20
4639979.000
  0
VERTEX
  8
Unknown_Area_Type
  10
362614.000
  20
4640224.000
  0
VERTEX
  8
Unknown_Area_Type
  10
364875.500
  20
4639990.000
  0
VERTEX
  8
Unknown_Area_Type
  10
364735.500
  20
4635970.000
  0
VERTEX
  8
Unknown_Area_Type
  10
362435.000
  20
4635845.000
  0
VERTEX
  8
Unknown_Area_Type
  10
362037.000
  20
4636073.000
  0
VERTEX
  8
Unknown_Area_Type
  10
362129.500
  20
4639013.000
  0
VERTEX
  8
Unknown_Area_Type
  10
362129.500
  20
4639028.500
  0
SEQEND
  8
Unknown_Area_Type
  0
INSERT
  8
FeatureAttribs
  2
FEATURE
  41
1
  42
1
  43
1
  50
0
  10
363441.587
  20
4638012.841
 66
1
  0
ATTRIB
  8
FeatureAttribs
 70
0
  1
PNOA-H_AMS_1956-57_33k_ES_PAN_2
  2
NAME
  10
363441.587
  20
4638012.841
 40
33.87181
  0
SEQEND
  0
POLYLINE
  8
Unknown_Area_Type
  70
1
  66
1
  0
VERTEX
  8
Unknown_Area_Type
  10
362129.500
  20
4639028.500
  0
VERTEX
  8
Unknown_Area_Type
  10
362129.500
  20
4639013.000
  0
VERTEX
  8
Unknown_Area_Type
  10
362037.000
  20
4636073.000
  0
VERTEX
  8
Unknown_Area_Type
  10
362435.000
  20
4635845.000
  0
VERTEX
  8
Unknown_Area_Type
  10
364735.500
  20
4635970.000
  0
VERTEX
  8
Unknown_Area_Type
  10
364875.500
  20
4639990.000
  0
VERTEX
  8
Unknown_Area_Type
  10
362614.000
  20
4640224.000
  0
VERTEX
  8
Unknown_Area_Type
  10
362159.500
  20
4639979.000
  0
VERTEX
  8
Unknown_Area_Type
  10
362129.500
  20
4639028.500
  0
SEQEND
  8
Unknown_Area_Type
  0
INSERT
  8
FeatureAttribs
  2
FEATURE
  41
1
  42
1
  43
1
  50
0
  10
349831.220
  20
4638236.760
 66
1
  0
ATTRIB
  8
FeatureAttribs
 70
0
  1
PNOA-H_AMS_1956-57_33k_ES_PAN_2
  2
NAME
  10
349831.220
  20
4638236.760
 40
33.87181
  0
SEQEND
  0
POLYLINE
  8
Unknown_Area_Type
  70
1
  66
1
  0
VERTEX
  8
Unknown_Area_Type
  10
349842.000
  20
4640225.000
  0
VERTEX
  8
Unknown_Area_Type
  10
351180.000
  20
4640133.500
  0
VERTEX
  8
Unknown_Area_Type
  10
351171.500
  20
4636447.500
  0
VERTEX
  8
Unknown_Area_Type
  10
349345.500
  20
4636121.000
  0
VERTEX
  8
Unknown_Area_Type
  10
349342.500
  20
4636121.000
  0
VERTEX
  8
Unknown_Area_Type
  10
349330.500
  20
4636126.000
  0
VERTEX
  8
Unknown_Area_Type
  10
348469.000
  20
4636491.000
  0
VERTEX
  8
Unknown_Area_Type
  10
348542.000
  20
4640131.000
  0
VERTEX
  8
Unknown_Area_Type
  10
348558.000
  20
4640143.000
  0
VERTEX
  8
Unknown_Area_Type
  10
349212.500
  20
4640267.500
  0
VERTEX
  8
Unknown_Area_Type
  10
349836.500
  20
4640225.000
  0
VERTEX
  8
Unknown_Area_Type
  10
349842.000
  20
4640225.000
  0
SEQEND
  8
Unknown_Area_Type
  0
INSERT
  8
FeatureAttribs
  2
FEATURE
  41
1
  42
1
  43
1
  50
0
  10
349831.220
  20
4638236.760
 66
1
  0
ATTRIB
  8
FeatureAttribs
 70
0
  1
PNOA-H_AMS_1956-57_33k_ES_PAN_2
  2
NAME
  10
349831.220
  20
4638236.760
 40
33.87181
  0
SEQEND
  0
POLYLINE
  8
Unknown_Area_Type
  70
1
  66
1
  0
VERTEX
  8
Unknown_Area_Type
  10
349842.000
  20
4640225.000
  0
VERTEX
  8
Unknown_Area_Type
  10
349836.500
  20
4640225.000
  0
VERTEX
  8
Unknown_Area_Type
  10
349212.500
  20
4640267.500
  0
VERTEX
  8
Unknown_Area_Type
  10
348558.000
  20
4640143.000
  0
VERTEX
  8
Unknown_Area_Type
  10
348542.000
  20
4640131.000
  0
VERTEX
  8
Unknown_Area_Type
  10
348469.000
  20
4636491.000
  0
VERTEX
  8
Unknown_Area_Type
  10
349330.500
  20
4636126.000
  0
VERTEX
  8
Unknown_Area_Type
  10
349342.500
  20
4636121.000
  0
VERTEX
  8
Unknown_Area_Type
  10
349345.500
  20
4636121.000
  0
VERTEX
  8
Unknown_Area_Type
  10
351171.500
  20
4636447.500
  0
VERTEX
  8
Unknown_Area_Type
  10
351180.000
  20
4640133.500
  0
VERTEX
  8
Unknown_Area_Type
  10
349842.000
  20
4640225.000
  0
SEQEND
  8
Unknown_Area_Type
  0
INSERT
  8
FeatureAttribs
  2
FEATURE
  41
1
  42
1
  43
1
  50
0
  10
352523.328
  20
4638266.457
 66
1
  0
ATTRIB
  8
FeatureAttribs
 70
0
  1
PNOA-H_AMS_1956-57_33k_ES_PAN_2
  2
NAME
  10
352523.328
  20
4638266.457
 40
33.87181
  0
SEQEND
  0
POLYLINE
  8
Unknown_Area_Type
  70
1
  66
1
  0
VERTEX
  8
Unknown_Area_Type
  10
351888.000
  20
4640275.500
  0
VERTEX
  8
Unknown_Area_Type
  10
352317.000
  20
4640350.000
  0
VERTEX
  8
Unknown_Area_Type
  10
353885.000
  20
4640131.000
  0
VERTEX
  8
Unknown_Area_Type
  10
353946.000
  20
4640097.000
  0
VERTEX
  8
Unknown_Area_Type
  10
353834.000
  20
4636416.000
  0
VERTEX
  8
Unknown_Area_Type
  10
351964.500
  20
4636104.500
  0
VERTEX
  8
Unknown_Area_Type
  10
351171.500
  20
4636447.500
  0
VERTEX
  8
Unknown_Area_Type
  10
351180.000
  20
4640134.000
  0
VERTEX
  8
Unknown_Area_Type
  10
351215.500
  20
4640158.500
  0
VERTEX
  8
Unknown_Area_Type
  10
351885.500
  20
4640275.000
  0
VERTEX
  8
Unknown_Area_Type
  10
351888.000
  20
4640275.500
  0
SEQEND
  8
Unknown_Area_Type
  0
INSERT
  8
FeatureAttribs
  2
FEATURE
  41
1
  42
1
  43
1
  50
0
  10
352523.328
  20
4638266.457
 66
1
  0
ATTRIB
  8
FeatureAttribs
 70
0
  1
PNOA-H_AMS_1956-57_33k_ES_PAN_2
  2
NAME
  10
352523.328
  20
4638266.457
 40
33.87181
  0
SEQEND
  0
POLYLINE
  8
Unknown_Area_Type
  70
1
  66
1
  0
VERTEX
  8
Unknown_Area_Type
  10
351888.000
  20
4640275.500
  0
VERTEX
  8
Unknown_Area_Type
  10
351885.500
  20
4640275.000
  0
VERTEX
  8
Unknown_Area_Type
  10
351215.500
  20
4640158.500
  0
VERTEX
  8
Unknown_Area_Type
  10
351180.000
  20
4640134.000
  0
VERTEX
  8
Unknown_Area_Type
  10
351171.500
  20
4636447.500
  0
VERTEX
  8
Unknown_Area_Type
  10
351964.500
  20
4636104.500
  0
VERTEX
  8
Unknown_Area_Type
  10
353834.000
  20
4636416.000
  0
VERTEX
  8
Unknown_Area_Type
  10
353946.000
  20
4640097.000
  0
VERTEX
  8
Unknown_Area_Type
  10
353885.000
  20
4640131.000
  0
VERTEX
  8
Unknown_Area_Type
  10
352317.000
  20
4640350.000
  0
VERTEX
  8
Unknown_Area_Type
  10
351888.000
  20
4640275.500
  0
SEQEND
  8
Unknown_Area_Type
  0
INSERT
  8
FeatureAttribs
  2
FEATURE
  41
1
  42
1
  43
1
  50
0
  10
355261.882
  20
4638193.387
 66
1
  0
ATTRIB
  8
FeatureAttribs
 70
0
  1
PNOA-H_AMS_1956-57_33k_ES_PAN_2
  2
NAME
  10
355261.882
  20
4638193.387
 40
33.87181
  0
SEQEND
  0
POLYLINE
  8
Unknown_Area_Type
  70
1
  66
1
  0
VERTEX
  8
Unknown_Area_Type
  10
353937.500
  20
4639828.500
  0
VERTEX
  8
Unknown_Area_Type
  10
353946.000
  20
4640097.000
  0
VERTEX
  8
Unknown_Area_Type
  10
355192.000
  20
4640326.000
  0
VERTEX
  8
Unknown_Area_Type
  10
356579.500
  20
4640079.500
  0
VERTEX
  8
Unknown_Area_Type
  10
356721.000
  20
4640008.000
  0
VERTEX
  8
Unknown_Area_Type
  10
356562.500
  20
4636277.000
  0
VERTEX
  8
Unknown_Area_Type
  10
354652.500
  20
4636035.500
  0
VERTEX
  8
Unknown_Area_Type
  10
354648.000
  20
4636036.500
  0
VERTEX
  8
Unknown_Area_Type
  10
354634.000
  20
4636043.000
  0
VERTEX
  8
Unknown_Area_Type
  10
353834.000
  20
4636416.000
  0
VERTEX
  8
Unknown_Area_Type
  10
353937.500
  20
4639812.000
  0
VERTEX
  8
Unknown_Area_Type
  10
353937.500
  20
4639828.500
  0
SEQEND
  8
Unknown_Area_Type
  0
INSERT
  8
FeatureAttribs
  2
FEATURE
  41
1
  42
1
  43
1
  50
0
  10
355261.882
  20
4638193.387
 66
1
  0
ATTRIB
  8
FeatureAttribs
 70
0
  1
PNOA-H_AMS_1956-57_33k_ES_PAN_2
  2
NAME
  10
355261.882
  20
4638193.387
 40
33.87181
  0
SEQEND
  0
POLYLINE
  8
Unknown_Area_Type
  70
1
  66
1
  0
VERTEX
  8
Unknown_Area_Type
  10
353937.500
  20
4639828.500
  0
VERTEX
  8
Unknown_Area_Type
  10
353937.500
  20
4639812.000
  0
VERTEX
  8
Unknown_Area_Type
  10
353834.000
  20
4636416.000
  0
VERTEX
  8
Unknown_Area_Type
  10
354634.000
  20
4636043.000
  0
VERTEX
  8
Unknown_Area_Type
  10
354648.000
  20
4636036.500
  0
VERTEX
  8
Unknown_Area_Type
  10
354652.500
  20
4636035.500
  0
VERTEX
  8
Unknown_Area_Type
  10
356562.500
  20
4636277.000
  0
VERTEX
  8
Unknown_Area_Type
  10
356721.000
  20
4640008.000
  0
VERTEX
  8
Unknown_Area_Type
  10
356579.500
  20
4640079.500
  0
VERTEX
  8
Unknown_Area_Type
  10
355192.000
  20
4640326.000
  0
VERTEX
  8
Unknown_Area_Type
  10
353946.000
  20
4640097.000
  0
VERTEX
  8
Unknown_Area_Type
  10
353937.500
  20
4639828.500
  0
SEQEND
  8
Unknown_Area_Type
  0
INSERT
  8
FeatureAttribs
  2
FEATURE
  41
1
  42
1
  43
1
  50
0
  10
346097.400
  20
4638317.374
 66
1
  0
ATTRIB
  8
FeatureAttribs
 70
0
  1
PNOA-H_AMS_1956-57_33k_ES_PAN_2
  2
NAME
  10
346097.400
  20
4638317.374
 40
33.87181
  0
SEQEND
  0
POLYLINE
  8
Unknown_Area_Type
  70
1
  66
1
  0
VERTEX
  8
Unknown_Area_Type
  10
346114.917
  20
4636436.242
  0
VERTEX
  8
Unknown_Area_Type
  10
346039.234
  20
4636466.185
  0
VERTEX
  8
Unknown_Area_Type
  10
346039.234
  20
4640161.448
  0
VERTEX
  8
Unknown_Area_Type
  10
346196.225
  20
4640198.506
  0
VERTEX
  8
Unknown_Area_Type
  10
346189.189
  20
4639873.073
  0
VERTEX
  8
Unknown_Area_Type
  10
346139.193
  20
4637559.884
  0
VERTEX
  8
Unknown_Area_Type
  10
346114.917
  20
4636436.242
  0
SEQEND
  8
Unknown_Area_Type
  0
INSERT
  8
FeatureAttribs
  2
FEATURE
  41
1
  42
1
  43
1
  50
0
  10
347316.345
  20
4638245.131
 66
1
  0
ATTRIB
  8
FeatureAttribs
 70
0
  1
PNOA-H_AMS_1956-57_33k_ES_PAN_2
  2
NAME
  10
347316.345
  20
4638245.131
 40
33.87181
  0
SEQEND
  0
POLYLINE
  8
Unknown_Area_Type
  70
1
  66
1
  0
VERTEX
  8
Unknown_Area_Type
  10
346196.225
  20
4640198.506
  0
VERTEX
  8
Unknown_Area_Type
  10
346219.500
  20
4640204.000
  0
VERTEX
  8
Unknown_Area_Type
  10
347793.000
  20
4640154.000
  0
VERTEX
  8
Unknown_Area_Type
  10
347794.000
  20
4640154.000
  0
VERTEX
  8
Unknown_Area_Type
  10
348542.000
  20
4640130.500
  0
VERTEX
  8
Unknown_Area_Type
  10
348469.000
  20
4636491.500
  0
VERTEX
  8
Unknown_Area_Type
  10
346773.500
  20
4636177.000
  0
VERTEX
  8
Unknown_Area_Type
  10
346770.500
  20
4636177.000
  0
VERTEX
  8
Unknown_Area_Type
  10
346755.000
  20
4636183.000
  0
VERTEX
  8
Unknown_Area_Type
  10
346114.917
  20
4636436.242
  0
VERTEX
  8
Unknown_Area_Type
  10
346139.193
  20
4637559.884
  0
VERTEX
  8
Unknown_Area_Type
  10
346189.189
  20
4639873.073
  0
VERTEX
  8
Unknown_Area_Type
  10
346196.225
  20
4640198.506
  0
SEQEND
  8
Unknown_Area_Type
  0
INSERT
  8
FeatureAttribs
  2
FEATURE
  41
1
  42
1
  43
1
  50
0
  10
347316.345
  20
4638245.131
 66
1
  0
ATTRIB
  8
FeatureAttribs
 70
0
  1
PNOA-H_AMS_1956-57_33k_ES_PAN_2
  2
NAME
  10
347316.345
  20
4638245.131
 40
33.87181
  0
SEQEND
  0
POLYLINE
  8
Unknown_Area_Type
  70
1
  66
1
  0
VERTEX
  8
Unknown_Area_Type
  10
346196.225
  20
4640198.506
  0
VERTEX
  8
Unknown_Area_Type
  10
346189.189
  20
4639873.073
  0
VERTEX
  8
Unknown_Area_Type
  10
346139.193
  20
4637559.884
  0
VERTEX
  8
Unknown_Area_Type
  10
346114.917
  20
4636436.242
  0
VERTEX
  8
Unknown_Area_Type
  10
346755.000
  20
4636183.000
  0
VERTEX
  8
Unknown_Area_Type
  10
346770.500
  20
4636177.000
  0
VERTEX
  8
Unknown_Area_Type
  10
346773.500
  20
4636177.000
  0
VERTEX
  8
Unknown_Area_Type
  10
348469.000
  20
4636491.500
  0
VERTEX
  8
Unknown_Area_Type
  10
348542.000
  20
4640130.500
  0
VERTEX
  8
Unknown_Area_Type
  10
347794.000
  20
4640154.000
  0
VERTEX
  8
Unknown_Area_Type
  10
347793.000
  20
4640154.000
  0
VERTEX
  8
Unknown_Area_Type
  10
346219.500
  20
4640204.000
  0
VERTEX
  8
Unknown_Area_Type
  10
346196.225
  20
4640198.506
  0
SEQEND
  8
Unknown_Area_Type
  0
INSERT
  8
FeatureAttribs
  2
FEATURE
  41
1
  42
1
  43
1
  50
0
  10
371477.763
  20
4637812.330
 66
1
  0
ATTRIB
  8
FeatureAttribs
 70
0
  1
PNOA-H_AMS_1956-57_33k_ES_PAN_2
  2
NAME
  10
371477.763
  20
4637812.330
 40
33.87181
  0
SEQEND
  0
POLYLINE
  8
Unknown_Area_Type
  70
1
  66
1
  0
VERTEX
  8
Unknown_Area_Type
  10
370210.500
  20
4639898.500
  0
VERTEX
  8
Unknown_Area_Type
  10
370576.000
  20
4640087.000
  0
VERTEX
  8
Unknown_Area_Type
  10
372936.000
  20
4639803.500
  0
VERTEX
  8
Unknown_Area_Type
  10
372795.000
  20
4635921.500
  0
VERTEX
  8
Unknown_Area_Type
  10
372795.000
  20
4635912.000
  0
VERTEX
  8
Unknown_Area_Type
  10
372788.500
  20
4635737.500
  0
VERTEX
  8
Unknown_Area_Type
  10
370456.000
  20
4635604.000
  0
VERTEX
  8
Unknown_Area_Type
  10
370447.500
  20
4635604.000
  0
VERTEX
  8
Unknown_Area_Type
  10
370040.500
  20
4635841.500
  0
VERTEX
  8
Unknown_Area_Type
  10
370210.500
  20
4639898.500
  0
SEQEND
  8
Unknown_Area_Type
  0
INSERT
  8
FeatureAttribs
  2
FEATURE
  41
1
  42
1
  43
1
  50
0
  10
371477.763
  20
4637812.330
 66
1
  0
ATTRIB
  8
FeatureAttribs
 70
0
  1
PNOA-H_AMS_1956-57_33k_ES_PAN_2
  2
NAME
  10
371477.763
  20
4637812.330
 40
33.87181
  0
SEQEND
  0
POLYLINE
  8
Unknown_Area_Type
  70
1
  66
1
  0
VERTEX
  8
Unknown_Area_Type
  10
370210.500
  20
4639898.500
  0
VERTEX
  8
Unknown_Area_Type
  10
370040.500
  20
4635841.500
  0
VERTEX
  8
Unknown_Area_Type
  10
370447.500
  20
4635604.000
  0
VERTEX
  8
Unknown_Area_Type
  10
370456.000
  20
4635604.000
  0
VERTEX
  8
Unknown_Area_Type
  10
372788.500
  20
4635737.500
  0
VERTEX
  8
Unknown_Area_Type
  10
372795.000
  20
4635912.000
  0
VERTEX
  8
Unknown_Area_Type
  10
372795.000
  20
4635921.500
  0
VERTEX
  8
Unknown_Area_Type
  10
372936.000
  20
4639803.500
  0
VERTEX
  8
Unknown_Area_Type
  10
370576.000
  20
4640087.000
  0
VERTEX
  8
Unknown_Area_Type
  10
370210.500
  20
4639898.500
  0
SEQEND
  8
Unknown_Area_Type
  0
INSERT
  8
FeatureAttribs
  2
FEATURE
  41
1
  42
1
  43
1
  50
0
  10
373896.532
  20
4633970.754
 66
1
  0
ATTRIB
  8
FeatureAttribs
 70
0
  1
PNOA-H_AMS_1956-57_33k_ES_PAN_2
  2
NAME
  10
373896.532
  20
4633970.754
 40
33.87181
  0
SEQEND
  0
POLYLINE
  8
Unknown_Area_Type
  70
1
  66
1
  0
VERTEX
  8
Unknown_Area_Type
  10
374046.654
  20
4635551.880
  0
VERTEX
  8
Unknown_Area_Type
  10
374046.654
  20
4632389.628
  0
VERTEX
  8
Unknown_Area_Type
  10
373719.497
  20
4632389.628
  0
VERTEX
  8
Unknown_Area_Type
  10
373718.406
  20
4632389.647
  0
VERTEX
  8
Unknown_Area_Type
  10
373759.375
  20
4634702.776
  0
VERTEX
  8
Unknown_Area_Type
  10
373774.320
  20
4635546.268
  0
VERTEX
  8
Unknown_Area_Type
  10
374046.654
  20
4635551.880
  0
SEQEND
  8
Unknown_Area_Type
  0
INSERT
  8
FeatureAttribs
  2
FEATURE
  41
1
  42
1
  43
1
  50
0
  10
373161.270
  20
4632396.306
 66
1
  0
ATTRIB
  8
FeatureAttribs
 70
0
  1
PNOA-H_AMS_1956-57_33k_ES_PAN_2
  2
NAME
  10
373161.270
  20
4632396.306
 40
33.87181
  0
SEQEND
  0
POLYLINE
  8
Unknown_Area_Type
  70
1
  66
1
  0
VERTEX
  8
Unknown_Area_Type
  10
372975.424
  20
4632402.984
  0
VERTEX
  8
Unknown_Area_Type
  10
373718.406
  20
4632389.647
  0
VERTEX
  8
Unknown_Area_Type
  10
373718.406
  20
4632389.628
  0
VERTEX
  8
Unknown_Area_Type
  10
372974.762
  20
4632389.628
  0
VERTEX
  8
Unknown_Area_Type
  10
372975.424
  20
4632402.984
  0
SEQEND
  8
Unknown_Area_Type
  0
INSERT
  8
FeatureAttribs
  2
FEATURE
  41
1
  42
1
  43
1
  50
0
  10
373718.679
  20
4632389.638
 66
1
  0
ATTRIB
  8
FeatureAttribs
 70
0
  1
PNOA-H_AMS_1956-57_33k_ES_PAN_2
  2
NAME
  10
373718.679
  20
4632389.638
 40
33.87181
  0
SEQEND
  0
POLYLINE
  8
Unknown_Area_Type
  70
1
  66
1
  0
VERTEX
  8
Unknown_Area_Type
  10
373718.406
  20
4632389.647
  0
VERTEX
  8
Unknown_Area_Type
  10
373719.497
  20
4632389.628
  0
VERTEX
  8
Unknown_Area_Type
  10
373718.406
  20
4632389.628
  0
VERTEX
  8
Unknown_Area_Type
  10
373718.406
  20
4632389.647
  0
SEQEND
  8
Unknown_Area_Type
  0
INSERT
  8
FeatureAttribs
  2
FEATURE
  41
1
  42
1
  43
1
  50
0
  10
373398.882
  20
4633930.177
 66
1
  0
ATTRIB
  8
FeatureAttribs
 70
0
  1
PNOA-H_AMS_1956-57_33k_ES_PAN_2
  2
NAME
  10
373398.882
  20
4633930.177
 40
33.87181
  0
SEQEND
  0
POLYLINE
  8
Unknown_Area_Type
  70
1
  66
1
  0
VERTEX
  8
Unknown_Area_Type
  10
373774.320
  20
4635546.268
  0
VERTEX
  8
Unknown_Area_Type
  10
373759.375
  20
4634702.776
  0
VERTEX
  8
Unknown_Area_Type
  10
373718.406
  20
4632389.647
  0
VERTEX
  8
Unknown_Area_Type
  10
372975.424
  20
4632402.984
  0
VERTEX
  8
Unknown_Area_Type
  10
373130.500
  20
4635533.000
  0
VERTEX
  8
Unknown_Area_Type
  10
373774.320
  20
4635546.268
  0
SEQEND
  8
Unknown_Area_Type
  0
INSERT
  8
FeatureAttribs
  2
FEATURE
  41
1
  42
1
  43
1
  50
0
  10
373398.882
  20
4633930.177
 66
1
  0
ATTRIB
  8
FeatureAttribs
 70
0
  1
PNOA-H_AMS_1956-57_33k_ES_PAN_2
  2
NAME
  10
373398.882
  20
4633930.177
 40
33.87181
  0
SEQEND
  0
POLYLINE
  8
Unknown_Area_Type
  70
1
  66
1
  0
VERTEX
  8
Unknown_Area_Type
  10
373774.320
  20
4635546.268
  0
VERTEX
  8
Unknown_Area_Type
  10
373130.500
  20
4635533.000
  0
VERTEX
  8
Unknown_Area_Type
  10
372975.424
  20
4632402.984
  0
VERTEX
  8
Unknown_Area_Type
  10
373718.406
  20
4632389.647
  0
VERTEX
  8
Unknown_Area_Type
  10
373759.375
  20
4634702.776
  0
VERTEX
  8
Unknown_Area_Type
  10
373774.320
  20
4635546.268
  0
SEQEND
  8
Unknown_Area_Type
  0
INSERT
  8
FeatureAttribs
  2
FEATURE
  41
1
  42
1
  43
1
  50
0
  10
373930.107
  20
4637760.506
 66
1
  0
ATTRIB
  8
FeatureAttribs
 70
0
  1
PNOA-H_AMS_1956-57_33k_ES_PAN_2
  2
NAME
  10
373930.107
  20
4637760.506
 40
33.87181
  0
SEQEND
  0
POLYLINE
  8
Unknown_Area_Type
  70
1
  66
1
  0
VERTEX
  8
Unknown_Area_Type
  10
374046.654
  20
4635551.753
  0
VERTEX
  8
Unknown_Area_Type
  10
373774.319
  20
4635546.184
  0
VERTEX
  8
Unknown_Area_Type
  10
373800.361
  20
4637015.913
  0
VERTEX
  8
Unknown_Area_Type
  10
373841.363
  20
4639329.058
  0
VERTEX
  8
Unknown_Area_Type
  10
373852.814
  20
4639974.829
  0
VERTEX
  8
Unknown_Area_Type
  10
374021.500
  20
4639973.000
  0
VERTEX
  8
Unknown_Area_Type
  10
374046.654
  20
4639969.512
  0
VERTEX
  8
Unknown_Area_Type
  10
374046.654
  20
4635551.753
  0
SEQEND
  8
Unknown_Area_Type
  0
INSERT
  8
FeatureAttribs
  2
FEATURE
  41
1
  42
1
  43
1
  50
0
  10
373342.185
  20
4637728.395
 66
1
  0
ATTRIB
  8
FeatureAttribs
 70
0
  1
PNOA-H_AMS_1956-57_33k_ES_PAN_2
  2
NAME
  10
373342.185
  20
4637728.395
 40
33.87181
  0
SEQEND
  0
POLYLINE
  8
Unknown_Area_Type
  70
1
  66
1
  0
VERTEX
  8
Unknown_Area_Type
  10
373774.319
  20
4635546.184
  0
VERTEX
  8
Unknown_Area_Type
  10
373129.500
  20
4635533.000
  0
VERTEX
  8
Unknown_Area_Type
  10
372788.500
  20
4635737.500
  0
VERTEX
  8
Unknown_Area_Type
  10
372936.000
  20
4639804.000
  0
VERTEX
  8
Unknown_Area_Type
  10
373283.500
  20
4639981.000
  0
VERTEX
  8
Unknown_Area_Type
  10
373852.814
  20
4639974.829
  0
VERTEX
  8
Unknown_Area_Type
  10
373841.363
  20
4639329.058
  0
VERTEX
  8
Unknown_Area_Type
  10
373800.361
  20
4637015.913
  0
VERTEX
  8
Unknown_Area_Type
  10
373774.319
  20
4635546.184
  0
SEQEND
  8
Unknown_Area_Type
  0
INSERT
  8
FeatureAttribs
  2
FEATURE
  41
1
  42
1
  43
1
  50
0
  10
373342.185
  20
4637728.395
 66
1
  0
ATTRIB
  8
FeatureAttribs
 70
0
  1
PNOA-H_AMS_1956-57_33k_ES_PAN_2
  2
NAME
  10
373342.185
  20
4637728.395
 40
33.87181
  0
SEQEND
  0
POLYLINE
  8
Unknown_Area_Type
  70
1
  66
1
  0
VERTEX
  8
Unknown_Area_Type
  10
373774.319
  20
4635546.184
  0
VERTEX
  8
Unknown_Area_Type
  10
373800.361
  20
4637015.913
  0
VERTEX
  8
Unknown_Area_Type
  10
373841.363
  20
4639329.058
  0
VERTEX
  8
Unknown_Area_Type
  10
373852.814
  20
4639974.829
  0
VERTEX
  8
Unknown_Area_Type
  10
373283.500
  20
4639981.000
  0
VERTEX
  8
Unknown_Area_Type
  10
372936.000
  20
4639804.000
  0
VERTEX
  8
Unknown_Area_Type
  10
372788.500
  20
4635737.500
  0
VERTEX
  8
Unknown_Area_Type
  10
373129.500
  20
4635533.000
  0
VERTEX
  8
Unknown_Area_Type
  10
373774.319
  20
4635546.184
  0
SEQEND
  8
Unknown_Area_Type
  0
INSERT
  8
FeatureAttribs
  2
FEATURE
  41
1
  42
1
  43
1
  50
0
  10
348866.115
  20
4641973.637
 66
1
  0
ATTRIB
  8
FeatureAttribs
 70
0
  1
PNOA-H_AMS_1956-57_33k_ES_PAN_2
  2
NAME
  10
348866.115
  20
4641973.637
 40
33.87181
  0
SEQEND
  0
POLYLINE
  8
Unknown_Area_Type
  70
1
  66
1
  0
VERTEX
  8
Unknown_Area_Type
  10
348292.500
  20
4643493.000
  0
VERTEX
  8
Unknown_Area_Type
  10
349801.500
  20
4642972.500
  0
VERTEX
  8
Unknown_Area_Type
  10
349215.000
  20
4640268.000
  0
VERTEX
  8
Unknown_Area_Type
  10
348557.500
  20
4640143.000
  0
VERTEX
  8
Unknown_Area_Type
  10
347993.000
  20
4643145.000
  0
VERTEX
  8
Unknown_Area_Type
  10
347993.000
  20
4643147.500
  0
VERTEX
  8
Unknown_Area_Type
  10
347997.500
  20
4643153.000
  0
VERTEX
  8
Unknown_Area_Type
  10
348292.000
  20
4643492.000
  0
VERTEX
  8
Unknown_Area_Type
  10
348292.500
  20
4643493.000
  0
SEQEND
  8
Unknown_Area_Type
  0
INSERT
  8
FeatureAttribs
  2
FEATURE
  41
1
  42
1
  43
1
  50
0
  10
348866.115
  20
4641973.637
 66
1
  0
ATTRIB
  8
FeatureAttribs
 70
0
  1
PNOA-H_AMS_1956-57_33k_ES_PAN_2
  2
NAME
  10
348866.115
  20
4641973.637
 40
33.87181
  0
SEQEND
  0
POLYLINE
  8
Unknown_Area_Type
  70
1
  66
1
  0
VERTEX
  8
Unknown_Area_Type
  10
348292.500
  20
4643493.000
  0
VERTEX
  8
Unknown_Area_Type
  10
348292.000
  20
4643492.000
  0
VERTEX
  8
Unknown_Area_Type
  10
347997.500
  20
4643153.000
  0
VERTEX
  8
Unknown_Area_Type
  10
347993.000
  20
4643147.500
  0
VERTEX
  8
Unknown_Area_Type
  10
347993.000
  20
4643145.000
  0
VERTEX
  8
Unknown_Area_Type
  10
348557.500
  20
4640143.000
  0
VERTEX
  8
Unknown_Area_Type
  10
349215.000
  20
4640268.000
  0
VERTEX
  8
Unknown_Area_Type
  10
349801.500
  20
4642972.500
  0
VERTEX
  8
Unknown_Area_Type
  10
348292.500
  20
4643493.000
  0
SEQEND
  8
Unknown_Area_Type
  0
INSERT
  8
FeatureAttribs
  2
FEATURE
  41
1
  42
1
  43
1
  50
0
  10
357216.059
  20
4641661.960
 66
1
  0
ATTRIB
  8
FeatureAttribs
 70
0
  1
PNOA-H_AMS_1956-57_33k_ES_PAN_2
  2
NAME
  10
357216.059
  20
4641661.960
 40
33.87181
  0
SEQEND
  0
POLYLINE
  8
Unknown_Area_Type
  70
1
  66
1
  0
VERTEX
  8
Unknown_Area_Type
  10
357071.000
  20
4643515.000
  0
VERTEX
  8
Unknown_Area_Type
  10
357948.000
  20
4642649.000
  0
VERTEX
  8
Unknown_Area_Type
  10
357896.500
  20
4640263.500
  0
VERTEX
  8
Unknown_Area_Type
  10
356723.500
  20
4640008.000
  0
VERTEX
  8
Unknown_Area_Type
  10
356720.000
  20
4640008.000
  0
VERTEX
  8
Unknown_Area_Type
  10
356581.000
  20
4640079.000
  0
VERTEX
  8
Unknown_Area_Type
  10
356552.500
  20
4643007.000
  0
VERTEX
  8
Unknown_Area_Type
  10
357070.500
  20
4643514.000
  0
VERTEX
  8
Unknown_Area_Type
  10
357071.000
  20
4643515.000
  0
SEQEND
  8
Unknown_Area_Type
  0
INSERT
  8
FeatureAttribs
  2
FEATURE
  41
1
  42
1
  43
1
  50
0
  10
357216.059
  20
4641661.960
 66
1
  0
ATTRIB
  8
FeatureAttribs
 70
0
  1
PNOA-H_AMS_1956-57_33k_ES_PAN_2
  2
NAME
  10
357216.059
  20
4641661.960
 40
33.87181
  0
SEQEND
  0
POLYLINE
  8
Unknown_Area_Type
  70
1
  66
1
  0
VERTEX
  8
Unknown_Area_Type
  10
357071.000
  20
4643515.000
  0
VERTEX
  8
Unknown_Area_Type
  10
357070.500
  20
4643514.000
  0
VERTEX
  8
Unknown_Area_Type
  10
356552.500
  20
4643007.000
  0
VERTEX
  8
Unknown_Area_Type
  10
356581.000
  20
4640079.000
  0
VERTEX
  8
Unknown_Area_Type
  10
356720.000
  20
4640008.000
  0
VERTEX
  8
Unknown_Area_Type
  10
356723.500
  20
4640008.000
  0
VERTEX
  8
Unknown_Area_Type
  10
357896.500
  20
4640263.500
  0
VERTEX
  8
Unknown_Area_Type
  10
357948.000
  20
4642649.000
  0
VERTEX
  8
Unknown_Area_Type
  10
357071.000
  20
4643515.000
  0
SEQEND
  8
Unknown_Area_Type
  0
INSERT
  8
FeatureAttribs
  2
FEATURE
  41
1
  42
1
  43
1
  50
0
  10
346134.195
  20
4641721.474
 66
1
  0
ATTRIB
  8
FeatureAttribs
 70
0
  1
PNOA-H_AMS_1956-57_33k_ES_PAN_2
  2
NAME
  10
346134.195
  20
4641721.474
 40
33.87181
  0
SEQEND
  0
POLYLINE
  8
Unknown_Area_Type
  70
1
  66
1
  0
VERTEX
  8
Unknown_Area_Type
  10
346261.631
  20
4643223.018
  0
VERTEX
  8
Unknown_Area_Type
  10
346239.205
  20
4642186.269
  0
VERTEX
  8
Unknown_Area_Type
  10
346196.226
  20
4640198.549
  0
VERTEX
  8
Unknown_Area_Type
  10
346039.234
  20
4640161.584
  0
VERTEX
  8
Unknown_Area_Type
  10
346039.234
  20
4643281.365
  0
VERTEX
  8
Unknown_Area_Type
  10
346261.631
  20
4643223.018
  0
SEQEND
  8
Unknown_Area_Type
  0
INSERT
  8
FeatureAttribs
  2
FEATURE
  41
1
  42
1
  43
1
  50
0
  10
346534.302
  20
4642113.808
 66
1
  0
ATTRIB
  8
FeatureAttribs
 70
0
  1
PNOA-H_AMS_1956-57_33k_ES_PAN_2
  2
NAME
  10
346534.302
  20
4642113.808
 40
33.87181
  0
SEQEND
  0
POLYLINE
  8
Unknown_Area_Type
  70
1
  66
1
  0
VERTEX
  8
Unknown_Area_Type
  10
346261.631
  20
4643223.018
  0
VERTEX
  8
Unknown_Area_Type
  10
347146.000
  20
4642991.000
  0
VERTEX
  8
Unknown_Area_Type
  10
346221.500
  20
4640204.500
  0
VERTEX
  8
Unknown_Area_Type
  10
346196.226
  20
4640198.549
  0
VERTEX
  8
Unknown_Area_Type
  10
346239.205
  20
4642186.269
  0
VERTEX
  8
Unknown_Area_Type
  10
346261.631
  20
4643223.018
  0
SEQEND
  8
Unknown_Area_Type
  0
INSERT
  8
FeatureAttribs
  2
FEATURE
  41
1
  42
1
  43
1
  50
0
  10
346534.302
  20
4642113.808
 66
1
  0
ATTRIB
  8
FeatureAttribs
 70
0
  1
PNOA-H_AMS_1956-57_33k_ES_PAN_2
  2
NAME
  10
346534.302
  20
4642113.808
 40
33.87181
  0
SEQEND
  0
POLYLINE
  8
Unknown_Area_Type
  70
1
  66
1
  0
VERTEX
  8
Unknown_Area_Type
  10
346261.631
  20
4643223.018
  0
VERTEX
  8
Unknown_Area_Type
  10
346239.205
  20
4642186.269
  0
VERTEX
  8
Unknown_Area_Type
  10
346196.226
  20
4640198.549
  0
VERTEX
  8
Unknown_Area_Type
  10
346221.500
  20
4640204.500
  0
VERTEX
  8
Unknown_Area_Type
  10
347146.000
  20
4642991.000
  0
VERTEX
  8
Unknown_Area_Type
  10
346261.631
  20
4643223.018
  0
SEQEND
  8
Unknown_Area_Type
  0
INSERT
  8
FeatureAttribs
  2
FEATURE
  41
1
  42
1
  43
1
  50
0
  10
351681.963
  20
4641878.022
 66
1
  0
ATTRIB
  8
FeatureAttribs
 70
0
  1
PNOA-H_AMS_1956-57_33k_ES_PAN_2
  2
NAME
  10
351681.963
  20
4641878.022
 40
33.87181
  0
SEQEND
  0
POLYLINE
  8
Unknown_Area_Type
  70
1
  66
1
  0
VERTEX
  8
Unknown_Area_Type
  10
351238.500
  20
4643581.500
  0
VERTEX
  8
Unknown_Area_Type
  10
351252.000
  20
4643575.500
  0
VERTEX
  8
Unknown_Area_Type
  10
352503.000
  20
4642928.000
  0
VERTEX
  8
Unknown_Area_Type
  10
352317.000
  20
4640350.000
  0
VERTEX
  8
Unknown_Area_Type
  10
351215.000
  20
4640158.000
  0
VERTEX
  8
Unknown_Area_Type
  10
350838.000
  20
4643123.500
  0
VERTEX
  8
Unknown_Area_Type
  10
351238.000
  20
4643580.500
  0
VERTEX
  8
Unknown_Area_Type
  10
351238.500
  20
4643581.500
  0
SEQEND
  8
Unknown_Area_Type
  0
INSERT
  8
FeatureAttribs
  2
FEATURE
  41
1
  42
1
  43
1
  50
0
  10
351681.963
  20
4641878.022
 66
1
  0
ATTRIB
  8
FeatureAttribs
 70
0
  1
PNOA-H_AMS_1956-57_33k_ES_PAN_2
  2
NAME
  10
351681.963
  20
4641878.022
 40
33.87181
  0
SEQEND
  0
POLYLINE
  8
Unknown_Area_Type
  70
1
  66
1
  0
VERTEX
  8
Unknown_Area_Type
  10
351238.500
  20
4643581.500
  0
VERTEX
  8
Unknown_Area_Type
  10
351238.000
  20
4643580.500
  0
VERTEX
  8
Unknown_Area_Type
  10
350838.000
  20
4643123.500
  0
VERTEX
  8
Unknown_Area_Type
  10
351215.000
  20
4640158.000
  0
VERTEX
  8
Unknown_Area_Type
  10
352317.000
  20
4640350.000
  0
VERTEX
  8
Unknown_Area_Type
  10
352503.000
  20
4642928.000
  0
VERTEX
  8
Unknown_Area_Type
  10
351252.000
  20
4643575.500
  0
VERTEX
  8
Unknown_Area_Type
  10
351238.500
  20
4643581.500
  0
SEQEND
  8
Unknown_Area_Type
  0
INSERT
  8
FeatureAttribs
  2
FEATURE
  41
1
  42
1
  43
1
  50
0
  10
354497.089
  20
4641779.248
 66
1
  0
ATTRIB
  8
FeatureAttribs
 70
0
  1
PNOA-H_AMS_1956-57_33k_ES_PAN_2
  2
NAME
  10
354497.089
  20
4641779.248
 40
33.87181
  0
SEQEND
  0
POLYLINE
  8
Unknown_Area_Type
  70
1
  66
1
  0
VERTEX
  8
Unknown_Area_Type
  10
353937.500
  20
4643322.000
  0
VERTEX
  8
Unknown_Area_Type
  10
354205.000
  20
4643610.000
  0
VERTEX
  8
Unknown_Area_Type
  10
355282.000
  20
4642802.500
  0
VERTEX
  8
Unknown_Area_Type
  10
355192.500
  20
4640326.000
  0
VERTEX
  8
Unknown_Area_Type
  10
353948.500
  20
4640097.000
  0
VERTEX
  8
Unknown_Area_Type
  10
353944.000
  20
4640097.500
  0
VERTEX
  8
Unknown_Area_Type
  10
353884.500
  20
4640131.500
  0
VERTEX
  8
Unknown_Area_Type
  10
353760.000
  20
4643130.000
  0
VERTEX
  8
Unknown_Area_Type
  10
353937.000
  20
4643321.000
  0
VERTEX
  8
Unknown_Area_Type
  10
353937.500
  20
4643322.000
  0
SEQEND
  8
Unknown_Area_Type
  0
INSERT
  8
FeatureAttribs
  2
FEATURE
  41
1
  42
1
  43
1
  50
0
  10
354497.089
  20
4641779.248
 66
1
  0
ATTRIB
  8
FeatureAttribs
 70
0
  1
PNOA-H_AMS_1956-57_33k_ES_PAN_2
  2
NAME
  10
354497.089
  20
4641779.248
 40
33.87181
  0
SEQEND
  0
POLYLINE
  8
Unknown_Area_Type
  70
1
  66
1
  0
VERTEX
  8
Unknown_Area_Type
  10
353937.500
  20
4643322.000
  0
VERTEX
  8
Unknown_Area_Type
  10
353937.000
  20
4643321.000
  0
VERTEX
  8
Unknown_Area_Type
  10
353760.000
  20
4643130.000
  0
VERTEX
  8
Unknown_Area_Type
  10
353884.500
  20
4640131.500
  0
VERTEX
  8
Unknown_Area_Type
  10
353944.000
  20
4640097.500
  0
VERTEX
  8
Unknown_Area_Type
  10
353948.500
  20
4640097.000
  0
VERTEX
  8
Unknown_Area_Type
  10
355192.500
  20
4640326.000
  0
VERTEX
  8
Unknown_Area_Type
  10
355282.000
  20
4642802.500
  0
VERTEX
  8
Unknown_Area_Type
  10
354205.000
  20
4643610.000
  0
VERTEX
  8
Unknown_Area_Type
  10
353937.500
  20
4643322.000
  0
SEQEND
  8
Unknown_Area_Type
  0
INSERT
  8
FeatureAttribs
  2
FEATURE
  41
1
  42
1
  43
1
  50
0
  10
353133.416
  20
4641582.682
 66
1
  0
ATTRIB
  8
FeatureAttribs
 70
0
  1
PNOA-H_AMS_1956-57_33k_ES_PAN_2
  2
NAME
  10
353133.416
  20
4641582.682
 40
33.87181
  0
SEQEND
  0
POLYLINE
  8
Unknown_Area_Type
  70
1
  66
1
  0
VERTEX
  8
Unknown_Area_Type
  10
353759.000
  20
4643130.000
  0
VERTEX
  8
Unknown_Area_Type
  10
353760.000
  20
4643130.000
  0
VERTEX
  8
Unknown_Area_Type
  10
353760.500
  20
4643123.500
  0
VERTEX
  8
Unknown_Area_Type
  10
353885.000
  20
4640131.000
  0
VERTEX
  8
Unknown_Area_Type
  10
352317.000
  20
4640349.500
  0
VERTEX
  8
Unknown_Area_Type
  10
352503.000
  20
4642928.000
  0
VERTEX
  8
Unknown_Area_Type
  10
353756.000
  20
4643129.500
  0
VERTEX
  8
Unknown_Area_Type
  10
353759.000
  20
4643130.000
  0
SEQEND
  8
Unknown_Area_Type
  0
INSERT
  8
FeatureAttribs
  2
FEATURE
  41
1
  42
1
  43
1
  50
0
  10
353133.416
  20
4641582.682
 66
1
  0
ATTRIB
  8
FeatureAttribs
 70
0
  1
PNOA-H_AMS_1956-57_33k_ES_PAN_2
  2
NAME
  10
353133.416
  20
4641582.682
 40
33.87181
  0
SEQEND
  0
POLYLINE
  8
Unknown_Area_Type
  70
1
  66
1
  0
VERTEX
  8
Unknown_Area_Type
  10
353759.000
  20
4643130.000
  0
VERTEX
  8
Unknown_Area_Type
  10
353756.000
  20
4643129.500
  0
VERTEX
  8
Unknown_Area_Type
  10
352503.000
  20
4642928.000
  0
VERTEX
  8
Unknown_Area_Type
  10
352317.000
  20
4640349.500
  0
VERTEX
  8
Unknown_Area_Type
  10
353885.000
  20
4640131.000
  0
VERTEX
  8
Unknown_Area_Type
  10
353760.500
  20
4643123.500
  0
VERTEX
  8
Unknown_Area_Type
  10
353760.000
  20
4643130.000
  0
VERTEX
  8
Unknown_Area_Type
  10
353759.000
  20
4643130.000
  0
SEQEND
  8
Unknown_Area_Type
  0
INSERT
  8
FeatureAttribs
  2
FEATURE
  41
1
  42
1
  43
1
  50
0
  10
350275.558
  20
4641470.963
 66
1
  0
ATTRIB
  8
FeatureAttribs
 70
0
  1
PNOA-H_AMS_1956-57_33k_ES_PAN_2
  2
NAME
  10
350275.558
  20
4641470.963
 40
33.87181
  0
SEQEND
  0
POLYLINE
  8
Unknown_Area_Type
  70
1
  66
1
  0
VERTEX
  8
Unknown_Area_Type
  10
349841.500
  20
4642978.500
  0
VERTEX
  8
Unknown_Area_Type
  10
350838.000
  20
4643123.000
  0
VERTEX
  8
Unknown_Area_Type
  10
351215.000
  20
4640162.000
  0
VERTEX
  8
Unknown_Area_Type
  10
351215.000
  20
4640158.000
  0
VERTEX
  8
Unknown_Area_Type
  10
351214.000
  20
4640157.000
  0
VERTEX
  8
Unknown_Area_Type
  10
351180.000
  20
4640133.500
  0
VERTEX
  8
Unknown_Area_Type
  10
349214.500
  20
4640267.500
  0
VERTEX
  8
Unknown_Area_Type
  10
349801.000
  20
4642970.500
  0
VERTEX
  8
Unknown_Area_Type
  10
349801.500
  20
4642972.500
  0
VERTEX
  8
Unknown_Area_Type
  10
349803.500
  20
4642973.000
  0
VERTEX
  8
Unknown_Area_Type
  10
349838.000
  20
4642978.000
  0
VERTEX
  8
Unknown_Area_Type
  10
349841.500
  20
4642978.500
  0
SEQEND
  8
Unknown_Area_Type
  0
INSERT
  8
FeatureAttribs
  2
FEATURE
  41
1
  42
1
  43
1
  50
0
  10
350275.558
  20
4641470.963
 66
1
  0
ATTRIB
  8
FeatureAttribs
 70
0
  1
PNOA-H_AMS_1956-57_33k_ES_PAN_2
  2
NAME
  10
350275.558
  20
4641470.963
 40
33.87181
  0
SEQEND
  0
POLYLINE
  8
Unknown_Area_Type
  70
1
  66
1
  0
VERTEX
  8
Unknown_Area_Type
  10
349841.500
  20
4642978.500
  0
VERTEX
  8
Unknown_Area_Type
  10
349838.000
  20
4642978.000
  0
VERTEX
  8
Unknown_Area_Type
  10
349803.500
  20
4642973.000
  0
VERTEX
  8
Unknown_Area_Type
  10
349801.500
  20
4642972.500
  0
VERTEX
  8
Unknown_Area_Type
  10
349801.000
  20
4642970.500
  0
VERTEX
  8
Unknown_Area_Type
  10
349214.500
  20
4640267.500
  0
VERTEX
  8
Unknown_Area_Type
  10
351180.000
  20
4640133.500
  0
VERTEX
  8
Unknown_Area_Type
  10
351214.000
  20
4640157.000
  0
VERTEX
  8
Unknown_Area_Type
  10
351215.000
  20
4640158.000
  0
VERTEX
  8
Unknown_Area_Type
  10
351215.000
  20
4640162.000
  0
VERTEX
  8
Unknown_Area_Type
  10
350838.000
  20
4643123.000
  0
VERTEX
  8
Unknown_Area_Type
  10
349841.500
  20
4642978.500
  0
SEQEND
  8
Unknown_Area_Type
  0
INSERT
  8
FeatureAttribs
  2
FEATURE
  41
1
  42
1
  43
1
  50
0
  10
347478.303
  20
4641389.314
 66
1
  0
ATTRIB
  8
FeatureAttribs
 70
0
  1
PNOA-H_AMS_1956-57_33k_ES_PAN_2
  2
NAME
  10
347478.303
  20
4641389.314
 40
33.87181
  0
SEQEND
  0
POLYLINE
  8
Unknown_Area_Type
  70
1
  66
1
  0
VERTEX
  8
Unknown_Area_Type
  10
347146.000
  20
4642991.000
  0
VERTEX
  8
Unknown_Area_Type
  10
347790.500
  20
4643110.000
  0
VERTEX
  8
Unknown_Area_Type
  10
347793.000
  20
4643110.500
  0
VERTEX
  8
Unknown_Area_Type
  10
347993.000
  20
4643147.000
  0
VERTEX
  8
Unknown_Area_Type
  10
348557.500
  20
4640146.000
  0
VERTEX
  8
Unknown_Area_Type
  10
348558.000
  20
4640142.500
  0
VERTEX
  8
Unknown_Area_Type
  10
348542.000
  20
4640130.500
  0
VERTEX
  8
Unknown_Area_Type
  10
346221.000
  20
4640204.000
  0
VERTEX
  8
Unknown_Area_Type
  10
347146.000
  20
4642991.000
  0
SEQEND
  8
Unknown_Area_Type
  0
INSERT
  8
FeatureAttribs
  2
FEATURE
  41
1
  42
1
  43
1
  50
0
  10
347478.303
  20
4641389.314
 66
1
  0
ATTRIB
  8
FeatureAttribs
 70
0
  1
PNOA-H_AMS_1956-57_33k_ES_PAN_2
  2
NAME
  10
347478.303
  20
4641389.314
 40
33.87181
  0
SEQEND
  0
POLYLINE
  8
Unknown_Area_Type
  70
1
  66
1
  0
VERTEX
  8
Unknown_Area_Type
  10
347146.000
  20
4642991.000
  0
VERTEX
  8
Unknown_Area_Type
  10
346221.000
  20
4640204.000
  0
VERTEX
  8
Unknown_Area_Type
  10
348542.000
  20
4640130.500
  0
VERTEX
  8
Unknown_Area_Type
  10
348558.000
  20
4640142.500
  0
VERTEX
  8
Unknown_Area_Type
  10
348557.500
  20
4640146.000
  0
VERTEX
  8
Unknown_Area_Type
  10
347993.000
  20
4643147.000
  0
VERTEX
  8
Unknown_Area_Type
  10
347793.000
  20
4643110.500
  0
VERTEX
  8
Unknown_Area_Type
  10
347790.500
  20
4643110.000
  0
VERTEX
  8
Unknown_Area_Type
  10
347146.000
  20
4642991.000
  0
SEQEND
  8
Unknown_Area_Type
  0
INSERT
  8
FeatureAttribs
  2
FEATURE
  41
1
  42
1
  43
1
  50
0
  10
355920.200
  20
4641532.300
 66
1
  0
ATTRIB
  8
FeatureAttribs
 70
0
  1
PNOA-H_AMS_1956-57_33k_ES_PAN_2
  2
NAME
  10
355920.200
  20
4641532.300
 40
33.87181
  0
SEQEND
  0
POLYLINE
  8
Unknown_Area_Type
  70
1
  66
1
  0
VERTEX
  8
Unknown_Area_Type
  10
355985.500
  20
4642915.500
  0
VERTEX
  8
Unknown_Area_Type
  10
356552.500
  20
4643006.500
  0
VERTEX
  8
Unknown_Area_Type
  10
356581.000
  20
4640079.000
  0
VERTEX
  8
Unknown_Area_Type
  10
355192.500
  20
4640326.000
  0
VERTEX
  8
Unknown_Area_Type
  10
355282.000
  20
4642802.000
  0
VERTEX
  8
Unknown_Area_Type
  10
355982.500
  20
4642915.000
  0
VERTEX
  8
Unknown_Area_Type
  10
355985.500
  20
4642915.500
  0
SEQEND
  8
Unknown_Area_Type
  0
INSERT
  8
FeatureAttribs
  2
FEATURE
  41
1
  42
1
  43
1
  50
0
  10
355920.200
  20
4641532.300
 66
1
  0
ATTRIB
  8
FeatureAttribs
 70
0
  1
PNOA-H_AMS_1956-57_33k_ES_PAN_2
  2
NAME
  10
355920.200
  20
4641532.300
 40
33.87181
  0
SEQEND
  0
POLYLINE
  8
Unknown_Area_Type
  70
1
  66
1
  0
VERTEX
  8
Unknown_Area_Type
  10
355985.500
  20
4642915.500
  0
VERTEX
  8
Unknown_Area_Type
  10
355982.500
  20
4642915.000
  0
VERTEX
  8
Unknown_Area_Type
  10
355282.000
  20
4642802.000
  0
VERTEX
  8
Unknown_Area_Type
  10
355192.500
  20
4640326.000
  0
VERTEX
  8
Unknown_Area_Type
  10
356581.000
  20
4640079.000
  0
VERTEX
  8
Unknown_Area_Type
  10
356552.500
  20
4643006.500
  0
VERTEX
  8
Unknown_Area_Type
  10
355985.500
  20
4642915.500
  0
SEQEND
  8
Unknown_Area_Type
  0
INSERT
  8
FeatureAttribs
  2
FEATURE
  41
1
  42
1
  43
1
  50
0
  10
358981.208
  20
4641462.364
 66
1
  0
ATTRIB
  8
FeatureAttribs
 70
0
  1
PNOA-H_AMS_1956-57_33k_ES_PAN_2
  2
NAME
  10
358981.208
  20
4641462.364
 40
33.87181
  0
SEQEND
  0
POLYLINE
  8
Unknown_Area_Type
  70
1
  66
1
  0
VERTEX
  8
Unknown_Area_Type
  10
358033.000
  20
4642664.000
  0
VERTEX
  8
Unknown_Area_Type
  10
359796.000
  20
4642978.500
  0
VERTEX
  8
Unknown_Area_Type
  10
359980.000
  20
4642609.500
  0
VERTEX
  8
Unknown_Area_Type
  10
360003.000
  20
4640274.500
  0
VERTEX
  8
Unknown_Area_Type
  10
359459.000
  20
4639993.000
  0
VERTEX
  8
Unknown_Area_Type
  10
357896.500
  20
4640263.500
  0
VERTEX
  8
Unknown_Area_Type
  10
357948.000
  20
4642648.500
  0
VERTEX
  8
Unknown_Area_Type
  10
358030.500
  20
4642663.500
  0
VERTEX
  8
Unknown_Area_Type
  10
358033.000
  20
4642664.000
  0
SEQEND
  8
Unknown_Area_Type
  0
INSERT
  8
FeatureAttribs
  2
FEATURE
  41
1
  42
1
  43
1
  50
0
  10
358981.208
  20
4641462.364
 66
1
  0
ATTRIB
  8
FeatureAttribs
 70
0
  1
PNOA-H_AMS_1956-57_33k_ES_PAN_2
  2
NAME
  10
358981.208
  20
4641462.364
 40
33.87181
  0
SEQEND
  0
POLYLINE
  8
Unknown_Area_Type
  70
1
  66
1
  0
VERTEX
  8
Unknown_Area_Type
  10
358033.000
  20
4642664.000
  0
VERTEX
  8
Unknown_Area_Type
  10
358030.500
  20
4642663.500
  0
VERTEX
  8
Unknown_Area_Type
  10
357948.000
  20
4642648.500
  0
VERTEX
  8
Unknown_Area_Type
  10
357896.500
  20
4640263.500
  0
VERTEX
  8
Unknown_Area_Type
  10
359459.000
  20
4639993.000
  0
VERTEX
  8
Unknown_Area_Type
  10
360003.000
  20
4640274.500
  0
VERTEX
  8
Unknown_Area_Type
  10
359980.000
  20
4642609.500
  0
VERTEX
  8
Unknown_Area_Type
  10
359796.000
  20
4642978.500
  0
VERTEX
  8
Unknown_Area_Type
  10
358033.000
  20
4642664.000
  0
SEQEND
  8
Unknown_Area_Type
  0
INSERT
  8
FeatureAttribs
  2
FEATURE
  41
1
  42
1
  43
1
  50
0
  10
363910.873
  20
4641402.416
 66
1
  0
ATTRIB
  8
FeatureAttribs
 70
0
  1
PNOA-H_AMS_1956-57_33k_ES_PAN_2
  2
NAME
  10
363910.873
  20
4641402.416
 40
33.87181
  0
SEQEND
  0
POLYLINE
  8
Unknown_Area_Type
  70
1
  66
1
  0
VERTEX
  8
Unknown_Area_Type
  10
364157.000
  20
4642703.500
  0
VERTEX
  8
Unknown_Area_Type
  10
365181.500
  20
4642726.500
  0
VERTEX
  8
Unknown_Area_Type
  10
365182.000
  20
4640154.500
  0
VERTEX
  8
Unknown_Area_Type
  10
364876.000
  20
4639990.000
  0
VERTEX
  8
Unknown_Area_Type
  10
362615.000
  20
4640224.000
  0
VERTEX
  8
Unknown_Area_Type
  10
362578.000
  20
4642667.500
  0
VERTEX
  8
Unknown_Area_Type
  10
364135.000
  20
4642703.000
  0
VERTEX
  8
Unknown_Area_Type
  10
364157.000
  20
4642703.500
  0
SEQEND
  8
Unknown_Area_Type
  0
INSERT
  8
FeatureAttribs
  2
FEATURE
  41
1
  42
1
  43
1
  50
0
  10
363910.873
  20
4641402.416
 66
1
  0
ATTRIB
  8
FeatureAttribs
 70
0
  1
PNOA-H_AMS_1956-57_33k_ES_PAN_2
  2
NAME
  10
363910.873
  20
4641402.416
 40
33.87181
  0
SEQEND
  0
POLYLINE
  8
Unknown_Area_Type
  70
1
  66
1
  0
VERTEX
  8
Unknown_Area_Type
  10
364157.000
  20
4642703.500
  0
VERTEX
  8
Unknown_Area_Type
  10
364135.000
  20
4642703.000
  0
VERTEX
  8
Unknown_Area_Type
  10
362578.000
  20
4642667.500
  0
VERTEX
  8
Unknown_Area_Type
  10
362615.000
  20
4640224.000
  0
VERTEX
  8
Unknown_Area_Type
  10
364876.000
  20
4639990.000
  0
VERTEX
  8
Unknown_Area_Type
  10
365182.000
  20
4640154.500
  0
VERTEX
  8
Unknown_Area_Type
  10
365181.500
  20
4642726.500
  0
VERTEX
  8
Unknown_Area_Type
  10
364157.000
  20
4642703.500
  0
SEQEND
  8
Unknown_Area_Type
  0
INSERT
  8
FeatureAttribs
  2
FEATURE
  41
1
  42
1
  43
1
  50
0
  10
366499.154
  20
4641315.942
 66
1
  0
ATTRIB
  8
FeatureAttribs
 70
0
  1
PNOA-H_AMS_1956-57_33k_ES_PAN_2
  2
NAME
  10
366499.154
  20
4641315.942
 40
33.87181
  0
SEQEND
  0
POLYLINE
  8
Unknown_Area_Type
  70
1
  66
1
  0
VERTEX
  8
Unknown_Area_Type
  10
365182.500
  20
4642729.000
  0
VERTEX
  8
Unknown_Area_Type
  10
367820.000
  20
4642400.000
  0
VERTEX
  8
Unknown_Area_Type
  10
367859.500
  20
4642204.500
  0
VERTEX
  8
Unknown_Area_Type
  10
367850.000
  20
4640170.000
  0
VERTEX
  8
Unknown_Area_Type
  10
367492.000
  20
4639976.500
  0
VERTEX
  8
Unknown_Area_Type
  10
365182.500
  20
4640154.500
  0
VERTEX
  8
Unknown_Area_Type
  10
365182.000
  20
4642727.000
  0
VERTEX
  8
Unknown_Area_Type
  10
365182.500
  20
4642729.000
  0
SEQEND
  8
Unknown_Area_Type
  0
INSERT
  8
FeatureAttribs
  2
FEATURE
  41
1
  42
1
  43
1
  50
0
  10
366499.154
  20
4641315.942
 66
1
  0
ATTRIB
  8
FeatureAttribs
 70
0
  1
PNOA-H_AMS_1956-57_33k_ES_PAN_2
  2
NAME
  10
366499.154
  20
4641315.942
 40
33.87181
  0
SEQEND
  0
POLYLINE
  8
Unknown_Area_Type
  70
1
  66
1
  0
VERTEX
  8
Unknown_Area_Type
  10
365182.500
  20
4642729.000
  0
VERTEX
  8
Unknown_Area_Type
  10
365182.000
  20
4642727.000
  0
VERTEX
  8
Unknown_Area_Type
  10
365182.500
  20
4640154.500
  0
VERTEX
  8
Unknown_Area_Type
  10
367492.000
  20
4639976.500
  0
VERTEX
  8
Unknown_Area_Type
  10
367850.000
  20
4640170.000
  0
VERTEX
  8
Unknown_Area_Type
  10
367859.500
  20
4642204.500
  0
VERTEX
  8
Unknown_Area_Type
  10
367820.000
  20
4642400.000
  0
VERTEX
  8
Unknown_Area_Type
  10
365182.500
  20
4642729.000
  0
SEQEND
  8
Unknown_Area_Type
  0
INSERT
  8
FeatureAttribs
  2
FEATURE
  41
1
  42
1
  43
1
  50
0
  10
361331.823
  20
4641425.628
 66
1
  0
ATTRIB
  8
FeatureAttribs
 70
0
  1
PNOA-H_AMS_1956-57_33k_ES_PAN_2
  2
NAME
  10
361331.823
  20
4641425.628
 40
33.87181
  0
SEQEND
  0
POLYLINE
  8
Unknown_Area_Type
  70
1
  66
1
  0
VERTEX
  8
Unknown_Area_Type
  10
360081.500
  20
4642618.500
  0
VERTEX
  8
Unknown_Area_Type
  10
362468.500
  20
4642850.500
  0
VERTEX
  8
Unknown_Area_Type
  10
362494.500
  20
4642853.000
  0
VERTEX
  8
Unknown_Area_Type
  10
362499.500
  20
4642852.500
  0
VERTEX
  8
Unknown_Area_Type
  10
362578.000
  20
4642668.500
  0
VERTEX
  8
Unknown_Area_Type
  10
362578.500
  20
4642661.000
  0
VERTEX
  8
Unknown_Area_Type
  10
362615.000
  20
4640224.000
  0
VERTEX
  8
Unknown_Area_Type
  10
362160.000
  20
4639979.000
  0
VERTEX
  8
Unknown_Area_Type
  10
360003.000
  20
4640274.500
  0
VERTEX
  8
Unknown_Area_Type
  10
359980.000
  20
4642608.500
  0
VERTEX
  8
Unknown_Area_Type
  10
360076.500
  20
4642618.000
  0
VERTEX
  8
Unknown_Area_Type
  10
360081.500
  20
4642618.500
  0
SEQEND
  8
Unknown_Area_Type
  0
INSERT
  8
FeatureAttribs
  2
FEATURE
  41
1
  42
1
  43
1
  50
0
  10
361331.823
  20
4641425.628
 66
1
  0
ATTRIB
  8
FeatureAttribs
 70
0
  1
PNOA-H_AMS_1956-57_33k_ES_PAN_2
  2
NAME
  10
361331.823
  20
4641425.628
 40
33.87181
  0
SEQEND
  0
POLYLINE
  8
Unknown_Area_Type
  70
1
  66
1
  0
VERTEX
  8
Unknown_Area_Type
  10
360081.500
  20
4642618.500
  0
VERTEX
  8
Unknown_Area_Type
  10
360076.500
  20
4642618.000
  0
VERTEX
  8
Unknown_Area_Type
  10
359980.000
  20
4642608.500
  0
VERTEX
  8
Unknown_Area_Type
  10
360003.000
  20
4640274.500
  0
VERTEX
  8
Unknown_Area_Type
  10
362160.000
  20
4639979.000
  0
VERTEX
  8
Unknown_Area_Type
  10
362615.000
  20
4640224.000
  0
VERTEX
  8
Unknown_Area_Type
  10
362578.500
  20
4642661.000
  0
VERTEX
  8
Unknown_Area_Type
  10
362578.000
  20
4642668.500
  0
VERTEX
  8
Unknown_Area_Type
  10
362499.500
  20
4642852.500
  0
VERTEX
  8
Unknown_Area_Type
  10
362494.500
  20
4642853.000
  0
VERTEX
  8
Unknown_Area_Type
  10
362468.500
  20
4642850.500
  0
VERTEX
  8
Unknown_Area_Type
  10
360081.500
  20
4642618.500
  0
SEQEND
  8
Unknown_Area_Type
  0
INSERT
  8
FeatureAttribs
  2
FEATURE
  41
1
  42
1
  43
1
  50
0
  10
374039.507
  20
4640027.238
 66
1
  0
ATTRIB
  8
FeatureAttribs
 70
0
  1
PNOA-H_AMS_1956-57_33k_ES_PAN_2
  2
NAME
  10
374039.507
  20
4640027.238
 40
33.87181
  0
SEQEND
  0
POLYLINE
  8
Unknown_Area_Type
  70
1
  66
1
  0
VERTEX
  8
Unknown_Area_Type
  10
374046.654
  20
4639969.208
  0
VERTEX
  8
Unknown_Area_Type
  10
374019.000
  20
4639973.000
  0
VERTEX
  8
Unknown_Area_Type
  10
374046.654
  20
4640085.268
  0
VERTEX
  8
Unknown_Area_Type
  10
374046.654
  20
4639969.208
  0
SEQEND
  8
Unknown_Area_Type
  0
INSERT
  8
FeatureAttribs
  2
FEATURE
  41
1
  42
1
  43
1
  50
0
  10
372087.299
  20
4641170.107
 66
1
  0
ATTRIB
  8
FeatureAttribs
 70
0
  1
PNOA-H_AMS_1956-57_33k_ES_PAN_2
  2
NAME
  10
372087.299
  20
4641170.107
 40
33.87181
  0
SEQEND
  0
POLYLINE
  8
Unknown_Area_Type
  70
1
  66
1
  0
VERTEX
  8
Unknown_Area_Type
  10
370607.500
  20
4641362.500
  0
VERTEX
  8
Unknown_Area_Type
  10
373072.000
  20
4643242.000
  0
VERTEX
  8
Unknown_Area_Type
  10
373072.500
  20
4643243.000
  0
VERTEX
  8
Unknown_Area_Type
  10
373284.000
  20
4639981.000
  0
VERTEX
  8
Unknown_Area_Type
  10
372959.000
  20
4639815.000
  0
VERTEX
  8
Unknown_Area_Type
  10
372936.000
  20
4639803.500
  0
VERTEX
  8
Unknown_Area_Type
  10
372934.000
  20
4639803.500
  0
VERTEX
  8
Unknown_Area_Type
  10
370576.500
  20
4640087.000
  0
VERTEX
  8
Unknown_Area_Type
  10
370607.500
  20
4641362.500
  0
SEQEND
  8
Unknown_Area_Type
  0
INSERT
  8
FeatureAttribs
  2
FEATURE
  41
1
  42
1
  43
1
  50
0
  10
372087.299
  20
4641170.107
 66
1
  0
ATTRIB
  8
FeatureAttribs
 70
0
  1
PNOA-H_AMS_1956-57_33k_ES_PAN_2
  2
NAME
  10
372087.299
  20
4641170.107
 40
33.87181
  0
SEQEND
  0
POLYLINE
  8
Unknown_Area_Type
  70
1
  66
1
  0
VERTEX
  8
Unknown_Area_Type
  10
370607.500
  20
4641362.500
  0
VERTEX
  8
Unknown_Area_Type
  10
370576.500
  20
4640087.000
  0
VERTEX
  8
Unknown_Area_Type
  10
372934.000
  20
4639803.500
  0
VERTEX
  8
Unknown_Area_Type
  10
372936.000
  20
4639803.500
  0
VERTEX
  8
Unknown_Area_Type
  10
372959.000
  20
4639815.000
  0
VERTEX
  8
Unknown_Area_Type
  10
373284.000
  20
4639981.000
  0
VERTEX
  8
Unknown_Area_Type
  10
373072.500
  20
4643243.000
  0
VERTEX
  8
Unknown_Area_Type
  10
373072.000
  20
4643242.000
  0
VERTEX
  8
Unknown_Area_Type
  10
370607.500
  20
4641362.500
  0
SEQEND
  8
Unknown_Area_Type
  0
INSERT
  8
FeatureAttribs
  2
FEATURE
  41
1
  42
1
  43
1
  50
0
  10
369268.279
  20
4641216.469
 66
1
  0
ATTRIB
  8
FeatureAttribs
 70
0
  1
PNOA-H_AMS_1956-57_33k_ES_PAN_2
  2
NAME
  10
369268.279
  20
4641216.469
 40
33.87181
  0
SEQEND
  0
POLYLINE
  8
Unknown_Area_Type
  70
1
  66
1
  0
VERTEX
  8
Unknown_Area_Type
  10
368272.500
  20
4642272.500
  0
VERTEX
  8
Unknown_Area_Type
  10
370416.000
  20
4642632.500
  0
VERTEX
  8
Unknown_Area_Type
  10
370607.500
  20
4641364.500
  0
VERTEX
  8
Unknown_Area_Type
  10
370577.000
  20
4640088.000
  0
VERTEX
  8
Unknown_Area_Type
  10
370576.000
  20
4640086.500
  0
VERTEX
  8
Unknown_Area_Type
  10
370211.500
  20
4639898.500
  0
VERTEX
  8
Unknown_Area_Type
  10
367850.000
  20
4640170.000
  0
VERTEX
  8
Unknown_Area_Type
  10
367859.500
  20
4642203.000
  0
VERTEX
  8
Unknown_Area_Type
  10
368269.500
  20
4642272.000
  0
VERTEX
  8
Unknown_Area_Type
  10
368272.500
  20
4642272.500
  0
SEQEND
  8
Unknown_Area_Type
  0
INSERT
  8
FeatureAttribs
  2
FEATURE
  41
1
  42
1
  43
1
  50
0
  10
369268.279
  20
4641216.469
 66
1
  0
ATTRIB
  8
FeatureAttribs
 70
0
  1
PNOA-H_AMS_1956-57_33k_ES_PAN_2
  2
NAME
  10
369268.279
  20
4641216.469
 40
33.87181
  0
SEQEND
  0
POLYLINE
  8
Unknown_Area_Type
  70
1
  66
1
  0
VERTEX
  8
Unknown_Area_Type
  10
368272.500
  20
4642272.500
  0
VERTEX
  8
Unknown_Area_Type
  10
368269.500
  20
4642272.000
  0
VERTEX
  8
Unknown_Area_Type
  10
367859.500
  20
4642203.000
  0
VERTEX
  8
Unknown_Area_Type
  10
367850.000
  20
4640170.000
  0
VERTEX
  8
Unknown_Area_Type
  10
370211.500
  20
4639898.500
  0
VERTEX
  8
Unknown_Area_Type
  10
370576.000
  20
4640086.500
  0
VERTEX
  8
Unknown_Area_Type
  10
370577.000
  20
4640088.000
  0
VERTEX
  8
Unknown_Area_Type
  10
370607.500
  20
4641364.500
  0
VERTEX
  8
Unknown_Area_Type
  10
370416.000
  20
4642632.500
  0
VERTEX
  8
Unknown_Area_Type
  10
368272.500
  20
4642272.500
  0
SEQEND
  8
Unknown_Area_Type
  0
ENDSEC
  0
EOF
