  0
SECTION
  2
HEADER
  9
$ACADVER
  1
AC1009
  9
$LUNITS
  70
2
  9
$LIMMIN
  10
318359.508
  20
4632933.511
  9
$LIMMAX
  10
346439.502
  20
4652090.973
  9
$EXTMIN
  10
318359.508
  20
4632933.511
  9
$EXTMAX
  10
346439.502
  20
4652090.973
  999
Created by Global Mapper
  999
Projection: UTM
  999
Datum: ETRS89
  999
Ground Units: meters
  999
ZONE: 30
  0
ENDSEC
  0
SECTION
  2
TABLES
  0
ENDSEC
  0
SECTION
  2
BLOCKS
  0
BLOCK
  8
FeatureAttribs
  70
0
  2
FEATURE
  3
FEATURE
  10
0.00000000
  20
0.00000000
  0
ATTDEF
  8
FeatureAttribs
  70
0
  1
 
  2
NAME
  3
NAME
  10
0.00000000
  20
0.00000000
  40
1.00000000
  0
ENDBLK
  0
ENDSEC
  0
SECTION
  2
ENTITIES
  0
INSERT
  8
FeatureAttribs
  2
FEATURE
  41
1
  42
1
  43
1
  50
0
  10
318886.945
  20
4651029.269
 66
1
  0
ATTRIB
  8
FeatureAttribs
 70
0
  1
PNOA-H_AMS_1956-57_33k_ES_PAN_2
  2
NAME
  10
318886.945
  20
4651029.269
 40
33.99257
  0
SEQEND
  0
POLYLINE
  8
Unknown_Area_Type
  70
1
  66
1
  0
VERTEX
  8
Unknown_Area_Type
  10
319014.603
  20
4652086.325
  0
VERTEX
  8
Unknown_Area_Type
  10
318925.000
  20
4649998.000
  0
VERTEX
  8
Unknown_Area_Type
  10
318777.510
  20
4649967.584
  0
VERTEX
  8
Unknown_Area_Type
  10
318831.771
  20
4652090.954
  0
VERTEX
  8
Unknown_Area_Type
  10
319014.603
  20
4652086.325
  0
SEQEND
  8
Unknown_Area_Type
  0
INSERT
  8
FeatureAttribs
  2
FEATURE
  41
1
  42
1
  43
1
  50
0
  10
318831.586
  20
4652090.964
 66
1
  0
ATTRIB
  8
FeatureAttribs
 70
0
  1
PNOA-H_AMS_1956-57_33k_ES_PAN_2
  2
NAME
  10
318831.586
  20
4652090.964
 40
33.99257
  0
SEQEND
  0
POLYLINE
  8
Unknown_Area_Type
  70
1
  66
1
  0
VERTEX
  8
Unknown_Area_Type
  10
318831.772
  20
4652090.973
  0
VERTEX
  8
Unknown_Area_Type
  10
318831.771
  20
4652090.954
  0
VERTEX
  8
Unknown_Area_Type
  10
318831.029
  20
4652090.973
  0
VERTEX
  8
Unknown_Area_Type
  10
318831.772
  20
4652090.973
  0
SEQEND
  8
Unknown_Area_Type
  0
INSERT
  8
FeatureAttribs
  2
FEATURE
  41
1
  42
1
  43
1
  50
0
  10
318968.756
  20
4652088.649
 66
1
  0
ATTRIB
  8
FeatureAttribs
 70
0
  1
PNOA-H_AMS_1956-57_33k_ES_PAN_2
  2
NAME
  10
318968.756
  20
4652088.649
 40
33.99257
  0
SEQEND
  0
POLYLINE
  8
Unknown_Area_Type
  70
1
  66
1
  0
VERTEX
  8
Unknown_Area_Type
  10
319014.802
  20
4652090.973
  0
VERTEX
  8
Unknown_Area_Type
  10
319014.603
  20
4652086.325
  0
VERTEX
  8
Unknown_Area_Type
  10
318831.771
  20
4652090.954
  0
VERTEX
  8
Unknown_Area_Type
  10
318831.772
  20
4652090.973
  0
VERTEX
  8
Unknown_Area_Type
  10
319014.802
  20
4652090.973
  0
SEQEND
  8
Unknown_Area_Type
  0
INSERT
  8
FeatureAttribs
  2
FEATURE
  41
1
  42
1
  43
1
  50
0
  10
318886.945
  20
4651029.269
 66
1
  0
ATTRIB
  8
FeatureAttribs
 70
0
  1
PNOA-H_AMS_1956-57_33k_ES_PAN_2
  2
NAME
  10
318886.945
  20
4651029.269
 40
33.99257
  0
SEQEND
  0
POLYLINE
  8
Unknown_Area_Type
  70
1
  66
1
  0
VERTEX
  8
Unknown_Area_Type
  10
319014.603
  20
4652086.325
  0
VERTEX
  8
Unknown_Area_Type
  10
318925.000
  20
4649998.000
  0
VERTEX
  8
Unknown_Area_Type
  10
318777.510
  20
4649967.584
  0
VERTEX
  8
Unknown_Area_Type
  10
318831.771
  20
4652090.954
  0
VERTEX
  8
Unknown_Area_Type
  10
319014.603
  20
4652086.325
  0
SEQEND
  8
Unknown_Area_Type
  0
INSERT
  8
FeatureAttribs
  2
FEATURE
  41
1
  42
1
  43
1
  50
0
  10
318581.524
  20
4650986.176
 66
1
  0
ATTRIB
  8
FeatureAttribs
 70
0
  1
PNOA-H_AMS_1956-57_33k_ES_PAN_2
  2
NAME
  10
318581.524
  20
4650986.176
 40
33.99257
  0
SEQEND
  0
POLYLINE
  8
Unknown_Area_Type
  70
1
  66
1
  0
VERTEX
  8
Unknown_Area_Type
  10
318777.510
  20
4649967.584
  0
VERTEX
  8
Unknown_Area_Type
  10
318359.508
  20
4649881.380
  0
VERTEX
  8
Unknown_Area_Type
  10
318359.508
  20
4652090.973
  0
VERTEX
  8
Unknown_Area_Type
  10
318831.029
  20
4652090.973
  0
VERTEX
  8
Unknown_Area_Type
  10
318831.771
  20
4652090.954
  0
VERTEX
  8
Unknown_Area_Type
  10
318777.510
  20
4649967.584
  0
SEQEND
  8
Unknown_Area_Type
  0
INSERT
  8
FeatureAttribs
  2
FEATURE
  41
1
  42
1
  43
1
  50
0
  10
341695.619
  20
4651800.363
 66
1
  0
ATTRIB
  8
FeatureAttribs
 70
0
  1
PNOA-H_AMS_1956-57_33k_ES_PAN_2
  2
NAME
  10
341695.619
  20
4651800.363
 40
33.99257
  0
SEQEND
  0
POLYLINE
  8
Unknown_Area_Type
  70
1
  66
1
  0
VERTEX
  8
Unknown_Area_Type
  10
343219.977
  20
4652090.973
  0
VERTEX
  8
Unknown_Area_Type
  10
343215.380
  20
4651509.752
  0
VERTEX
  8
Unknown_Area_Type
  10
342988.544
  20
4651514.721
  0
VERTEX
  8
Unknown_Area_Type
  10
340172.441
  20
4651577.780
  0
VERTEX
  8
Unknown_Area_Type
  10
340175.019
  20
4652090.973
  0
VERTEX
  8
Unknown_Area_Type
  10
343219.977
  20
4652090.973
  0
SEQEND
  8
Unknown_Area_Type
  0
INSERT
  8
FeatureAttribs
  2
FEATURE
  41
1
  42
1
  43
1
  50
0
  10
341681.014
  20
4650366.517
 66
1
  0
ATTRIB
  8
FeatureAttribs
 70
0
  1
PNOA-H_AMS_1956-57_33k_ES_PAN_2
  2
NAME
  10
341681.014
  20
4650366.517
 40
33.99257
  0
SEQEND
  0
POLYLINE
  8
Unknown_Area_Type
  70
1
  66
1
  0
VERTEX
  8
Unknown_Area_Type
  10
343215.380
  20
4651509.752
  0
VERTEX
  8
Unknown_Area_Type
  10
343197.000
  20
4649186.000
  0
VERTEX
  8
Unknown_Area_Type
  10
340353.500
  20
4649183.500
  0
VERTEX
  8
Unknown_Area_Type
  10
340161.000
  20
4649300.500
  0
VERTEX
  8
Unknown_Area_Type
  10
340172.441
  20
4651577.780
  0
VERTEX
  8
Unknown_Area_Type
  10
342988.544
  20
4651514.721
  0
VERTEX
  8
Unknown_Area_Type
  10
343215.380
  20
4651509.752
  0
SEQEND
  8
Unknown_Area_Type
  0
INSERT
  8
FeatureAttribs
  2
FEATURE
  41
1
  42
1
  43
1
  50
0
  10
341681.014
  20
4650366.517
 66
1
  0
ATTRIB
  8
FeatureAttribs
 70
0
  1
PNOA-H_AMS_1956-57_33k_ES_PAN_2
  2
NAME
  10
341681.014
  20
4650366.517
 40
33.99257
  0
SEQEND
  0
POLYLINE
  8
Unknown_Area_Type
  70
1
  66
1
  0
VERTEX
  8
Unknown_Area_Type
  10
343215.380
  20
4651509.752
  0
VERTEX
  8
Unknown_Area_Type
  10
342988.544
  20
4651514.721
  0
VERTEX
  8
Unknown_Area_Type
  10
340172.441
  20
4651577.780
  0
VERTEX
  8
Unknown_Area_Type
  10
340161.000
  20
4649300.500
  0
VERTEX
  8
Unknown_Area_Type
  10
340353.500
  20
4649183.500
  0
VERTEX
  8
Unknown_Area_Type
  10
343197.000
  20
4649186.000
  0
VERTEX
  8
Unknown_Area_Type
  10
343215.380
  20
4651509.752
  0
SEQEND
  8
Unknown_Area_Type
  0
INSERT
  8
FeatureAttribs
  2
FEATURE
  41
1
  42
1
  43
1
  50
0
  10
335598.823
  20
4651869.368
 66
1
  0
ATTRIB
  8
FeatureAttribs
 70
0
  1
PNOA-H_AMS_1956-57_33k_ES_PAN_2
  2
NAME
  10
335598.823
  20
4651869.368
 40
33.99257
  0
SEQEND
  0
POLYLINE
  8
Unknown_Area_Type
  70
1
  66
1
  0
VERTEX
  8
Unknown_Area_Type
  10
337105.573
  20
4652090.973
  0
VERTEX
  8
Unknown_Area_Type
  10
337100.164
  20
4651647.763
  0
VERTEX
  8
Unknown_Area_Type
  10
336086.656
  20
4651670.951
  0
VERTEX
  8
Unknown_Area_Type
  10
334091.863
  20
4651717.563
  0
VERTEX
  8
Unknown_Area_Type
  10
334099.033
  20
4652090.973
  0
VERTEX
  8
Unknown_Area_Type
  10
337105.573
  20
4652090.973
  0
SEQEND
  8
Unknown_Area_Type
  0
INSERT
  8
FeatureAttribs
  2
FEATURE
  41
1
  42
1
  43
1
  50
0
  10
335560.521
  20
4650473.323
 66
1
  0
ATTRIB
  8
FeatureAttribs
 70
0
  1
PNOA-H_AMS_1956-57_33k_ES_PAN_2
  2
NAME
  10
335560.521
  20
4650473.323
 40
33.99257
  0
SEQEND
  0
POLYLINE
  8
Unknown_Area_Type
  70
1
  66
1
  0
VERTEX
  8
Unknown_Area_Type
  10
337100.164
  20
4651647.763
  0
VERTEX
  8
Unknown_Area_Type
  10
337072.000
  20
4649340.000
  0
VERTEX
  8
Unknown_Area_Type
  10
337071.500
  20
4649330.500
  0
VERTEX
  8
Unknown_Area_Type
  10
337067.500
  20
4649330.000
  0
VERTEX
  8
Unknown_Area_Type
  10
334378.500
  20
4649198.000
  0
VERTEX
  8
Unknown_Area_Type
  10
334047.000
  20
4649381.000
  0
VERTEX
  8
Unknown_Area_Type
  10
334091.863
  20
4651717.563
  0
VERTEX
  8
Unknown_Area_Type
  10
336086.656
  20
4651670.951
  0
VERTEX
  8
Unknown_Area_Type
  10
337100.164
  20
4651647.763
  0
SEQEND
  8
Unknown_Area_Type
  0
INSERT
  8
FeatureAttribs
  2
FEATURE
  41
1
  42
1
  43
1
  50
0
  10
335560.521
  20
4650473.323
 66
1
  0
ATTRIB
  8
FeatureAttribs
 70
0
  1
PNOA-H_AMS_1956-57_33k_ES_PAN_2
  2
NAME
  10
335560.521
  20
4650473.323
 40
33.99257
  0
SEQEND
  0
POLYLINE
  8
Unknown_Area_Type
  70
1
  66
1
  0
VERTEX
  8
Unknown_Area_Type
  10
337100.164
  20
4651647.763
  0
VERTEX
  8
Unknown_Area_Type
  10
336086.656
  20
4651670.951
  0
VERTEX
  8
Unknown_Area_Type
  10
334091.863
  20
4651717.563
  0
VERTEX
  8
Unknown_Area_Type
  10
334047.000
  20
4649381.000
  0
VERTEX
  8
Unknown_Area_Type
  10
334378.500
  20
4649198.000
  0
VERTEX
  8
Unknown_Area_Type
  10
337067.500
  20
4649330.000
  0
VERTEX
  8
Unknown_Area_Type
  10
337071.500
  20
4649330.500
  0
VERTEX
  8
Unknown_Area_Type
  10
337072.000
  20
4649340.000
  0
VERTEX
  8
Unknown_Area_Type
  10
337100.164
  20
4651647.763
  0
SEQEND
  8
Unknown_Area_Type
  0
INSERT
  8
FeatureAttribs
  2
FEATURE
  41
1
  42
1
  43
1
  50
0
  10
329539.856
  20
4651940.336
 66
1
  0
ATTRIB
  8
FeatureAttribs
 70
0
  1
PNOA-H_AMS_1956-57_33k_ES_PAN_2
  2
NAME
  10
329539.856
  20
4651940.336
 40
33.99257
  0
SEQEND
  0
POLYLINE
  8
Unknown_Area_Type
  70
1
  66
1
  0
VERTEX
  8
Unknown_Area_Type
  10
331045.609
  20
4652090.973
  0
VERTEX
  8
Unknown_Area_Type
  10
331038.040
  20
4651789.699
  0
VERTEX
  8
Unknown_Area_Type
  10
329184.731
  20
4651833.907
  0
VERTEX
  8
Unknown_Area_Type
  10
328035.540
  20
4651861.880
  0
VERTEX
  8
Unknown_Area_Type
  10
328042.394
  20
4652090.973
  0
VERTEX
  8
Unknown_Area_Type
  10
331045.609
  20
4652090.973
  0
SEQEND
  8
Unknown_Area_Type
  0
INSERT
  8
FeatureAttribs
  2
FEATURE
  41
1
  42
1
  43
1
  50
0
  10
329483.956
  20
4650596.064
 66
1
  0
ATTRIB
  8
FeatureAttribs
 70
0
  1
PNOA-H_AMS_1956-57_33k_ES_PAN_2
  2
NAME
  10
329483.956
  20
4650596.064
 40
33.99257
  0
SEQEND
  0
POLYLINE
  8
Unknown_Area_Type
  70
1
  66
1
  0
VERTEX
  8
Unknown_Area_Type
  10
331038.040
  20
4651789.699
  0
VERTEX
  8
Unknown_Area_Type
  10
330980.500
  20
4649499.500
  0
VERTEX
  8
Unknown_Area_Type
  10
328658.500
  20
4649229.500
  0
VERTEX
  8
Unknown_Area_Type
  10
328652.000
  20
4649231.000
  0
VERTEX
  8
Unknown_Area_Type
  10
327966.500
  20
4649554.500
  0
VERTEX
  8
Unknown_Area_Type
  10
328035.540
  20
4651861.880
  0
VERTEX
  8
Unknown_Area_Type
  10
329184.731
  20
4651833.907
  0
VERTEX
  8
Unknown_Area_Type
  10
331038.040
  20
4651789.699
  0
SEQEND
  8
Unknown_Area_Type
  0
INSERT
  8
FeatureAttribs
  2
FEATURE
  41
1
  42
1
  43
1
  50
0
  10
329483.956
  20
4650596.064
 66
1
  0
ATTRIB
  8
FeatureAttribs
 70
0
  1
PNOA-H_AMS_1956-57_33k_ES_PAN_2
  2
NAME
  10
329483.956
  20
4650596.064
 40
33.99257
  0
SEQEND
  0
POLYLINE
  8
Unknown_Area_Type
  70
1
  66
1
  0
VERTEX
  8
Unknown_Area_Type
  10
331038.040
  20
4651789.699
  0
VERTEX
  8
Unknown_Area_Type
  10
329184.731
  20
4651833.907
  0
VERTEX
  8
Unknown_Area_Type
  10
328035.540
  20
4651861.880
  0
VERTEX
  8
Unknown_Area_Type
  10
327966.500
  20
4649554.500
  0
VERTEX
  8
Unknown_Area_Type
  10
328652.000
  20
4649231.000
  0
VERTEX
  8
Unknown_Area_Type
  10
328658.500
  20
4649229.500
  0
VERTEX
  8
Unknown_Area_Type
  10
330980.500
  20
4649499.500
  0
VERTEX
  8
Unknown_Area_Type
  10
331038.040
  20
4651789.699
  0
SEQEND
  8
Unknown_Area_Type
  0
INSERT
  8
FeatureAttribs
  2
FEATURE
  41
1
  42
1
  43
1
  50
0
  10
344689.756
  20
4651768.135
 66
1
  0
ATTRIB
  8
FeatureAttribs
 70
0
  1
PNOA-H_AMS_1956-57_33k_ES_PAN_2
  2
NAME
  10
344689.756
  20
4651768.135
 40
33.99257
  0
SEQEND
  0
POLYLINE
  8
Unknown_Area_Type
  70
1
  66
1
  0
VERTEX
  8
Unknown_Area_Type
  10
346166.305
  20
4652090.973
  0
VERTEX
  8
Unknown_Area_Type
  10
346157.870
  20
4651445.297
  0
VERTEX
  8
Unknown_Area_Type
  10
343215.382
  20
4651509.752
  0
VERTEX
  8
Unknown_Area_Type
  10
343219.978
  20
4652090.973
  0
VERTEX
  8
Unknown_Area_Type
  10
346166.305
  20
4652090.973
  0
SEQEND
  8
Unknown_Area_Type
  0
INSERT
  8
FeatureAttribs
  2
FEATURE
  41
1
  42
1
  43
1
  50
0
  10
344669.698
  20
4650304.099
 66
1
  0
ATTRIB
  8
FeatureAttribs
 70
0
  1
PNOA-H_AMS_1956-57_33k_ES_PAN_2
  2
NAME
  10
344669.698
  20
4650304.099
 40
33.99257
  0
SEQEND
  0
POLYLINE
  8
Unknown_Area_Type
  70
1
  66
1
  0
VERTEX
  8
Unknown_Area_Type
  10
346157.870
  20
4651445.297
  0
VERTEX
  8
Unknown_Area_Type
  10
346127.500
  20
4649120.500
  0
VERTEX
  8
Unknown_Area_Type
  10
343281.000
  20
4649135.500
  0
VERTEX
  8
Unknown_Area_Type
  10
343197.000
  20
4649185.500
  0
VERTEX
  8
Unknown_Area_Type
  10
343215.382
  20
4651509.752
  0
VERTEX
  8
Unknown_Area_Type
  10
346157.870
  20
4651445.297
  0
SEQEND
  8
Unknown_Area_Type
  0
INSERT
  8
FeatureAttribs
  2
FEATURE
  41
1
  42
1
  43
1
  50
0
  10
344669.698
  20
4650304.099
 66
1
  0
ATTRIB
  8
FeatureAttribs
 70
0
  1
PNOA-H_AMS_1956-57_33k_ES_PAN_2
  2
NAME
  10
344669.698
  20
4650304.099
 40
33.99257
  0
SEQEND
  0
POLYLINE
  8
Unknown_Area_Type
  70
1
  66
1
  0
VERTEX
  8
Unknown_Area_Type
  10
346157.870
  20
4651445.297
  0
VERTEX
  8
Unknown_Area_Type
  10
343215.382
  20
4651509.752
  0
VERTEX
  8
Unknown_Area_Type
  10
343197.000
  20
4649185.500
  0
VERTEX
  8
Unknown_Area_Type
  10
343281.000
  20
4649135.500
  0
VERTEX
  8
Unknown_Area_Type
  10
346127.500
  20
4649120.500
  0
VERTEX
  8
Unknown_Area_Type
  10
346157.870
  20
4651445.297
  0
SEQEND
  8
Unknown_Area_Type
  0
INSERT
  8
FeatureAttribs
  2
FEATURE
  41
1
  42
1
  43
1
  50
0
  10
338637.925
  20
4651834.375
 66
1
  0
ATTRIB
  8
FeatureAttribs
 70
0
  1
PNOA-H_AMS_1956-57_33k_ES_PAN_2
  2
NAME
  10
338637.925
  20
4651834.375
 40
33.99257
  0
SEQEND
  0
POLYLINE
  8
Unknown_Area_Type
  70
1
  66
1
  0
VERTEX
  8
Unknown_Area_Type
  10
340175.117
  20
4652090.973
  0
VERTEX
  8
Unknown_Area_Type
  10
340172.581
  20
4651577.777
  0
VERTEX
  8
Unknown_Area_Type
  10
339537.604
  20
4651591.995
  0
VERTEX
  8
Unknown_Area_Type
  10
337099.728
  20
4651647.773
  0
VERTEX
  8
Unknown_Area_Type
  10
337105.127
  20
4652090.973
  0
VERTEX
  8
Unknown_Area_Type
  10
340175.117
  20
4652090.973
  0
SEQEND
  8
Unknown_Area_Type
  0
INSERT
  8
FeatureAttribs
  2
FEATURE
  41
1
  42
1
  43
1
  50
0
  10
338608.084
  20
4650425.141
 66
1
  0
ATTRIB
  8
FeatureAttribs
 70
0
  1
PNOA-H_AMS_1956-57_33k_ES_PAN_2
  2
NAME
  10
338608.084
  20
4650425.141
 40
33.99257
  0
SEQEND
  0
POLYLINE
  8
Unknown_Area_Type
  70
1
  66
1
  0
VERTEX
  8
Unknown_Area_Type
  10
340172.581
  20
4651577.777
  0
VERTEX
  8
Unknown_Area_Type
  10
340161.500
  20
4649335.500
  0
VERTEX
  8
Unknown_Area_Type
  10
340161.000
  20
4649300.500
  0
VERTEX
  8
Unknown_Area_Type
  10
340154.500
  20
4649300.000
  0
VERTEX
  8
Unknown_Area_Type
  10
337339.500
  20
4649177.500
  0
VERTEX
  8
Unknown_Area_Type
  10
337071.500
  20
4649330.500
  0
VERTEX
  8
Unknown_Area_Type
  10
337099.728
  20
4651647.773
  0
VERTEX
  8
Unknown_Area_Type
  10
339537.604
  20
4651591.995
  0
VERTEX
  8
Unknown_Area_Type
  10
340172.581
  20
4651577.777
  0
SEQEND
  8
Unknown_Area_Type
  0
INSERT
  8
FeatureAttribs
  2
FEATURE
  41
1
  42
1
  43
1
  50
0
  10
338608.084
  20
4650425.141
 66
1
  0
ATTRIB
  8
FeatureAttribs
 70
0
  1
PNOA-H_AMS_1956-57_33k_ES_PAN_2
  2
NAME
  10
338608.084
  20
4650425.141
 40
33.99257
  0
SEQEND
  0
POLYLINE
  8
Unknown_Area_Type
  70
1
  66
1
  0
VERTEX
  8
Unknown_Area_Type
  10
340172.581
  20
4651577.777
  0
VERTEX
  8
Unknown_Area_Type
  10
339537.604
  20
4651591.995
  0
VERTEX
  8
Unknown_Area_Type
  10
337099.728
  20
4651647.773
  0
VERTEX
  8
Unknown_Area_Type
  10
337071.500
  20
4649330.500
  0
VERTEX
  8
Unknown_Area_Type
  10
337339.500
  20
4649177.500
  0
VERTEX
  8
Unknown_Area_Type
  10
340154.500
  20
4649300.000
  0
VERTEX
  8
Unknown_Area_Type
  10
340161.000
  20
4649300.500
  0
VERTEX
  8
Unknown_Area_Type
  10
340161.500
  20
4649335.500
  0
VERTEX
  8
Unknown_Area_Type
  10
340172.581
  20
4651577.777
  0
SEQEND
  8
Unknown_Area_Type
  0
INSERT
  8
FeatureAttribs
  2
FEATURE
  41
1
  42
1
  43
1
  50
0
  10
323559.134
  20
4652012.723
 66
1
  0
ATTRIB
  8
FeatureAttribs
 70
0
  1
PNOA-H_AMS_1956-57_33k_ES_PAN_2
  2
NAME
  10
323559.134
  20
4652012.723
 40
33.99257
  0
SEQEND
  0
POLYLINE
  8
Unknown_Area_Type
  70
1
  66
1
  0
VERTEX
  8
Unknown_Area_Type
  10
325072.072
  20
4652090.973
  0
VERTEX
  8
Unknown_Area_Type
  10
325066.574
  20
4651934.473
  0
VERTEX
  8
Unknown_Area_Type
  10
322282.768
  20
4652003.590
  0
VERTEX
  8
Unknown_Area_Type
  10
322048.805
  20
4652009.513
  0
VERTEX
  8
Unknown_Area_Type
  10
322052.355
  20
4652090.973
  0
VERTEX
  8
Unknown_Area_Type
  10
325072.072
  20
4652090.973
  0
SEQEND
  8
Unknown_Area_Type
  0
INSERT
  8
FeatureAttribs
  2
FEATURE
  41
1
  42
1
  43
1
  50
0
  10
323504.652
  20
4650761.725
 66
1
  0
ATTRIB
  8
FeatureAttribs
 70
0
  1
PNOA-H_AMS_1956-57_33k_ES_PAN_2
  2
NAME
  10
323504.652
  20
4650761.725
 40
33.99257
  0
SEQEND
  0
POLYLINE
  8
Unknown_Area_Type
  70
1
  66
1
  0
VERTEX
  8
Unknown_Area_Type
  10
325066.574
  20
4651934.473
  0
VERTEX
  8
Unknown_Area_Type
  10
324987.500
  20
4649683.500
  0
VERTEX
  8
Unknown_Area_Type
  10
322974.500
  20
4649383.000
  0
VERTEX
  8
Unknown_Area_Type
  10
321954.000
  20
4649834.000
  0
VERTEX
  8
Unknown_Area_Type
  10
322048.805
  20
4652009.513
  0
VERTEX
  8
Unknown_Area_Type
  10
322282.768
  20
4652003.590
  0
VERTEX
  8
Unknown_Area_Type
  10
325066.574
  20
4651934.473
  0
SEQEND
  8
Unknown_Area_Type
  0
INSERT
  8
FeatureAttribs
  2
FEATURE
  41
1
  42
1
  43
1
  50
0
  10
323504.652
  20
4650761.725
 66
1
  0
ATTRIB
  8
FeatureAttribs
 70
0
  1
PNOA-H_AMS_1956-57_33k_ES_PAN_2
  2
NAME
  10
323504.652
  20
4650761.725
 40
33.99257
  0
SEQEND
  0
POLYLINE
  8
Unknown_Area_Type
  70
1
  66
1
  0
VERTEX
  8
Unknown_Area_Type
  10
325066.574
  20
4651934.473
  0
VERTEX
  8
Unknown_Area_Type
  10
322282.768
  20
4652003.590
  0
VERTEX
  8
Unknown_Area_Type
  10
322048.805
  20
4652009.513
  0
VERTEX
  8
Unknown_Area_Type
  10
321954.000
  20
4649834.000
  0
VERTEX
  8
Unknown_Area_Type
  10
322974.500
  20
4649383.000
  0
VERTEX
  8
Unknown_Area_Type
  10
324987.500
  20
4649683.500
  0
VERTEX
  8
Unknown_Area_Type
  10
325066.574
  20
4651934.473
  0
SEQEND
  8
Unknown_Area_Type
  0
INSERT
  8
FeatureAttribs
  2
FEATURE
  41
1
  42
1
  43
1
  50
0
  10
332568.084
  20
4651904.268
 66
1
  0
ATTRIB
  8
FeatureAttribs
 70
0
  1
PNOA-H_AMS_1956-57_33k_ES_PAN_2
  2
NAME
  10
332568.084
  20
4651904.268
 40
33.99257
  0
SEQEND
  0
POLYLINE
  8
Unknown_Area_Type
  70
1
  66
1
  0
VERTEX
  8
Unknown_Area_Type
  10
334099.033
  20
4652090.973
  0
VERTEX
  8
Unknown_Area_Type
  10
334091.863
  20
4651717.563
  0
VERTEX
  8
Unknown_Area_Type
  10
332635.698
  20
4651751.588
  0
VERTEX
  8
Unknown_Area_Type
  10
331037.851
  20
4651789.703
  0
VERTEX
  8
Unknown_Area_Type
  10
331045.394
  20
4652090.973
  0
VERTEX
  8
Unknown_Area_Type
  10
334099.033
  20
4652090.973
  0
SEQEND
  8
Unknown_Area_Type
  0
INSERT
  8
FeatureAttribs
  2
FEATURE
  41
1
  42
1
  43
1
  50
0
  10
332524.971
  20
4650529.012
 66
1
  0
ATTRIB
  8
FeatureAttribs
 70
0
  1
PNOA-H_AMS_1956-57_33k_ES_PAN_2
  2
NAME
  10
332524.971
  20
4650529.012
 40
33.99257
  0
SEQEND
  0
POLYLINE
  8
Unknown_Area_Type
  70
1
  66
1
  0
VERTEX
  8
Unknown_Area_Type
  10
334091.863
  20
4651717.563
  0
VERTEX
  8
Unknown_Area_Type
  10
334047.000
  20
4649381.000
  0
VERTEX
  8
Unknown_Area_Type
  10
331535.500
  20
4649213.000
  0
VERTEX
  8
Unknown_Area_Type
  10
330980.500
  20
4649499.000
  0
VERTEX
  8
Unknown_Area_Type
  10
331037.851
  20
4651789.703
  0
VERTEX
  8
Unknown_Area_Type
  10
332635.698
  20
4651751.588
  0
VERTEX
  8
Unknown_Area_Type
  10
334091.863
  20
4651717.563
  0
SEQEND
  8
Unknown_Area_Type
  0
INSERT
  8
FeatureAttribs
  2
FEATURE
  41
1
  42
1
  43
1
  50
0
  10
332524.971
  20
4650529.012
 66
1
  0
ATTRIB
  8
FeatureAttribs
 70
0
  1
PNOA-H_AMS_1956-57_33k_ES_PAN_2
  2
NAME
  10
332524.971
  20
4650529.012
 40
33.99257
  0
SEQEND
  0
POLYLINE
  8
Unknown_Area_Type
  70
1
  66
1
  0
VERTEX
  8
Unknown_Area_Type
  10
334091.863
  20
4651717.563
  0
VERTEX
  8
Unknown_Area_Type
  10
332635.698
  20
4651751.588
  0
VERTEX
  8
Unknown_Area_Type
  10
331037.851
  20
4651789.703
  0
VERTEX
  8
Unknown_Area_Type
  10
330980.500
  20
4649499.000
  0
VERTEX
  8
Unknown_Area_Type
  10
331535.500
  20
4649213.000
  0
VERTEX
  8
Unknown_Area_Type
  10
334047.000
  20
4649381.000
  0
VERTEX
  8
Unknown_Area_Type
  10
334091.863
  20
4651717.563
  0
SEQEND
  8
Unknown_Area_Type
  0
INSERT
  8
FeatureAttribs
  2
FEATURE
  41
1
  42
1
  43
1
  50
0
  10
326553.507
  20
4651976.426
 66
1
  0
ATTRIB
  8
FeatureAttribs
 70
0
  1
PNOA-H_AMS_1956-57_33k_ES_PAN_2
  2
NAME
  10
326553.507
  20
4651976.426
 40
33.99257
  0
SEQEND
  0
POLYLINE
  8
Unknown_Area_Type
  70
1
  66
1
  0
VERTEX
  8
Unknown_Area_Type
  10
328042.394
  20
4652090.973
  0
VERTEX
  8
Unknown_Area_Type
  10
328035.540
  20
4651861.880
  0
VERTEX
  8
Unknown_Area_Type
  10
325733.754
  20
4651917.908
  0
VERTEX
  8
Unknown_Area_Type
  10
325066.574
  20
4651934.473
  0
VERTEX
  8
Unknown_Area_Type
  10
325072.072
  20
4652090.973
  0
VERTEX
  8
Unknown_Area_Type
  10
328042.394
  20
4652090.973
  0
SEQEND
  8
Unknown_Area_Type
  0
INSERT
  8
FeatureAttribs
  2
FEATURE
  41
1
  42
1
  43
1
  50
0
  10
326501.420
  20
4650668.816
 66
1
  0
ATTRIB
  8
FeatureAttribs
 70
0
  1
PNOA-H_AMS_1956-57_33k_ES_PAN_2
  2
NAME
  10
326501.420
  20
4650668.816
 40
33.99257
  0
SEQEND
  0
POLYLINE
  8
Unknown_Area_Type
  70
1
  66
1
  0
VERTEX
  8
Unknown_Area_Type
  10
328035.540
  20
4651861.880
  0
VERTEX
  8
Unknown_Area_Type
  10
327966.500
  20
4649554.500
  0
VERTEX
  8
Unknown_Area_Type
  10
325819.500
  20
4649298.000
  0
VERTEX
  8
Unknown_Area_Type
  10
324987.500
  20
4649683.500
  0
VERTEX
  8
Unknown_Area_Type
  10
325066.574
  20
4651934.473
  0
VERTEX
  8
Unknown_Area_Type
  10
325733.754
  20
4651917.908
  0
VERTEX
  8
Unknown_Area_Type
  10
328035.540
  20
4651861.880
  0
SEQEND
  8
Unknown_Area_Type
  0
INSERT
  8
FeatureAttribs
  2
FEATURE
  41
1
  42
1
  43
1
  50
0
  10
326501.420
  20
4650668.816
 66
1
  0
ATTRIB
  8
FeatureAttribs
 70
0
  1
PNOA-H_AMS_1956-57_33k_ES_PAN_2
  2
NAME
  10
326501.420
  20
4650668.816
 40
33.99257
  0
SEQEND
  0
POLYLINE
  8
Unknown_Area_Type
  70
1
  66
1
  0
VERTEX
  8
Unknown_Area_Type
  10
328035.540
  20
4651861.880
  0
VERTEX
  8
Unknown_Area_Type
  10
325733.754
  20
4651917.908
  0
VERTEX
  8
Unknown_Area_Type
  10
325066.574
  20
4651934.473
  0
VERTEX
  8
Unknown_Area_Type
  10
324987.500
  20
4649683.500
  0
VERTEX
  8
Unknown_Area_Type
  10
325819.500
  20
4649298.000
  0
VERTEX
  8
Unknown_Area_Type
  10
327966.500
  20
4649554.500
  0
VERTEX
  8
Unknown_Area_Type
  10
328035.540
  20
4651861.880
  0
SEQEND
  8
Unknown_Area_Type
  0
INSERT
  8
FeatureAttribs
  2
FEATURE
  41
1
  42
1
  43
1
  50
0
  10
321245.437
  20
4652050.240
 66
1
  0
ATTRIB
  8
FeatureAttribs
 70
0
  1
PNOA-H_AMS_1956-57_33k_ES_PAN_2
  2
NAME
  10
321245.437
  20
4652050.240
 40
33.99257
  0
SEQEND
  0
POLYLINE
  8
Unknown_Area_Type
  70
1
  66
1
  0
VERTEX
  8
Unknown_Area_Type
  10
322052.618
  20
4652090.973
  0
VERTEX
  8
Unknown_Area_Type
  10
322049.059
  20
4652009.506
  0
VERTEX
  8
Unknown_Area_Type
  10
319014.603
  20
4652086.325
  0
VERTEX
  8
Unknown_Area_Type
  10
319014.802
  20
4652090.973
  0
VERTEX
  8
Unknown_Area_Type
  10
322052.618
  20
4652090.973
  0
SEQEND
  8
Unknown_Area_Type
  0
INSERT
  8
FeatureAttribs
  2
FEATURE
  41
1
  42
1
  43
1
  50
0
  10
320480.268
  20
4650873.378
 66
1
  0
ATTRIB
  8
FeatureAttribs
 70
0
  1
PNOA-H_AMS_1956-57_33k_ES_PAN_2
  2
NAME
  10
320480.268
  20
4650873.378
 40
33.99257
  0
SEQEND
  0
POLYLINE
  8
Unknown_Area_Type
  70
1
  66
1
  0
VERTEX
  8
Unknown_Area_Type
  10
322049.059
  20
4652009.506
  0
VERTEX
  8
Unknown_Area_Type
  10
321954.000
  20
4649834.000
  0
VERTEX
  8
Unknown_Area_Type
  10
320097.500
  20
4649513.500
  0
VERTEX
  8
Unknown_Area_Type
  10
320084.000
  20
4649512.000
  0
VERTEX
  8
Unknown_Area_Type
  10
318925.000
  20
4649998.000
  0
VERTEX
  8
Unknown_Area_Type
  10
319014.603
  20
4652086.325
  0
VERTEX
  8
Unknown_Area_Type
  10
322049.059
  20
4652009.506
  0
SEQEND
  8
Unknown_Area_Type
  0
INSERT
  8
FeatureAttribs
  2
FEATURE
  41
1
  42
1
  43
1
  50
0
  10
320480.268
  20
4650873.378
 66
1
  0
ATTRIB
  8
FeatureAttribs
 70
0
  1
PNOA-H_AMS_1956-57_33k_ES_PAN_2
  2
NAME
  10
320480.268
  20
4650873.378
 40
33.99257
  0
SEQEND
  0
POLYLINE
  8
Unknown_Area_Type
  70
1
  66
1
  0
VERTEX
  8
Unknown_Area_Type
  10
322049.059
  20
4652009.506
  0
VERTEX
  8
Unknown_Area_Type
  10
319014.603
  20
4652086.325
  0
VERTEX
  8
Unknown_Area_Type
  10
318925.000
  20
4649998.000
  0
VERTEX
  8
Unknown_Area_Type
  10
320084.000
  20
4649512.000
  0
VERTEX
  8
Unknown_Area_Type
  10
320097.500
  20
4649513.500
  0
VERTEX
  8
Unknown_Area_Type
  10
321954.000
  20
4649834.000
  0
VERTEX
  8
Unknown_Area_Type
  10
322049.059
  20
4652009.506
  0
SEQEND
  8
Unknown_Area_Type
  0
INSERT
  8
FeatureAttribs
  2
FEATURE
  41
1
  42
1
  43
1
  50
0
  10
346300.777
  20
4651765.051
 66
1
  0
ATTRIB
  8
FeatureAttribs
 70
0
  1
PNOA-H_AMS_1956-57_33k_ES_PAN_2
  2
NAME
  10
346300.777
  20
4651765.051
 40
33.99257
  0
SEQEND
  0
POLYLINE
  8
Unknown_Area_Type
  70
1
  66
1
  0
VERTEX
  8
Unknown_Area_Type
  10
346166.310
  20
4652090.973
  0
VERTEX
  8
Unknown_Area_Type
  10
346439.502
  20
4652090.973
  0
VERTEX
  8
Unknown_Area_Type
  10
346439.502
  20
4651440.424
  0
VERTEX
  8
Unknown_Area_Type
  10
346439.474
  20
4651439.128
  0
VERTEX
  8
Unknown_Area_Type
  10
346157.874
  20
4651445.296
  0
VERTEX
  8
Unknown_Area_Type
  10
346166.310
  20
4652090.973
  0
SEQEND
  8
Unknown_Area_Type
  0
INSERT
  8
FeatureAttribs
  2
FEATURE
  41
1
  42
1
  43
1
  50
0
  10
346439.488
  20
4651439.452
 66
1
  0
ATTRIB
  8
FeatureAttribs
 70
0
  1
PNOA-H_AMS_1956-57_33k_ES_PAN_2
  2
NAME
  10
346439.488
  20
4651439.452
 40
33.99257
  0
SEQEND
  0
POLYLINE
  8
Unknown_Area_Type
  70
1
  66
1
  0
VERTEX
  8
Unknown_Area_Type
  10
346439.502
  20
4651440.424
  0
VERTEX
  8
Unknown_Area_Type
  10
346439.502
  20
4651439.127
  0
VERTEX
  8
Unknown_Area_Type
  10
346439.474
  20
4651439.128
  0
VERTEX
  8
Unknown_Area_Type
  10
346439.502
  20
4651440.424
  0
SEQEND
  8
Unknown_Area_Type
  0
INSERT
  8
FeatureAttribs
  2
FEATURE
  41
1
  42
1
  43
1
  50
0
  10
346426.457
  20
4650235.656
 66
1
  0
ATTRIB
  8
FeatureAttribs
 70
0
  1
PNOA-H_AMS_1956-57_33k_ES_PAN_2
  2
NAME
  10
346426.457
  20
4650235.656
 40
33.99257
  0
SEQEND
  0
POLYLINE
  8
Unknown_Area_Type
  70
1
  66
1
  0
VERTEX
  8
Unknown_Area_Type
  10
346439.502
  20
4649032.742
  0
VERTEX
  8
Unknown_Area_Type
  10
346387.348
  20
4649032.184
  0
VERTEX
  8
Unknown_Area_Type
  10
346389.376
  20
4649125.902
  0
VERTEX
  8
Unknown_Area_Type
  10
346439.474
  20
4651439.128
  0
VERTEX
  8
Unknown_Area_Type
  10
346439.502
  20
4651439.127
  0
VERTEX
  8
Unknown_Area_Type
  10
346439.502
  20
4649032.742
  0
SEQEND
  8
Unknown_Area_Type
  0
INSERT
  8
FeatureAttribs
  2
FEATURE
  41
1
  42
1
  43
1
  50
0
  10
346279.004
  20
4650264.433
 66
1
  0
ATTRIB
  8
FeatureAttribs
 70
0
  1
PNOA-H_AMS_1956-57_33k_ES_PAN_2
  2
NAME
  10
346279.004
  20
4650264.433
 40
33.99257
  0
SEQEND
  0
POLYLINE
  8
Unknown_Area_Type
  70
1
  66
1
  0
VERTEX
  8
Unknown_Area_Type
  10
346387.348
  20
4649032.184
  0
VERTEX
  8
Unknown_Area_Type
  10
346276.500
  20
4649031.000
  0
VERTEX
  8
Unknown_Area_Type
  10
346127.500
  20
4649120.500
  0
VERTEX
  8
Unknown_Area_Type
  10
346157.874
  20
4651445.296
  0
VERTEX
  8
Unknown_Area_Type
  10
346439.474
  20
4651439.128
  0
VERTEX
  8
Unknown_Area_Type
  10
346389.376
  20
4649125.902
  0
VERTEX
  8
Unknown_Area_Type
  10
346387.348
  20
4649032.184
  0
SEQEND
  8
Unknown_Area_Type
  0
INSERT
  8
FeatureAttribs
  2
FEATURE
  41
1
  42
1
  43
1
  50
0
  10
346279.004
  20
4650264.433
 66
1
  0
ATTRIB
  8
FeatureAttribs
 70
0
  1
PNOA-H_AMS_1956-57_33k_ES_PAN_2
  2
NAME
  10
346279.004
  20
4650264.433
 40
33.99257
  0
SEQEND
  0
POLYLINE
  8
Unknown_Area_Type
  70
1
  66
1
  0
VERTEX
  8
Unknown_Area_Type
  10
346387.348
  20
4649032.184
  0
VERTEX
  8
Unknown_Area_Type
  10
346389.376
  20
4649125.902
  0
VERTEX
  8
Unknown_Area_Type
  10
346439.474
  20
4651439.128
  0
VERTEX
  8
Unknown_Area_Type
  10
346157.874
  20
4651445.296
  0
VERTEX
  8
Unknown_Area_Type
  10
346127.500
  20
4649120.500
  0
VERTEX
  8
Unknown_Area_Type
  10
346276.500
  20
4649031.000
  0
VERTEX
  8
Unknown_Area_Type
  10
346387.348
  20
4649032.184
  0
SEQEND
  8
Unknown_Area_Type
  0
INSERT
  8
FeatureAttribs
  2
FEATURE
  41
1
  42
1
  43
1
  50
0
  10
343825.735
  20
4644296.545
 66
1
  0
ATTRIB
  8
FeatureAttribs
 70
0
  1
PNOA-H_AMS_1956-57_33k_ES_PAN_2
  2
NAME
  10
343825.735
  20
4644296.545
 40
33.99257
  0
SEQEND
  0
POLYLINE
  8
Unknown_Area_Type
  70
1
  66
1
  0
VERTEX
  8
Unknown_Area_Type
  10
342381.000
  20
4645099.500
  0
VERTEX
  8
Unknown_Area_Type
  10
343176.000
  20
4645747.500
  0
VERTEX
  8
Unknown_Area_Type
  10
343176.500
  20
4645748.500
  0
VERTEX
  8
Unknown_Area_Type
  10
345355.500
  20
4645028.000
  0
VERTEX
  8
Unknown_Area_Type
  10
345345.000
  20
4643463.000
  0
VERTEX
  8
Unknown_Area_Type
  10
345170.500
  20
4643248.500
  0
VERTEX
  8
Unknown_Area_Type
  10
344442.000
  20
4643076.000
  0
VERTEX
  8
Unknown_Area_Type
  10
342547.500
  20
4643234.500
  0
VERTEX
  8
Unknown_Area_Type
  10
342543.000
  20
4643238.000
  0
VERTEX
  8
Unknown_Area_Type
  10
342375.500
  20
4643415.500
  0
VERTEX
  8
Unknown_Area_Type
  10
342381.000
  20
4645099.500
  0
SEQEND
  8
Unknown_Area_Type
  0
INSERT
  8
FeatureAttribs
  2
FEATURE
  41
1
  42
1
  43
1
  50
0
  10
343825.735
  20
4644296.545
 66
1
  0
ATTRIB
  8
FeatureAttribs
 70
0
  1
PNOA-H_AMS_1956-57_33k_ES_PAN_2
  2
NAME
  10
343825.735
  20
4644296.545
 40
33.99257
  0
SEQEND
  0
POLYLINE
  8
Unknown_Area_Type
  70
1
  66
1
  0
VERTEX
  8
Unknown_Area_Type
  10
342381.000
  20
4645099.500
  0
VERTEX
  8
Unknown_Area_Type
  10
342375.500
  20
4643415.500
  0
VERTEX
  8
Unknown_Area_Type
  10
342543.000
  20
4643238.000
  0
VERTEX
  8
Unknown_Area_Type
  10
342547.500
  20
4643234.500
  0
VERTEX
  8
Unknown_Area_Type
  10
344442.000
  20
4643076.000
  0
VERTEX
  8
Unknown_Area_Type
  10
345170.500
  20
4643248.500
  0
VERTEX
  8
Unknown_Area_Type
  10
345345.000
  20
4643463.000
  0
VERTEX
  8
Unknown_Area_Type
  10
345355.500
  20
4645028.000
  0
VERTEX
  8
Unknown_Area_Type
  10
343176.500
  20
4645748.500
  0
VERTEX
  8
Unknown_Area_Type
  10
343176.000
  20
4645747.500
  0
VERTEX
  8
Unknown_Area_Type
  10
342381.000
  20
4645099.500
  0
SEQEND
  8
Unknown_Area_Type
  0
INSERT
  8
FeatureAttribs
  2
FEATURE
  41
1
  42
1
  43
1
  50
0
  10
321420.554
  20
4647309.428
 66
1
  0
ATTRIB
  8
FeatureAttribs
 70
0
  1
PNOA-H_AMS_1956-57_33k_ES_PAN_2
  2
NAME
  10
321420.554
  20
4647309.428
 40
33.99257
  0
SEQEND
  0
POLYLINE
  8
Unknown_Area_Type
  70
1
  66
1
  0
VERTEX
  8
Unknown_Area_Type
  10
321952.000
  20
4649834.000
  0
VERTEX
  8
Unknown_Area_Type
  10
321957.000
  20
4649833.000
  0
VERTEX
  8
Unknown_Area_Type
  10
322975.500
  20
4649383.000
  0
VERTEX
  8
Unknown_Area_Type
  10
322749.000
  20
4644954.000
  0
VERTEX
  8
Unknown_Area_Type
  10
320074.000
  20
4644971.500
  0
VERTEX
  8
Unknown_Area_Type
  10
319851.000
  20
4645115.000
  0
VERTEX
  8
Unknown_Area_Type
  10
320085.500
  20
4649512.000
  0
VERTEX
  8
Unknown_Area_Type
  10
321949.000
  20
4649833.500
  0
VERTEX
  8
Unknown_Area_Type
  10
321952.000
  20
4649834.000
  0
SEQEND
  8
Unknown_Area_Type
  0
INSERT
  8
FeatureAttribs
  2
FEATURE
  41
1
  42
1
  43
1
  50
0
  10
321420.554
  20
4647309.428
 66
1
  0
ATTRIB
  8
FeatureAttribs
 70
0
  1
PNOA-H_AMS_1956-57_33k_ES_PAN_2
  2
NAME
  10
321420.554
  20
4647309.428
 40
33.99257
  0
SEQEND
  0
POLYLINE
  8
Unknown_Area_Type
  70
1
  66
1
  0
VERTEX
  8
Unknown_Area_Type
  10
321952.000
  20
4649834.000
  0
VERTEX
  8
Unknown_Area_Type
  10
321949.000
  20
4649833.500
  0
VERTEX
  8
Unknown_Area_Type
  10
320085.500
  20
4649512.000
  0
VERTEX
  8
Unknown_Area_Type
  10
319851.000
  20
4645115.000
  0
VERTEX
  8
Unknown_Area_Type
  10
320074.000
  20
4644971.500
  0
VERTEX
  8
Unknown_Area_Type
  10
322749.000
  20
4644954.000
  0
VERTEX
  8
Unknown_Area_Type
  10
322975.500
  20
4649383.000
  0
VERTEX
  8
Unknown_Area_Type
  10
321957.000
  20
4649833.000
  0
VERTEX
  8
Unknown_Area_Type
  10
321952.000
  20
4649834.000
  0
SEQEND
  8
Unknown_Area_Type
  0
INSERT
  8
FeatureAttribs
  2
FEATURE
  41
1
  42
1
  43
1
  50
0
  10
318537.282
  20
4647522.692
 66
1
  0
ATTRIB
  8
FeatureAttribs
 70
0
  1
PNOA-H_AMS_1956-57_33k_ES_PAN_2
  2
NAME
  10
318537.282
  20
4647522.692
 40
33.99257
  0
SEQEND
  0
POLYLINE
  8
Unknown_Area_Type
  70
1
  66
1
  0
VERTEX
  8
Unknown_Area_Type
  10
318652.818
  20
4645085.172
  0
VERTEX
  8
Unknown_Area_Type
  10
318359.508
  20
4645077.870
  0
VERTEX
  8
Unknown_Area_Type
  10
318359.508
  20
4649881.409
  0
VERTEX
  8
Unknown_Area_Type
  10
318777.509
  20
4649967.515
  0
VERTEX
  8
Unknown_Area_Type
  10
318772.658
  20
4649777.677
  0
VERTEX
  8
Unknown_Area_Type
  10
318713.568
  20
4647464.408
  0
VERTEX
  8
Unknown_Area_Type
  10
318654.502
  20
4645151.146
  0
VERTEX
  8
Unknown_Area_Type
  10
318652.818
  20
4645085.172
  0
SEQEND
  8
Unknown_Area_Type
  0
INSERT
  8
FeatureAttribs
  2
FEATURE
  41
1
  42
1
  43
1
  50
0
  10
319332.158
  20
4647482.593
 66
1
  0
ATTRIB
  8
FeatureAttribs
 70
0
  1
PNOA-H_AMS_1956-57_33k_ES_PAN_2
  2
NAME
  10
319332.158
  20
4647482.593
 40
33.99257
  0
SEQEND
  0
POLYLINE
  8
Unknown_Area_Type
  70
1
  66
1
  0
VERTEX
  8
Unknown_Area_Type
  10
318777.509
  20
4649967.515
  0
VERTEX
  8
Unknown_Area_Type
  10
318925.500
  20
4649998.000
  0
VERTEX
  8
Unknown_Area_Type
  10
320085.500
  20
4649512.000
  0
VERTEX
  8
Unknown_Area_Type
  10
319851.000
  20
4645115.000
  0
VERTEX
  8
Unknown_Area_Type
  10
318652.818
  20
4645085.172
  0
VERTEX
  8
Unknown_Area_Type
  10
318654.502
  20
4645151.146
  0
VERTEX
  8
Unknown_Area_Type
  10
318713.568
  20
4647464.408
  0
VERTEX
  8
Unknown_Area_Type
  10
318772.658
  20
4649777.677
  0
VERTEX
  8
Unknown_Area_Type
  10
318777.509
  20
4649967.515
  0
SEQEND
  8
Unknown_Area_Type
  0
INSERT
  8
FeatureAttribs
  2
FEATURE
  41
1
  42
1
  43
1
  50
0
  10
319332.158
  20
4647482.593
 66
1
  0
ATTRIB
  8
FeatureAttribs
 70
0
  1
PNOA-H_AMS_1956-57_33k_ES_PAN_2
  2
NAME
  10
319332.158
  20
4647482.593
 40
33.99257
  0
SEQEND
  0
POLYLINE
  8
Unknown_Area_Type
  70
1
  66
1
  0
VERTEX
  8
Unknown_Area_Type
  10
318777.509
  20
4649967.515
  0
VERTEX
  8
Unknown_Area_Type
  10
318772.658
  20
4649777.677
  0
VERTEX
  8
Unknown_Area_Type
  10
318713.568
  20
4647464.408
  0
VERTEX
  8
Unknown_Area_Type
  10
318654.502
  20
4645151.146
  0
VERTEX
  8
Unknown_Area_Type
  10
318652.818
  20
4645085.172
  0
VERTEX
  8
Unknown_Area_Type
  10
319851.000
  20
4645115.000
  0
VERTEX
  8
Unknown_Area_Type
  10
320085.500
  20
4649512.000
  0
VERTEX
  8
Unknown_Area_Type
  10
318925.500
  20
4649998.000
  0
VERTEX
  8
Unknown_Area_Type
  10
318777.509
  20
4649967.515
  0
SEQEND
  8
Unknown_Area_Type
  0
INSERT
  8
FeatureAttribs
  2
FEATURE
  41
1
  42
1
  43
1
  50
0
  10
327198.793
  20
4647049.005
 66
1
  0
ATTRIB
  8
FeatureAttribs
 70
0
  1
PNOA-H_AMS_1956-57_33k_ES_PAN_2
  2
NAME
  10
327198.793
  20
4647049.005
 40
33.99257
  0
SEQEND
  0
POLYLINE
  8
Unknown_Area_Type
  70
1
  66
1
  0
VERTEX
  8
Unknown_Area_Type
  10
327963.000
  20
4649554.500
  0
VERTEX
  8
Unknown_Area_Type
  10
327967.000
  20
4649554.500
  0
VERTEX
  8
Unknown_Area_Type
  10
327970.500
  20
4649553.000
  0
VERTEX
  8
Unknown_Area_Type
  10
328656.000
  20
4649229.500
  0
VERTEX
  8
Unknown_Area_Type
  10
328592.000
  20
4644738.500
  0
VERTEX
  8
Unknown_Area_Type
  10
328349.500
  20
4644605.500
  0
VERTEX
  8
Unknown_Area_Type
  10
325669.000
  20
4644808.500
  0
VERTEX
  8
Unknown_Area_Type
  10
325820.000
  20
4649298.000
  0
VERTEX
  8
Unknown_Area_Type
  10
327958.500
  20
4649554.000
  0
VERTEX
  8
Unknown_Area_Type
  10
327963.000
  20
4649554.500
  0
SEQEND
  8
Unknown_Area_Type
  0
INSERT
  8
FeatureAttribs
  2
FEATURE
  41
1
  42
1
  43
1
  50
0
  10
327198.793
  20
4647049.005
 66
1
  0
ATTRIB
  8
FeatureAttribs
 70
0
  1
PNOA-H_AMS_1956-57_33k_ES_PAN_2
  2
NAME
  10
327198.793
  20
4647049.005
 40
33.99257
  0
SEQEND
  0
POLYLINE
  8
Unknown_Area_Type
  70
1
  66
1
  0
VERTEX
  8
Unknown_Area_Type
  10
327963.000
  20
4649554.500
  0
VERTEX
  8
Unknown_Area_Type
  10
327958.500
  20
4649554.000
  0
VERTEX
  8
Unknown_Area_Type
  10
325820.000
  20
4649298.000
  0
VERTEX
  8
Unknown_Area_Type
  10
325669.000
  20
4644808.500
  0
VERTEX
  8
Unknown_Area_Type
  10
328349.500
  20
4644605.500
  0
VERTEX
  8
Unknown_Area_Type
  10
328592.000
  20
4644738.500
  0
VERTEX
  8
Unknown_Area_Type
  10
328656.000
  20
4649229.500
  0
VERTEX
  8
Unknown_Area_Type
  10
327970.500
  20
4649553.000
  0
VERTEX
  8
Unknown_Area_Type
  10
327967.000
  20
4649554.500
  0
VERTEX
  8
Unknown_Area_Type
  10
327963.000
  20
4649554.500
  0
SEQEND
  8
Unknown_Area_Type
  0
INSERT
  8
FeatureAttribs
  2
FEATURE
  41
1
  42
1
  43
1
  50
0
  10
346363.476
  20
4644416.594
 66
1
  0
ATTRIB
  8
FeatureAttribs
 70
0
  1
PNOA-H_AMS_1956-57_33k_ES_PAN_2
  2
NAME
  10
346363.476
  20
4644416.594
 40
33.99257
  0
SEQEND
  0
POLYLINE
  8
Unknown_Area_Type
  70
1
  66
1
  0
VERTEX
  8
Unknown_Area_Type
  10
346439.502
  20
4645613.176
  0
VERTEX
  8
Unknown_Area_Type
  10
346439.502
  20
4643175.992
  0
VERTEX
  8
Unknown_Area_Type
  10
346261.624
  20
4643222.700
  0
VERTEX
  8
Unknown_Area_Type
  10
346289.242
  20
4644499.472
  0
VERTEX
  8
Unknown_Area_Type
  10
346314.295
  20
4645657.196
  0
VERTEX
  8
Unknown_Area_Type
  10
346439.502
  20
4645613.176
  0
SEQEND
  8
Unknown_Area_Type
  0
INSERT
  8
FeatureAttribs
  2
FEATURE
  41
1
  42
1
  43
1
  50
0
  10
345856.551
  20
4644403.267
 66
1
  0
ATTRIB
  8
FeatureAttribs
 70
0
  1
PNOA-H_AMS_1956-57_33k_ES_PAN_2
  2
NAME
  10
345856.551
  20
4644403.267
 40
33.99257
  0
SEQEND
  0
POLYLINE
  8
Unknown_Area_Type
  70
1
  66
1
  0
VERTEX
  8
Unknown_Area_Type
  10
346314.295
  20
4645657.196
  0
VERTEX
  8
Unknown_Area_Type
  10
346289.242
  20
4644499.472
  0
VERTEX
  8
Unknown_Area_Type
  10
346261.624
  20
4643222.700
  0
VERTEX
  8
Unknown_Area_Type
  10
345346.500
  20
4643463.000
  0
VERTEX
  8
Unknown_Area_Type
  10
345345.000
  20
4643463.500
  0
VERTEX
  8
Unknown_Area_Type
  10
345345.000
  20
4643471.500
  0
VERTEX
  8
Unknown_Area_Type
  10
345355.500
  20
4645028.000
  0
VERTEX
  8
Unknown_Area_Type
  10
346138.500
  20
4645719.000
  0
VERTEX
  8
Unknown_Area_Type
  10
346314.295
  20
4645657.196
  0
SEQEND
  8
Unknown_Area_Type
  0
INSERT
  8
FeatureAttribs
  2
FEATURE
  41
1
  42
1
  43
1
  50
0
  10
345856.551
  20
4644403.267
 66
1
  0
ATTRIB
  8
FeatureAttribs
 70
0
  1
PNOA-H_AMS_1956-57_33k_ES_PAN_2
  2
NAME
  10
345856.551
  20
4644403.267
 40
33.99257
  0
SEQEND
  0
POLYLINE
  8
Unknown_Area_Type
  70
1
  66
1
  0
VERTEX
  8
Unknown_Area_Type
  10
346314.295
  20
4645657.196
  0
VERTEX
  8
Unknown_Area_Type
  10
346138.500
  20
4645719.000
  0
VERTEX
  8
Unknown_Area_Type
  10
345355.500
  20
4645028.000
  0
VERTEX
  8
Unknown_Area_Type
  10
345345.000
  20
4643471.500
  0
VERTEX
  8
Unknown_Area_Type
  10
345345.000
  20
4643463.500
  0
VERTEX
  8
Unknown_Area_Type
  10
345346.500
  20
4643463.000
  0
VERTEX
  8
Unknown_Area_Type
  10
346261.624
  20
4643222.700
  0
VERTEX
  8
Unknown_Area_Type
  10
346289.242
  20
4644499.472
  0
VERTEX
  8
Unknown_Area_Type
  10
346314.295
  20
4645657.196
  0
SEQEND
  8
Unknown_Area_Type
  0
INSERT
  8
FeatureAttribs
  2
FEATURE
  41
1
  42
1
  43
1
  50
0
  10
332951.862
  20
4646908.445
 66
1
  0
ATTRIB
  8
FeatureAttribs
 70
0
  1
PNOA-H_AMS_1956-57_33k_ES_PAN_2
  2
NAME
  10
332951.862
  20
4646908.445
 40
33.99257
  0
SEQEND
  0
POLYLINE
  8
Unknown_Area_Type
  70
1
  66
1
  0
VERTEX
  8
Unknown_Area_Type
  10
334044.500
  20
4649381.000
  0
VERTEX
  8
Unknown_Area_Type
  10
334047.500
  20
4649381.000
  0
VERTEX
  8
Unknown_Area_Type
  10
334055.000
  20
4649377.000
  0
VERTEX
  8
Unknown_Area_Type
  10
334378.500
  20
4649198.500
  0
VERTEX
  8
Unknown_Area_Type
  10
334376.000
  20
4644650.500
  0
VERTEX
  8
Unknown_Area_Type
  10
333888.000
  20
4644403.500
  0
VERTEX
  8
Unknown_Area_Type
  10
331449.500
  20
4644695.500
  0
VERTEX
  8
Unknown_Area_Type
  10
331536.000
  20
4649213.000
  0
VERTEX
  8
Unknown_Area_Type
  10
334037.000
  20
4649380.500
  0
VERTEX
  8
Unknown_Area_Type
  10
334044.500
  20
4649381.000
  0
SEQEND
  8
Unknown_Area_Type
  0
INSERT
  8
FeatureAttribs
  2
FEATURE
  41
1
  42
1
  43
1
  50
0
  10
332951.862
  20
4646908.445
 66
1
  0
ATTRIB
  8
FeatureAttribs
 70
0
  1
PNOA-H_AMS_1956-57_33k_ES_PAN_2
  2
NAME
  10
332951.862
  20
4646908.445
 40
33.99257
  0
SEQEND
  0
POLYLINE
  8
Unknown_Area_Type
  70
1
  66
1
  0
VERTEX
  8
Unknown_Area_Type
  10
334044.500
  20
4649381.000
  0
VERTEX
  8
Unknown_Area_Type
  10
334037.000
  20
4649380.500
  0
VERTEX
  8
Unknown_Area_Type
  10
331536.000
  20
4649213.000
  0
VERTEX
  8
Unknown_Area_Type
  10
331449.500
  20
4644695.500
  0
VERTEX
  8
Unknown_Area_Type
  10
333888.000
  20
4644403.500
  0
VERTEX
  8
Unknown_Area_Type
  10
334376.000
  20
4644650.500
  0
VERTEX
  8
Unknown_Area_Type
  10
334378.500
  20
4649198.500
  0
VERTEX
  8
Unknown_Area_Type
  10
334055.000
  20
4649377.000
  0
VERTEX
  8
Unknown_Area_Type
  10
334047.500
  20
4649381.000
  0
VERTEX
  8
Unknown_Area_Type
  10
334044.500
  20
4649381.000
  0
SEQEND
  8
Unknown_Area_Type
  0
INSERT
  8
FeatureAttribs
  2
FEATURE
  41
1
  42
1
  43
1
  50
0
  10
341784.620
  20
4647307.921
 66
1
  0
ATTRIB
  8
FeatureAttribs
 70
0
  1
PNOA-H_AMS_1956-57_33k_ES_PAN_2
  2
NAME
  10
341784.620
  20
4647307.921
 40
33.99257
  0
SEQEND
  0
POLYLINE
  8
Unknown_Area_Type
  70
1
  66
1
  0
VERTEX
  8
Unknown_Area_Type
  10
342917.500
  20
4649186.000
  0
VERTEX
  8
Unknown_Area_Type
  10
343197.000
  20
4649186.000
  0
VERTEX
  8
Unknown_Area_Type
  10
343281.500
  20
4649135.500
  0
VERTEX
  8
Unknown_Area_Type
  10
343177.000
  20
4645748.500
  0
VERTEX
  8
Unknown_Area_Type
  10
342381.000
  20
4645099.000
  0
VERTEX
  8
Unknown_Area_Type
  10
340252.000
  20
4645797.000
  0
VERTEX
  8
Unknown_Area_Type
  10
340354.000
  20
4649183.500
  0
VERTEX
  8
Unknown_Area_Type
  10
342358.000
  20
4649185.500
  0
VERTEX
  8
Unknown_Area_Type
  10
342917.500
  20
4649186.000
  0
SEQEND
  8
Unknown_Area_Type
  0
INSERT
  8
FeatureAttribs
  2
FEATURE
  41
1
  42
1
  43
1
  50
0
  10
341784.620
  20
4647307.921
 66
1
  0
ATTRIB
  8
FeatureAttribs
 70
0
  1
PNOA-H_AMS_1956-57_33k_ES_PAN_2
  2
NAME
  10
341784.620
  20
4647307.921
 40
33.99257
  0
SEQEND
  0
POLYLINE
  8
Unknown_Area_Type
  70
1
  66
1
  0
VERTEX
  8
Unknown_Area_Type
  10
342917.500
  20
4649186.000
  0
VERTEX
  8
Unknown_Area_Type
  10
342358.000
  20
4649185.500
  0
VERTEX
  8
Unknown_Area_Type
  10
340354.000
  20
4649183.500
  0
VERTEX
  8
Unknown_Area_Type
  10
340252.000
  20
4645797.000
  0
VERTEX
  8
Unknown_Area_Type
  10
342381.000
  20
4645099.000
  0
VERTEX
  8
Unknown_Area_Type
  10
343177.000
  20
4645748.500
  0
VERTEX
  8
Unknown_Area_Type
  10
343281.500
  20
4649135.500
  0
VERTEX
  8
Unknown_Area_Type
  10
343197.000
  20
4649186.000
  0
VERTEX
  8
Unknown_Area_Type
  10
342917.500
  20
4649186.000
  0
SEQEND
  8
Unknown_Area_Type
  0
INSERT
  8
FeatureAttribs
  2
FEATURE
  41
1
  42
1
  43
1
  50
0
  10
335864.091
  20
4646891.325
 66
1
  0
ATTRIB
  8
FeatureAttribs
 70
0
  1
PNOA-H_AMS_1956-57_33k_ES_PAN_2
  2
NAME
  10
335864.091
  20
4646891.325
 40
33.99257
  0
SEQEND
  0
POLYLINE
  8
Unknown_Area_Type
  70
1
  66
1
  0
VERTEX
  8
Unknown_Area_Type
  10
337067.500
  20
4649330.500
  0
VERTEX
  8
Unknown_Area_Type
  10
337073.000
  20
4649330.000
  0
VERTEX
  8
Unknown_Area_Type
  10
337340.000
  20
4649177.500
  0
VERTEX
  8
Unknown_Area_Type
  10
337313.500
  20
4644684.000
  0
VERTEX
  8
Unknown_Area_Type
  10
336639.000
  20
4644369.000
  0
VERTEX
  8
Unknown_Area_Type
  10
334376.000
  20
4644650.500
  0
VERTEX
  8
Unknown_Area_Type
  10
334378.500
  20
4649198.000
  0
VERTEX
  8
Unknown_Area_Type
  10
337057.500
  20
4649330.000
  0
VERTEX
  8
Unknown_Area_Type
  10
337067.500
  20
4649330.500
  0
SEQEND
  8
Unknown_Area_Type
  0
INSERT
  8
FeatureAttribs
  2
FEATURE
  41
1
  42
1
  43
1
  50
0
  10
335864.091
  20
4646891.325
 66
1
  0
ATTRIB
  8
FeatureAttribs
 70
0
  1
PNOA-H_AMS_1956-57_33k_ES_PAN_2
  2
NAME
  10
335864.091
  20
4646891.325
 40
33.99257
  0
SEQEND
  0
POLYLINE
  8
Unknown_Area_Type
  70
1
  66
1
  0
VERTEX
  8
Unknown_Area_Type
  10
337067.500
  20
4649330.500
  0
VERTEX
  8
Unknown_Area_Type
  10
337057.500
  20
4649330.000
  0
VERTEX
  8
Unknown_Area_Type
  10
334378.500
  20
4649198.000
  0
VERTEX
  8
Unknown_Area_Type
  10
334376.000
  20
4644650.500
  0
VERTEX
  8
Unknown_Area_Type
  10
336639.000
  20
4644369.000
  0
VERTEX
  8
Unknown_Area_Type
  10
337313.500
  20
4644684.000
  0
VERTEX
  8
Unknown_Area_Type
  10
337340.000
  20
4649177.500
  0
VERTEX
  8
Unknown_Area_Type
  10
337073.000
  20
4649330.000
  0
VERTEX
  8
Unknown_Area_Type
  10
337067.500
  20
4649330.500
  0
SEQEND
  8
Unknown_Area_Type
  0
INSERT
  8
FeatureAttribs
  2
FEATURE
  41
1
  42
1
  43
1
  50
0
  10
324316.819
  20
4647155.978
 66
1
  0
ATTRIB
  8
FeatureAttribs
 70
0
  1
PNOA-H_AMS_1956-57_33k_ES_PAN_2
  2
NAME
  10
324316.819
  20
4647155.978
 40
33.99257
  0
SEQEND
  0
POLYLINE
  8
Unknown_Area_Type
  70
1
  66
1
  0
VERTEX
  8
Unknown_Area_Type
  10
323215.000
  20
4649419.000
  0
VERTEX
  8
Unknown_Area_Type
  10
324988.000
  20
4649683.500
  0
VERTEX
  8
Unknown_Area_Type
  10
325820.000
  20
4649298.000
  0
VERTEX
  8
Unknown_Area_Type
  10
325669.000
  20
4644808.000
  0
VERTEX
  8
Unknown_Area_Type
  10
325525.000
  20
4644727.500
  0
VERTEX
  8
Unknown_Area_Type
  10
322842.000
  20
4644893.500
  0
VERTEX
  8
Unknown_Area_Type
  10
322835.000
  20
4644894.500
  0
VERTEX
  8
Unknown_Area_Type
  10
322749.000
  20
4644953.500
  0
VERTEX
  8
Unknown_Area_Type
  10
322975.000
  20
4649380.000
  0
VERTEX
  8
Unknown_Area_Type
  10
322975.500
  20
4649383.000
  0
VERTEX
  8
Unknown_Area_Type
  10
322977.500
  20
4649383.500
  0
VERTEX
  8
Unknown_Area_Type
  10
323212.000
  20
4649418.500
  0
VERTEX
  8
Unknown_Area_Type
  10
323215.000
  20
4649419.000
  0
SEQEND
  8
Unknown_Area_Type
  0
INSERT
  8
FeatureAttribs
  2
FEATURE
  41
1
  42
1
  43
1
  50
0
  10
324316.819
  20
4647155.978
 66
1
  0
ATTRIB
  8
FeatureAttribs
 70
0
  1
PNOA-H_AMS_1956-57_33k_ES_PAN_2
  2
NAME
  10
324316.819
  20
4647155.978
 40
33.99257
  0
SEQEND
  0
POLYLINE
  8
Unknown_Area_Type
  70
1
  66
1
  0
VERTEX
  8
Unknown_Area_Type
  10
323215.000
  20
4649419.000
  0
VERTEX
  8
Unknown_Area_Type
  10
323212.000
  20
4649418.500
  0
VERTEX
  8
Unknown_Area_Type
  10
322977.500
  20
4649383.500
  0
VERTEX
  8
Unknown_Area_Type
  10
322975.500
  20
4649383.000
  0
VERTEX
  8
Unknown_Area_Type
  10
322975.000
  20
4649380.000
  0
VERTEX
  8
Unknown_Area_Type
  10
322749.000
  20
4644953.500
  0
VERTEX
  8
Unknown_Area_Type
  10
322835.000
  20
4644894.500
  0
VERTEX
  8
Unknown_Area_Type
  10
322842.000
  20
4644893.500
  0
VERTEX
  8
Unknown_Area_Type
  10
325525.000
  20
4644727.500
  0
VERTEX
  8
Unknown_Area_Type
  10
325669.000
  20
4644808.000
  0
VERTEX
  8
Unknown_Area_Type
  10
325820.000
  20
4649298.000
  0
VERTEX
  8
Unknown_Area_Type
  10
324988.000
  20
4649683.500
  0
VERTEX
  8
Unknown_Area_Type
  10
323215.000
  20
4649419.000
  0
SEQEND
  8
Unknown_Area_Type
  0
INSERT
  8
FeatureAttribs
  2
FEATURE
  41
1
  42
1
  43
1
  50
0
  10
330075.875
  20
4646998.469
 66
1
  0
ATTRIB
  8
FeatureAttribs
 70
0
  1
PNOA-H_AMS_1956-57_33k_ES_PAN_2
  2
NAME
  10
330075.875
  20
4646998.469
 40
33.99257
  0
SEQEND
  0
POLYLINE
  8
Unknown_Area_Type
  70
1
  66
1
  0
VERTEX
  8
Unknown_Area_Type
  10
329360.500
  20
4649311.500
  0
VERTEX
  8
Unknown_Area_Type
  10
330980.500
  20
4649499.500
  0
VERTEX
  8
Unknown_Area_Type
  10
331536.000
  20
4649213.000
  0
VERTEX
  8
Unknown_Area_Type
  10
331449.500
  20
4644695.500
  0
VERTEX
  8
Unknown_Area_Type
  10
331099.500
  20
4644520.500
  0
VERTEX
  8
Unknown_Area_Type
  10
328592.000
  20
4644739.000
  0
VERTEX
  8
Unknown_Area_Type
  10
328656.000
  20
4649229.500
  0
VERTEX
  8
Unknown_Area_Type
  10
329356.000
  20
4649311.000
  0
VERTEX
  8
Unknown_Area_Type
  10
329360.500
  20
4649311.500
  0
SEQEND
  8
Unknown_Area_Type
  0
INSERT
  8
FeatureAttribs
  2
FEATURE
  41
1
  42
1
  43
1
  50
0
  10
330075.875
  20
4646998.469
 66
1
  0
ATTRIB
  8
FeatureAttribs
 70
0
  1
PNOA-H_AMS_1956-57_33k_ES_PAN_2
  2
NAME
  10
330075.875
  20
4646998.469
 40
33.99257
  0
SEQEND
  0
POLYLINE
  8
Unknown_Area_Type
  70
1
  66
1
  0
VERTEX
  8
Unknown_Area_Type
  10
329360.500
  20
4649311.500
  0
VERTEX
  8
Unknown_Area_Type
  10
329356.000
  20
4649311.000
  0
VERTEX
  8
Unknown_Area_Type
  10
328656.000
  20
4649229.500
  0
VERTEX
  8
Unknown_Area_Type
  10
328592.000
  20
4644739.000
  0
VERTEX
  8
Unknown_Area_Type
  10
331099.500
  20
4644520.500
  0
VERTEX
  8
Unknown_Area_Type
  10
331449.500
  20
4644695.500
  0
VERTEX
  8
Unknown_Area_Type
  10
331536.000
  20
4649213.000
  0
VERTEX
  8
Unknown_Area_Type
  10
330980.500
  20
4649499.500
  0
VERTEX
  8
Unknown_Area_Type
  10
329360.500
  20
4649311.500
  0
SEQEND
  8
Unknown_Area_Type
  0
INSERT
  8
FeatureAttribs
  2
FEATURE
  41
1
  42
1
  43
1
  50
0
  10
338749.419
  20
4647059.047
 66
1
  0
ATTRIB
  8
FeatureAttribs
 70
0
  1
PNOA-H_AMS_1956-57_33k_ES_PAN_2
  2
NAME
  10
338749.419
  20
4647059.047
 40
33.99257
  0
SEQEND
  0
POLYLINE
  8
Unknown_Area_Type
  70
1
  66
1
  0
VERTEX
  8
Unknown_Area_Type
  10
337542.500
  20
4649186.500
  0
VERTEX
  8
Unknown_Area_Type
  10
340161.500
  20
4649300.500
  0
VERTEX
  8
Unknown_Area_Type
  10
340354.000
  20
4649183.500
  0
VERTEX
  8
Unknown_Area_Type
  10
340252.000
  20
4645797.000
  0
VERTEX
  8
Unknown_Area_Type
  10
338619.000
  20
4644496.500
  0
VERTEX
  8
Unknown_Area_Type
  10
338308.500
  20
4644511.500
  0
VERTEX
  8
Unknown_Area_Type
  10
337313.500
  20
4644684.000
  0
VERTEX
  8
Unknown_Area_Type
  10
337340.000
  20
4649177.500
  0
VERTEX
  8
Unknown_Area_Type
  10
337531.000
  20
4649186.000
  0
VERTEX
  8
Unknown_Area_Type
  10
337542.500
  20
4649186.500
  0
SEQEND
  8
Unknown_Area_Type
  0
INSERT
  8
FeatureAttribs
  2
FEATURE
  41
1
  42
1
  43
1
  50
0
  10
338749.419
  20
4647059.047
 66
1
  0
ATTRIB
  8
FeatureAttribs
 70
0
  1
PNOA-H_AMS_1956-57_33k_ES_PAN_2
  2
NAME
  10
338749.419
  20
4647059.047
 40
33.99257
  0
SEQEND
  0
POLYLINE
  8
Unknown_Area_Type
  70
1
  66
1
  0
VERTEX
  8
Unknown_Area_Type
  10
337542.500
  20
4649186.500
  0
VERTEX
  8
Unknown_Area_Type
  10
337531.000
  20
4649186.000
  0
VERTEX
  8
Unknown_Area_Type
  10
337340.000
  20
4649177.500
  0
VERTEX
  8
Unknown_Area_Type
  10
337313.500
  20
4644684.000
  0
VERTEX
  8
Unknown_Area_Type
  10
338308.500
  20
4644511.500
  0
VERTEX
  8
Unknown_Area_Type
  10
338619.000
  20
4644496.500
  0
VERTEX
  8
Unknown_Area_Type
  10
340252.000
  20
4645797.000
  0
VERTEX
  8
Unknown_Area_Type
  10
340354.000
  20
4649183.500
  0
VERTEX
  8
Unknown_Area_Type
  10
340161.500
  20
4649300.500
  0
VERTEX
  8
Unknown_Area_Type
  10
337542.500
  20
4649186.500
  0
SEQEND
  8
Unknown_Area_Type
  0
INSERT
  8
FeatureAttribs
  2
FEATURE
  41
1
  42
1
  43
1
  50
0
  10
344735.546
  20
4647253.414
 66
1
  0
ATTRIB
  8
FeatureAttribs
 70
0
  1
PNOA-H_AMS_1956-57_33k_ES_PAN_2
  2
NAME
  10
344735.546
  20
4647253.414
 40
33.99257
  0
SEQEND
  0
POLYLINE
  8
Unknown_Area_Type
  70
1
  66
1
  0
VERTEX
  8
Unknown_Area_Type
  10
343281.500
  20
4649133.500
  0
VERTEX
  8
Unknown_Area_Type
  10
343281.500
  20
4649135.500
  0
VERTEX
  8
Unknown_Area_Type
  10
346128.000
  20
4649120.500
  0
VERTEX
  8
Unknown_Area_Type
  10
346277.000
  20
4649031.000
  0
VERTEX
  8
Unknown_Area_Type
  10
346139.000
  20
4645719.000
  0
VERTEX
  8
Unknown_Area_Type
  10
345355.000
  20
4645028.000
  0
VERTEX
  8
Unknown_Area_Type
  10
343177.000
  20
4645748.500
  0
VERTEX
  8
Unknown_Area_Type
  10
343281.500
  20
4649133.500
  0
SEQEND
  8
Unknown_Area_Type
  0
INSERT
  8
FeatureAttribs
  2
FEATURE
  41
1
  42
1
  43
1
  50
0
  10
344735.546
  20
4647253.414
 66
1
  0
ATTRIB
  8
FeatureAttribs
 70
0
  1
PNOA-H_AMS_1956-57_33k_ES_PAN_2
  2
NAME
  10
344735.546
  20
4647253.414
 40
33.99257
  0
SEQEND
  0
POLYLINE
  8
Unknown_Area_Type
  70
1
  66
1
  0
VERTEX
  8
Unknown_Area_Type
  10
343281.500
  20
4649133.500
  0
VERTEX
  8
Unknown_Area_Type
  10
343177.000
  20
4645748.500
  0
VERTEX
  8
Unknown_Area_Type
  10
345355.000
  20
4645028.000
  0
VERTEX
  8
Unknown_Area_Type
  10
346139.000
  20
4645719.000
  0
VERTEX
  8
Unknown_Area_Type
  10
346277.000
  20
4649031.000
  0
VERTEX
  8
Unknown_Area_Type
  10
346128.000
  20
4649120.500
  0
VERTEX
  8
Unknown_Area_Type
  10
343281.500
  20
4649135.500
  0
VERTEX
  8
Unknown_Area_Type
  10
343281.500
  20
4649133.500
  0
SEQEND
  8
Unknown_Area_Type
  0
INSERT
  8
FeatureAttribs
  2
FEATURE
  41
1
  42
1
  43
1
  50
0
  10
346394.925
  20
4647323.059
 66
1
  0
ATTRIB
  8
FeatureAttribs
 70
0
  1
PNOA-H_AMS_1956-57_33k_ES_PAN_2
  2
NAME
  10
346394.925
  20
4647323.059
 40
33.99257
  0
SEQEND
  0
POLYLINE
  8
Unknown_Area_Type
  70
1
  66
1
  0
VERTEX
  8
Unknown_Area_Type
  10
346439.502
  20
4649032.742
  0
VERTEX
  8
Unknown_Area_Type
  10
346439.502
  20
4645613.376
  0
VERTEX
  8
Unknown_Area_Type
  10
346314.299
  20
4645657.384
  0
VERTEX
  8
Unknown_Area_Type
  10
346339.299
  20
4646812.683
  0
VERTEX
  8
Unknown_Area_Type
  10
346387.348
  20
4649032.183
  0
VERTEX
  8
Unknown_Area_Type
  10
346439.502
  20
4649032.742
  0
SEQEND
  8
Unknown_Area_Type
  0
INSERT
  8
FeatureAttribs
  2
FEATURE
  41
1
  42
1
  43
1
  50
0
  10
346275.490
  20
4647230.151
 66
1
  0
ATTRIB
  8
FeatureAttribs
 70
0
  1
PNOA-H_AMS_1956-57_33k_ES_PAN_2
  2
NAME
  10
346275.490
  20
4647230.151
 40
33.99257
  0
SEQEND
  0
POLYLINE
  8
Unknown_Area_Type
  70
1
  66
1
  0
VERTEX
  8
Unknown_Area_Type
  10
346387.348
  20
4649032.183
  0
VERTEX
  8
Unknown_Area_Type
  10
346339.299
  20
4646812.683
  0
VERTEX
  8
Unknown_Area_Type
  10
346314.299
  20
4645657.384
  0
VERTEX
  8
Unknown_Area_Type
  10
346139.000
  20
4645719.000
  0
VERTEX
  8
Unknown_Area_Type
  10
346277.000
  20
4649031.000
  0
VERTEX
  8
Unknown_Area_Type
  10
346387.348
  20
4649032.183
  0
SEQEND
  8
Unknown_Area_Type
  0
INSERT
  8
FeatureAttribs
  2
FEATURE
  41
1
  42
1
  43
1
  50
0
  10
346275.490
  20
4647230.151
 66
1
  0
ATTRIB
  8
FeatureAttribs
 70
0
  1
PNOA-H_AMS_1956-57_33k_ES_PAN_2
  2
NAME
  10
346275.490
  20
4647230.151
 40
33.99257
  0
SEQEND
  0
POLYLINE
  8
Unknown_Area_Type
  70
1
  66
1
  0
VERTEX
  8
Unknown_Area_Type
  10
346387.348
  20
4649032.183
  0
VERTEX
  8
Unknown_Area_Type
  10
346277.000
  20
4649031.000
  0
VERTEX
  8
Unknown_Area_Type
  10
346139.000
  20
4645719.000
  0
VERTEX
  8
Unknown_Area_Type
  10
346314.299
  20
4645657.384
  0
VERTEX
  8
Unknown_Area_Type
  10
346339.299
  20
4646812.683
  0
VERTEX
  8
Unknown_Area_Type
  10
346387.348
  20
4649032.183
  0
SEQEND
  8
Unknown_Area_Type
  0
INSERT
  8
FeatureAttribs
  2
FEATURE
  41
1
  42
1
  43
1
  50
0
  10
346258.295
  20
4634685.028
 66
1
  0
ATTRIB
  8
FeatureAttribs
 70
0
  1
PNOA-H_AMS_1956-57_33k_ES_PAN_2
  2
NAME
  10
346258.295
  20
4634685.028
 40
33.99257
  0
SEQEND
  0
POLYLINE
  8
Unknown_Area_Type
  70
1
  66
1
  0
VERTEX
  8
Unknown_Area_Type
  10
346439.502
  20
4636308.239
  0
VERTEX
  8
Unknown_Area_Type
  10
346439.502
  20
4632933.511
  0
VERTEX
  8
Unknown_Area_Type
  10
346040.160
  20
4632933.511
  0
VERTEX
  8
Unknown_Area_Type
  10
346039.262
  20
4632933.530
  0
VERTEX
  8
Unknown_Area_Type
  10
346089.217
  20
4635246.703
  0
VERTEX
  8
Unknown_Area_Type
  10
346114.924
  20
4636436.546
  0
VERTEX
  8
Unknown_Area_Type
  10
346439.502
  20
4636308.239
  0
SEQEND
  8
Unknown_Area_Type
  0
INSERT
  8
FeatureAttribs
  2
FEATURE
  41
1
  42
1
  43
1
  50
0
  10
344632.056
  20
4632954.009
 66
1
  0
ATTRIB
  8
FeatureAttribs
 70
0
  1
PNOA-H_AMS_1956-57_33k_ES_PAN_2
  2
NAME
  10
344632.056
  20
4632954.009
 40
33.99257
  0
SEQEND
  0
POLYLINE
  8
Unknown_Area_Type
  70
1
  66
1
  0
VERTEX
  8
Unknown_Area_Type
  10
344162.984
  20
4632933.511
  0
VERTEX
  8
Unknown_Area_Type
  10
344162.551
  20
4632974.507
  0
VERTEX
  8
Unknown_Area_Type
  10
346039.262
  20
4632933.530
  0
VERTEX
  8
Unknown_Area_Type
  10
346039.262
  20
4632933.511
  0
VERTEX
  8
Unknown_Area_Type
  10
344162.984
  20
4632933.511
  0
SEQEND
  8
Unknown_Area_Type
  0
INSERT
  8
FeatureAttribs
  2
FEATURE
  41
1
  42
1
  43
1
  50
0
  10
346039.487
  20
4632933.520
 66
1
  0
ATTRIB
  8
FeatureAttribs
 70
0
  1
PNOA-H_AMS_1956-57_33k_ES_PAN_2
  2
NAME
  10
346039.487
  20
4632933.520
 40
33.99257
  0
SEQEND
  0
POLYLINE
  8
Unknown_Area_Type
  70
1
  66
1
  0
VERTEX
  8
Unknown_Area_Type
  10
346039.262
  20
4632933.530
  0
VERTEX
  8
Unknown_Area_Type
  10
346040.160
  20
4632933.511
  0
VERTEX
  8
Unknown_Area_Type
  10
346039.262
  20
4632933.511
  0
VERTEX
  8
Unknown_Area_Type
  10
346039.262
  20
4632933.530
  0
SEQEND
  8
Unknown_Area_Type
  0
INSERT
  8
FeatureAttribs
  2
FEATURE
  41
1
  42
1
  43
1
  50
0
  10
345130.100
  20
4634694.970
 66
1
  0
ATTRIB
  8
FeatureAttribs
 70
0
  1
PNOA-H_AMS_1956-57_33k_ES_PAN_2
  2
NAME
  10
345130.100
  20
4634694.970
 40
33.99257
  0
SEQEND
  0
POLYLINE
  8
Unknown_Area_Type
  70
1
  66
1
  0
VERTEX
  8
Unknown_Area_Type
  10
346114.924
  20
4636436.546
  0
VERTEX
  8
Unknown_Area_Type
  10
346089.217
  20
4635246.703
  0
VERTEX
  8
Unknown_Area_Type
  10
346039.262
  20
4632933.530
  0
VERTEX
  8
Unknown_Area_Type
  10
344162.551
  20
4632974.507
  0
VERTEX
  8
Unknown_Area_Type
  10
344128.500
  20
4636196.000
  0
VERTEX
  8
Unknown_Area_Type
  10
345743.500
  20
4636553.500
  0
VERTEX
  8
Unknown_Area_Type
  10
345745.500
  20
4636554.000
  0
VERTEX
  8
Unknown_Area_Type
  10
345792.500
  20
4636564.000
  0
VERTEX
  8
Unknown_Area_Type
  10
346114.924
  20
4636436.546
  0
SEQEND
  8
Unknown_Area_Type
  0
INSERT
  8
FeatureAttribs
  2
FEATURE
  41
1
  42
1
  43
1
  50
0
  10
345130.100
  20
4634694.970
 66
1
  0
ATTRIB
  8
FeatureAttribs
 70
0
  1
PNOA-H_AMS_1956-57_33k_ES_PAN_2
  2
NAME
  10
345130.100
  20
4634694.970
 40
33.99257
  0
SEQEND
  0
POLYLINE
  8
Unknown_Area_Type
  70
1
  66
1
  0
VERTEX
  8
Unknown_Area_Type
  10
346114.924
  20
4636436.546
  0
VERTEX
  8
Unknown_Area_Type
  10
345792.500
  20
4636564.000
  0
VERTEX
  8
Unknown_Area_Type
  10
345745.500
  20
4636554.000
  0
VERTEX
  8
Unknown_Area_Type
  10
345743.500
  20
4636553.500
  0
VERTEX
  8
Unknown_Area_Type
  10
344128.500
  20
4636196.000
  0
VERTEX
  8
Unknown_Area_Type
  10
344162.551
  20
4632974.507
  0
VERTEX
  8
Unknown_Area_Type
  10
346039.262
  20
4632933.530
  0
VERTEX
  8
Unknown_Area_Type
  10
346089.217
  20
4635246.703
  0
VERTEX
  8
Unknown_Area_Type
  10
346114.924
  20
4636436.546
  0
SEQEND
  8
Unknown_Area_Type
  0
INSERT
  8
FeatureAttribs
  2
FEATURE
  41
1
  42
1
  43
1
  50
0
  10
337686.133
  20
4633040.859
 66
1
  0
ATTRIB
  8
FeatureAttribs
 70
0
  1
PNOA-H_AMS_1956-57_33k_ES_PAN_2
  2
NAME
  10
337686.133
  20
4633040.859
 40
33.99257
  0
SEQEND
  0
POLYLINE
  8
Unknown_Area_Type
  70
1
  66
1
  0
VERTEX
  8
Unknown_Area_Type
  10
338968.788
  20
4632933.511
  0
VERTEX
  8
Unknown_Area_Type
  10
336403.962
  20
4632933.511
  0
VERTEX
  8
Unknown_Area_Type
  10
336404.785
  20
4633148.208
  0
VERTEX
  8
Unknown_Area_Type
  10
338967.485
  20
4633089.764
  0
VERTEX
  8
Unknown_Area_Type
  10
338968.788
  20
4632933.511
  0
SEQEND
  8
Unknown_Area_Type
  0
INSERT
  8
FeatureAttribs
  2
FEATURE
  41
1
  42
1
  43
1
  50
0
  10
337680.887
  20
4634738.697
 66
1
  0
ATTRIB
  8
FeatureAttribs
 70
0
  1
PNOA-H_AMS_1956-57_33k_ES_PAN_2
  2
NAME
  10
337680.887
  20
4634738.697
 40
33.99257
  0
SEQEND
  0
POLYLINE
  8
Unknown_Area_Type
  70
1
  66
1
  0
VERTEX
  8
Unknown_Area_Type
  10
338967.485
  20
4633089.764
  0
VERTEX
  8
Unknown_Area_Type
  10
336404.785
  20
4633148.208
  0
VERTEX
  8
Unknown_Area_Type
  10
336416.500
  20
4636204.000
  0
VERTEX
  8
Unknown_Area_Type
  10
337551.500
  20
4636540.000
  0
VERTEX
  8
Unknown_Area_Type
  10
337553.000
  20
4636540.500
  0
VERTEX
  8
Unknown_Area_Type
  10
337595.500
  20
4636552.500
  0
VERTEX
  8
Unknown_Area_Type
  10
338942.000
  20
4636146.500
  0
VERTEX
  8
Unknown_Area_Type
  10
338967.485
  20
4633089.764
  0
SEQEND
  8
Unknown_Area_Type
  0
INSERT
  8
FeatureAttribs
  2
FEATURE
  41
1
  42
1
  43
1
  50
0
  10
337680.887
  20
4634738.697
 66
1
  0
ATTRIB
  8
FeatureAttribs
 70
0
  1
PNOA-H_AMS_1956-57_33k_ES_PAN_2
  2
NAME
  10
337680.887
  20
4634738.697
 40
33.99257
  0
SEQEND
  0
POLYLINE
  8
Unknown_Area_Type
  70
1
  66
1
  0
VERTEX
  8
Unknown_Area_Type
  10
338967.485
  20
4633089.764
  0
VERTEX
  8
Unknown_Area_Type
  10
338942.000
  20
4636146.500
  0
VERTEX
  8
Unknown_Area_Type
  10
337595.500
  20
4636552.500
  0
VERTEX
  8
Unknown_Area_Type
  10
337553.000
  20
4636540.500
  0
VERTEX
  8
Unknown_Area_Type
  10
337551.500
  20
4636540.000
  0
VERTEX
  8
Unknown_Area_Type
  10
336416.500
  20
4636204.000
  0
VERTEX
  8
Unknown_Area_Type
  10
336404.785
  20
4633148.208
  0
VERTEX
  8
Unknown_Area_Type
  10
338967.485
  20
4633089.764
  0
SEQEND
  8
Unknown_Area_Type
  0
INSERT
  8
FeatureAttribs
  2
FEATURE
  41
1
  42
1
  43
1
  50
0
  10
335113.390
  20
4633070.754
 66
1
  0
ATTRIB
  8
FeatureAttribs
 70
0
  1
PNOA-H_AMS_1956-57_33k_ES_PAN_2
  2
NAME
  10
335113.390
  20
4633070.754
 40
33.99257
  0
SEQEND
  0
POLYLINE
  8
Unknown_Area_Type
  70
1
  66
1
  0
VERTEX
  8
Unknown_Area_Type
  10
336403.962
  20
4632933.511
  0
VERTEX
  8
Unknown_Area_Type
  10
333822.392
  20
4632933.511
  0
VERTEX
  8
Unknown_Area_Type
  10
333822.193
  20
4633207.997
  0
VERTEX
  8
Unknown_Area_Type
  10
335659.439
  20
4633165.206
  0
VERTEX
  8
Unknown_Area_Type
  10
336404.785
  20
4633148.208
  0
VERTEX
  8
Unknown_Area_Type
  10
336403.962
  20
4632933.511
  0
SEQEND
  8
Unknown_Area_Type
  0
INSERT
  8
FeatureAttribs
  2
FEATURE
  41
1
  42
1
  43
1
  50
0
  10
335112.291
  20
4634791.061
 66
1
  0
ATTRIB
  8
FeatureAttribs
 70
0
  1
PNOA-H_AMS_1956-57_33k_ES_PAN_2
  2
NAME
  10
335112.291
  20
4634791.061
 40
33.99257
  0
SEQEND
  0
POLYLINE
  8
Unknown_Area_Type
  70
1
  66
1
  0
VERTEX
  8
Unknown_Area_Type
  10
336404.785
  20
4633148.208
  0
VERTEX
  8
Unknown_Area_Type
  10
335659.439
  20
4633165.206
  0
VERTEX
  8
Unknown_Area_Type
  10
333822.193
  20
4633207.997
  0
VERTEX
  8
Unknown_Area_Type
  10
333820.000
  20
4636235.500
  0
VERTEX
  8
Unknown_Area_Type
  10
334812.000
  20
4636579.000
  0
VERTEX
  8
Unknown_Area_Type
  10
334813.500
  20
4636579.500
  0
VERTEX
  8
Unknown_Area_Type
  10
336416.500
  20
4636204.000
  0
VERTEX
  8
Unknown_Area_Type
  10
336404.785
  20
4633148.208
  0
SEQEND
  8
Unknown_Area_Type
  0
INSERT
  8
FeatureAttribs
  2
FEATURE
  41
1
  42
1
  43
1
  50
0
  10
335112.291
  20
4634791.061
 66
1
  0
ATTRIB
  8
FeatureAttribs
 70
0
  1
PNOA-H_AMS_1956-57_33k_ES_PAN_2
  2
NAME
  10
335112.291
  20
4634791.061
 40
33.99257
  0
SEQEND
  0
POLYLINE
  8
Unknown_Area_Type
  70
1
  66
1
  0
VERTEX
  8
Unknown_Area_Type
  10
336404.785
  20
4633148.208
  0
VERTEX
  8
Unknown_Area_Type
  10
336416.500
  20
4636204.000
  0
VERTEX
  8
Unknown_Area_Type
  10
334813.500
  20
4636579.500
  0
VERTEX
  8
Unknown_Area_Type
  10
334812.000
  20
4636579.000
  0
VERTEX
  8
Unknown_Area_Type
  10
333820.000
  20
4636235.500
  0
VERTEX
  8
Unknown_Area_Type
  10
333822.193
  20
4633207.997
  0
VERTEX
  8
Unknown_Area_Type
  10
335659.439
  20
4633165.206
  0
VERTEX
  8
Unknown_Area_Type
  10
336404.785
  20
4633148.208
  0
SEQEND
  8
Unknown_Area_Type
  0
INSERT
  8
FeatureAttribs
  2
FEATURE
  41
1
  42
1
  43
1
  50
0
  10
340284.840
  20
4633011.638
 66
1
  0
ATTRIB
  8
FeatureAttribs
 70
0
  1
PNOA-H_AMS_1956-57_33k_ES_PAN_2
  2
NAME
  10
340284.840
  20
4633011.638
 40
33.99257
  0
SEQEND
  0
POLYLINE
  8
Unknown_Area_Type
  70
1
  66
1
  0
VERTEX
  8
Unknown_Area_Type
  10
341605.485
  20
4632933.511
  0
VERTEX
  8
Unknown_Area_Type
  10
338968.724
  20
4632933.511
  0
VERTEX
  8
Unknown_Area_Type
  10
338967.410
  20
4633089.766
  0
VERTEX
  8
Unknown_Area_Type
  10
339119.389
  20
4633086.300
  0
VERTEX
  8
Unknown_Area_Type
  10
341600.656
  20
4633030.919
  0
VERTEX
  8
Unknown_Area_Type
  10
341605.485
  20
4632933.511
  0
SEQEND
  8
Unknown_Area_Type
  0
INSERT
  8
FeatureAttribs
  2
FEATURE
  41
1
  42
1
  43
1
  50
0
  10
340245.177
  20
4634686.433
 66
1
  0
ATTRIB
  8
FeatureAttribs
 70
0
  1
PNOA-H_AMS_1956-57_33k_ES_PAN_2
  2
NAME
  10
340245.177
  20
4634686.433
 40
33.99257
  0
SEQEND
  0
POLYLINE
  8
Unknown_Area_Type
  70
1
  66
1
  0
VERTEX
  8
Unknown_Area_Type
  10
341600.656
  20
4633030.919
  0
VERTEX
  8
Unknown_Area_Type
  10
339119.389
  20
4633086.300
  0
VERTEX
  8
Unknown_Area_Type
  10
338967.410
  20
4633089.766
  0
VERTEX
  8
Unknown_Area_Type
  10
338942.000
  20
4636112.500
  0
VERTEX
  8
Unknown_Area_Type
  10
338942.000
  20
4636146.500
  0
VERTEX
  8
Unknown_Area_Type
  10
340369.000
  20
4636518.500
  0
VERTEX
  8
Unknown_Area_Type
  10
340387.000
  20
4636513.500
  0
VERTEX
  8
Unknown_Area_Type
  10
341445.000
  20
4636171.000
  0
VERTEX
  8
Unknown_Area_Type
  10
341600.656
  20
4633030.919
  0
SEQEND
  8
Unknown_Area_Type
  0
INSERT
  8
FeatureAttribs
  2
FEATURE
  41
1
  42
1
  43
1
  50
0
  10
340245.177
  20
4634686.433
 66
1
  0
ATTRIB
  8
FeatureAttribs
 70
0
  1
PNOA-H_AMS_1956-57_33k_ES_PAN_2
  2
NAME
  10
340245.177
  20
4634686.433
 40
33.99257
  0
SEQEND
  0
POLYLINE
  8
Unknown_Area_Type
  70
1
  66
1
  0
VERTEX
  8
Unknown_Area_Type
  10
341600.656
  20
4633030.919
  0
VERTEX
  8
Unknown_Area_Type
  10
341445.000
  20
4636171.000
  0
VERTEX
  8
Unknown_Area_Type
  10
340387.000
  20
4636513.500
  0
VERTEX
  8
Unknown_Area_Type
  10
340369.000
  20
4636518.500
  0
VERTEX
  8
Unknown_Area_Type
  10
338942.000
  20
4636146.500
  0
VERTEX
  8
Unknown_Area_Type
  10
338942.000
  20
4636112.500
  0
VERTEX
  8
Unknown_Area_Type
  10
338967.410
  20
4633089.766
  0
VERTEX
  8
Unknown_Area_Type
  10
339119.389
  20
4633086.300
  0
VERTEX
  8
Unknown_Area_Type
  10
341600.656
  20
4633030.919
  0
SEQEND
  8
Unknown_Area_Type
  0
INSERT
  8
FeatureAttribs
  2
FEATURE
  41
1
  42
1
  43
1
  50
0
  10
329807.124
  20
4633134.017
 66
1
  0
ATTRIB
  8
FeatureAttribs
 70
0
  1
PNOA-H_AMS_1956-57_33k_ES_PAN_2
  2
NAME
  10
329807.124
  20
4633134.017
 40
33.99257
  0
SEQEND
  0
POLYLINE
  8
Unknown_Area_Type
  70
1
  66
1
  0
VERTEX
  8
Unknown_Area_Type
  10
331144.702
  20
4632933.511
  0
VERTEX
  8
Unknown_Area_Type
  10
328457.187
  20
4632933.511
  0
VERTEX
  8
Unknown_Area_Type
  10
328473.022
  20
4633334.524
  0
VERTEX
  8
Unknown_Area_Type
  10
328739.508
  20
4633328.058
  0
VERTEX
  8
Unknown_Area_Type
  10
331152.171
  20
4633270.693
  0
VERTEX
  8
Unknown_Area_Type
  10
331144.702
  20
4632933.511
  0
SEQEND
  8
Unknown_Area_Type
  0
INSERT
  8
FeatureAttribs
  2
FEATURE
  41
1
  42
1
  43
1
  50
0
  10
329851.504
  20
4634888.256
 66
1
  0
ATTRIB
  8
FeatureAttribs
 70
0
  1
PNOA-H_AMS_1956-57_33k_ES_PAN_2
  2
NAME
  10
329851.504
  20
4634888.256
 40
33.99257
  0
SEQEND
  0
POLYLINE
  8
Unknown_Area_Type
  70
1
  66
1
  0
VERTEX
  8
Unknown_Area_Type
  10
331152.171
  20
4633270.693
  0
VERTEX
  8
Unknown_Area_Type
  10
328739.508
  20
4633328.058
  0
VERTEX
  8
Unknown_Area_Type
  10
328473.022
  20
4633334.524
  0
VERTEX
  8
Unknown_Area_Type
  10
328593.000
  20
4636373.000
  0
VERTEX
  8
Unknown_Area_Type
  10
329237.000
  20
4636639.500
  0
VERTEX
  8
Unknown_Area_Type
  10
331219.500
  20
4636310.000
  0
VERTEX
  8
Unknown_Area_Type
  10
331152.171
  20
4633270.693
  0
SEQEND
  8
Unknown_Area_Type
  0
INSERT
  8
FeatureAttribs
  2
FEATURE
  41
1
  42
1
  43
1
  50
0
  10
329851.504
  20
4634888.256
 66
1
  0
ATTRIB
  8
FeatureAttribs
 70
0
  1
PNOA-H_AMS_1956-57_33k_ES_PAN_2
  2
NAME
  10
329851.504
  20
4634888.256
 40
33.99257
  0
SEQEND
  0
POLYLINE
  8
Unknown_Area_Type
  70
1
  66
1
  0
VERTEX
  8
Unknown_Area_Type
  10
331152.171
  20
4633270.693
  0
VERTEX
  8
Unknown_Area_Type
  10
331219.500
  20
4636310.000
  0
VERTEX
  8
Unknown_Area_Type
  10
329237.000
  20
4636639.500
  0
VERTEX
  8
Unknown_Area_Type
  10
328593.000
  20
4636373.000
  0
VERTEX
  8
Unknown_Area_Type
  10
328473.022
  20
4633334.524
  0
VERTEX
  8
Unknown_Area_Type
  10
328739.508
  20
4633328.058
  0
VERTEX
  8
Unknown_Area_Type
  10
331152.171
  20
4633270.693
  0
SEQEND
  8
Unknown_Area_Type
  0
INSERT
  8
FeatureAttribs
  2
FEATURE
  41
1
  42
1
  43
1
  50
0
  10
342706.156
  20
4632982.217
 66
1
  0
ATTRIB
  8
FeatureAttribs
 70
0
  1
PNOA-H_AMS_1956-57_33k_ES_PAN_2
  2
NAME
  10
342706.156
  20
4632982.217
 40
33.99257
  0
SEQEND
  0
POLYLINE
  8
Unknown_Area_Type
  70
1
  66
1
  0
VERTEX
  8
Unknown_Area_Type
  10
344162.551
  20
4632974.507
  0
VERTEX
  8
Unknown_Area_Type
  10
344162.984
  20
4632933.511
  0
VERTEX
  8
Unknown_Area_Type
  10
341605.300
  20
4632933.511
  0
VERTEX
  8
Unknown_Area_Type
  10
341600.476
  20
4633030.923
  0
VERTEX
  8
Unknown_Area_Type
  10
342579.331
  20
4633009.075
  0
VERTEX
  8
Unknown_Area_Type
  10
344162.551
  20
4632974.507
  0
SEQEND
  8
Unknown_Area_Type
  0
INSERT
  8
FeatureAttribs
  2
FEATURE
  41
1
  42
1
  43
1
  50
0
  10
342842.577
  20
4634706.871
 66
1
  0
ATTRIB
  8
FeatureAttribs
 70
0
  1
PNOA-H_AMS_1956-57_33k_ES_PAN_2
  2
NAME
  10
342842.577
  20
4634706.871
 40
33.99257
  0
SEQEND
  0
POLYLINE
  8
Unknown_Area_Type
  70
1
  66
1
  0
VERTEX
  8
Unknown_Area_Type
  10
344162.551
  20
4632974.507
  0
VERTEX
  8
Unknown_Area_Type
  10
342579.331
  20
4633009.075
  0
VERTEX
  8
Unknown_Area_Type
  10
341600.476
  20
4633030.923
  0
VERTEX
  8
Unknown_Area_Type
  10
341445.000
  20
4636170.500
  0
VERTEX
  8
Unknown_Area_Type
  10
343101.500
  20
4636578.000
  0
VERTEX
  8
Unknown_Area_Type
  10
343105.000
  20
4636578.000
  0
VERTEX
  8
Unknown_Area_Type
  10
344128.500
  20
4636196.000
  0
VERTEX
  8
Unknown_Area_Type
  10
344162.551
  20
4632974.507
  0
SEQEND
  8
Unknown_Area_Type
  0
INSERT
  8
FeatureAttribs
  2
FEATURE
  41
1
  42
1
  43
1
  50
0
  10
342842.577
  20
4634706.871
 66
1
  0
ATTRIB
  8
FeatureAttribs
 70
0
  1
PNOA-H_AMS_1956-57_33k_ES_PAN_2
  2
NAME
  10
342842.577
  20
4634706.871
 40
33.99257
  0
SEQEND
  0
POLYLINE
  8
Unknown_Area_Type
  70
1
  66
1
  0
VERTEX
  8
Unknown_Area_Type
  10
344162.551
  20
4632974.507
  0
VERTEX
  8
Unknown_Area_Type
  10
344128.500
  20
4636196.000
  0
VERTEX
  8
Unknown_Area_Type
  10
343105.000
  20
4636578.000
  0
VERTEX
  8
Unknown_Area_Type
  10
343101.500
  20
4636578.000
  0
VERTEX
  8
Unknown_Area_Type
  10
341445.000
  20
4636170.500
  0
VERTEX
  8
Unknown_Area_Type
  10
341600.476
  20
4633030.923
  0
VERTEX
  8
Unknown_Area_Type
  10
342579.331
  20
4633009.075
  0
VERTEX
  8
Unknown_Area_Type
  10
344162.551
  20
4632974.507
  0
SEQEND
  8
Unknown_Area_Type
  0
INSERT
  8
FeatureAttribs
  2
FEATURE
  41
1
  42
1
  43
1
  50
0
  10
327109.635
  20
4633166.873
 66
1
  0
ATTRIB
  8
FeatureAttribs
 70
0
  1
PNOA-H_AMS_1956-57_33k_ES_PAN_2
  2
NAME
  10
327109.635
  20
4633166.873
 40
33.99257
  0
SEQEND
  0
POLYLINE
  8
Unknown_Area_Type
  70
1
  66
1
  0
VERTEX
  8
Unknown_Area_Type
  10
328457.421
  20
4632933.511
  0
VERTEX
  8
Unknown_Area_Type
  10
325740.646
  20
4632933.511
  0
VERTEX
  8
Unknown_Area_Type
  10
325764.655
  20
4633400.235
  0
VERTEX
  8
Unknown_Area_Type
  10
328473.228
  20
4633334.519
  0
VERTEX
  8
Unknown_Area_Type
  10
328457.421
  20
4632933.511
  0
SEQEND
  8
Unknown_Area_Type
  0
INSERT
  8
FeatureAttribs
  2
FEATURE
  41
1
  42
1
  43
1
  50
0
  10
327178.946
  20
4634950.857
 66
1
  0
ATTRIB
  8
FeatureAttribs
 70
0
  1
PNOA-H_AMS_1956-57_33k_ES_PAN_2
  2
NAME
  10
327178.946
  20
4634950.857
 40
33.99257
  0
SEQEND
  0
POLYLINE
  8
Unknown_Area_Type
  70
1
  66
1
  0
VERTEX
  8
Unknown_Area_Type
  10
328473.228
  20
4633334.519
  0
VERTEX
  8
Unknown_Area_Type
  10
325764.655
  20
4633400.235
  0
VERTEX
  8
Unknown_Area_Type
  10
325922.000
  20
4636459.000
  0
VERTEX
  8
Unknown_Area_Type
  10
325922.500
  20
4636463.000
  0
VERTEX
  8
Unknown_Area_Type
  10
325926.500
  20
4636465.000
  0
VERTEX
  8
Unknown_Area_Type
  10
326468.500
  20
4636688.000
  0
VERTEX
  8
Unknown_Area_Type
  10
327313.000
  20
4636562.500
  0
VERTEX
  8
Unknown_Area_Type
  10
327314.000
  20
4636562.500
  0
VERTEX
  8
Unknown_Area_Type
  10
328593.000
  20
4636373.000
  0
VERTEX
  8
Unknown_Area_Type
  10
328473.228
  20
4633334.519
  0
SEQEND
  8
Unknown_Area_Type
  0
INSERT
  8
FeatureAttribs
  2
FEATURE
  41
1
  42
1
  43
1
  50
0
  10
327178.946
  20
4634950.857
 66
1
  0
ATTRIB
  8
FeatureAttribs
 70
0
  1
PNOA-H_AMS_1956-57_33k_ES_PAN_2
  2
NAME
  10
327178.946
  20
4634950.857
 40
33.99257
  0
SEQEND
  0
POLYLINE
  8
Unknown_Area_Type
  70
1
  66
1
  0
VERTEX
  8
Unknown_Area_Type
  10
328473.228
  20
4633334.519
  0
VERTEX
  8
Unknown_Area_Type
  10
328593.000
  20
4636373.000
  0
VERTEX
  8
Unknown_Area_Type
  10
327314.000
  20
4636562.500
  0
VERTEX
  8
Unknown_Area_Type
  10
327313.000
  20
4636562.500
  0
VERTEX
  8
Unknown_Area_Type
  10
326468.500
  20
4636688.000
  0
VERTEX
  8
Unknown_Area_Type
  10
325926.500
  20
4636465.000
  0
VERTEX
  8
Unknown_Area_Type
  10
325922.500
  20
4636463.000
  0
VERTEX
  8
Unknown_Area_Type
  10
325922.000
  20
4636459.000
  0
VERTEX
  8
Unknown_Area_Type
  10
325764.655
  20
4633400.235
  0
VERTEX
  8
Unknown_Area_Type
  10
328473.228
  20
4633334.519
  0
SEQEND
  8
Unknown_Area_Type
  0
INSERT
  8
FeatureAttribs
  2
FEATURE
  41
1
  42
1
  43
1
  50
0
  10
321682.612
  20
4633234.356
 66
1
  0
ATTRIB
  8
FeatureAttribs
 70
0
  1
PNOA-H_AMS_1956-57_33k_ES_PAN_2
  2
NAME
  10
321682.612
  20
4633234.356
 40
33.99257
  0
SEQEND
  0
POLYLINE
  8
Unknown_Area_Type
  70
1
  66
1
  0
VERTEX
  8
Unknown_Area_Type
  10
323034.152
  20
4632933.511
  0
VERTEX
  8
Unknown_Area_Type
  10
320298.400
  20
4632933.511
  0
VERTEX
  8
Unknown_Area_Type
  10
320330.766
  20
4633535.201
  0
VERTEX
  8
Unknown_Area_Type
  10
321819.537
  20
4633497.634
  0
VERTEX
  8
Unknown_Area_Type
  10
323063.383
  20
4633466.851
  0
VERTEX
  8
Unknown_Area_Type
  10
323034.152
  20
4632933.511
  0
SEQEND
  8
Unknown_Area_Type
  0
INSERT
  8
FeatureAttribs
  2
FEATURE
  41
1
  42
1
  43
1
  50
0
  10
321773.711
  20
4635132.710
 66
1
  0
ATTRIB
  8
FeatureAttribs
 70
0
  1
PNOA-H_AMS_1956-57_33k_ES_PAN_2
  2
NAME
  10
321773.711
  20
4635132.710
 40
33.99257
  0
SEQEND
  0
POLYLINE
  8
Unknown_Area_Type
  70
1
  66
1
  0
VERTEX
  8
Unknown_Area_Type
  10
323063.383
  20
4633466.851
  0
VERTEX
  8
Unknown_Area_Type
  10
321819.537
  20
4633497.634
  0
VERTEX
  8
Unknown_Area_Type
  10
320330.766
  20
4633535.201
  0
VERTEX
  8
Unknown_Area_Type
  10
320499.500
  20
4636672.000
  0
VERTEX
  8
Unknown_Area_Type
  10
321027.000
  20
4636914.000
  0
VERTEX
  8
Unknown_Area_Type
  10
321031.500
  20
4636914.500
  0
VERTEX
  8
Unknown_Area_Type
  10
323216.500
  20
4636596.000
  0
VERTEX
  8
Unknown_Area_Type
  10
323218.000
  20
4636596.000
  0
VERTEX
  8
Unknown_Area_Type
  10
323234.000
  20
4636594.000
  0
VERTEX
  8
Unknown_Area_Type
  10
323234.500
  20
4636589.000
  0
VERTEX
  8
Unknown_Area_Type
  10
323063.383
  20
4633466.851
  0
SEQEND
  8
Unknown_Area_Type
  0
INSERT
  8
FeatureAttribs
  2
FEATURE
  41
1
  42
1
  43
1
  50
0
  10
321773.711
  20
4635132.710
 66
1
  0
ATTRIB
  8
FeatureAttribs
 70
0
  1
PNOA-H_AMS_1956-57_33k_ES_PAN_2
  2
NAME
  10
321773.711
  20
4635132.710
 40
33.99257
  0
SEQEND
  0
POLYLINE
  8
Unknown_Area_Type
  70
1
  66
1
  0
VERTEX
  8
Unknown_Area_Type
  10
323063.383
  20
4633466.851
  0
VERTEX
  8
Unknown_Area_Type
  10
323234.500
  20
4636589.000
  0
VERTEX
  8
Unknown_Area_Type
  10
323234.000
  20
4636594.000
  0
VERTEX
  8
Unknown_Area_Type
  10
323218.000
  20
4636596.000
  0
VERTEX
  8
Unknown_Area_Type
  10
323216.500
  20
4636596.000
  0
VERTEX
  8
Unknown_Area_Type
  10
321031.500
  20
4636914.500
  0
VERTEX
  8
Unknown_Area_Type
  10
321027.000
  20
4636914.000
  0
VERTEX
  8
Unknown_Area_Type
  10
320499.500
  20
4636672.000
  0
VERTEX
  8
Unknown_Area_Type
  10
320330.766
  20
4633535.201
  0
VERTEX
  8
Unknown_Area_Type
  10
321819.537
  20
4633497.634
  0
VERTEX
  8
Unknown_Area_Type
  10
323063.383
  20
4633466.851
  0
SEQEND
  8
Unknown_Area_Type
  0
INSERT
  8
FeatureAttribs
  2
FEATURE
  41
1
  42
1
  43
1
  50
0
  10
324401.600
  20
4633200.181
 66
1
  0
ATTRIB
  8
FeatureAttribs
 70
0
  1
PNOA-H_AMS_1956-57_33k_ES_PAN_2
  2
NAME
  10
324401.600
  20
4633200.181
 40
33.99257
  0
SEQEND
  0
POLYLINE
  8
Unknown_Area_Type
  70
1
  66
1
  0
VERTEX
  8
Unknown_Area_Type
  10
325740.693
  20
4632933.511
  0
VERTEX
  8
Unknown_Area_Type
  10
323034.155
  20
4632933.511
  0
VERTEX
  8
Unknown_Area_Type
  10
323063.388
  20
4633466.851
  0
VERTEX
  8
Unknown_Area_Type
  10
325279.528
  20
4633412.006
  0
VERTEX
  8
Unknown_Area_Type
  10
325764.734
  20
4633400.233
  0
VERTEX
  8
Unknown_Area_Type
  10
325740.693
  20
4632933.511
  0
SEQEND
  8
Unknown_Area_Type
  0
INSERT
  8
FeatureAttribs
  2
FEATURE
  41
1
  42
1
  43
1
  50
0
  10
324484.436
  20
4635040.386
 66
1
  0
ATTRIB
  8
FeatureAttribs
 70
0
  1
PNOA-H_AMS_1956-57_33k_ES_PAN_2
  2
NAME
  10
324484.436
  20
4635040.386
 40
33.99257
  0
SEQEND
  0
POLYLINE
  8
Unknown_Area_Type
  70
1
  66
1
  0
VERTEX
  8
Unknown_Area_Type
  10
325764.734
  20
4633400.233
  0
VERTEX
  8
Unknown_Area_Type
  10
325279.528
  20
4633412.006
  0
VERTEX
  8
Unknown_Area_Type
  10
323063.388
  20
4633466.851
  0
VERTEX
  8
Unknown_Area_Type
  10
323217.500
  20
4636278.500
  0
VERTEX
  8
Unknown_Area_Type
  10
323217.500
  20
4636287.500
  0
VERTEX
  8
Unknown_Area_Type
  10
323234.500
  20
4636594.000
  0
VERTEX
  8
Unknown_Area_Type
  10
323732.500
  20
4636806.500
  0
VERTEX
  8
Unknown_Area_Type
  10
325922.500
  20
4636463.000
  0
VERTEX
  8
Unknown_Area_Type
  10
325764.734
  20
4633400.233
  0
SEQEND
  8
Unknown_Area_Type
  0
INSERT
  8
FeatureAttribs
  2
FEATURE
  41
1
  42
1
  43
1
  50
0
  10
324484.436
  20
4635040.386
 66
1
  0
ATTRIB
  8
FeatureAttribs
 70
0
  1
PNOA-H_AMS_1956-57_33k_ES_PAN_2
  2
NAME
  10
324484.436
  20
4635040.386
 40
33.99257
  0
SEQEND
  0
POLYLINE
  8
Unknown_Area_Type
  70
1
  66
1
  0
VERTEX
  8
Unknown_Area_Type
  10
325764.734
  20
4633400.233
  0
VERTEX
  8
Unknown_Area_Type
  10
325922.500
  20
4636463.000
  0
VERTEX
  8
Unknown_Area_Type
  10
323732.500
  20
4636806.500
  0
VERTEX
  8
Unknown_Area_Type
  10
323234.500
  20
4636594.000
  0
VERTEX
  8
Unknown_Area_Type
  10
323217.500
  20
4636287.500
  0
VERTEX
  8
Unknown_Area_Type
  10
323217.500
  20
4636278.500
  0
VERTEX
  8
Unknown_Area_Type
  10
323063.388
  20
4633466.851
  0
VERTEX
  8
Unknown_Area_Type
  10
325279.528
  20
4633412.006
  0
VERTEX
  8
Unknown_Area_Type
  10
325764.734
  20
4633400.233
  0
SEQEND
  8
Unknown_Area_Type
  0
INSERT
  8
FeatureAttribs
  2
FEATURE
  41
1
  42
1
  43
1
  50
0
  10
341750.562
  20
4638317.165
 66
1
  0
ATTRIB
  8
FeatureAttribs
 70
0
  1
PNOA-H_AMS_1956-57_33k_ES_PAN_2
  2
NAME
  10
341750.562
  20
4638317.165
 40
33.99257
  0
SEQEND
  0
POLYLINE
  8
Unknown_Area_Type
  70
1
  66
1
  0
VERTEX
  8
Unknown_Area_Type
  10
342700.000
  20
4640358.500
  0
VERTEX
  8
Unknown_Area_Type
  10
342705.000
  20
4640357.000
  0
VERTEX
  8
Unknown_Area_Type
  10
343125.000
  20
4640126.000
  0
VERTEX
  8
Unknown_Area_Type
  10
343103.500
  20
4636578.000
  0
VERTEX
  8
Unknown_Area_Type
  10
341445.500
  20
4636170.500
  0
VERTEX
  8
Unknown_Area_Type
  10
340370.000
  20
4636518.500
  0
VERTEX
  8
Unknown_Area_Type
  10
340421.500
  20
4640163.500
  0
VERTEX
  8
Unknown_Area_Type
  10
340774.500
  20
4640250.000
  0
VERTEX
  8
Unknown_Area_Type
  10
342691.000
  20
4640358.000
  0
VERTEX
  8
Unknown_Area_Type
  10
342700.000
  20
4640358.500
  0
SEQEND
  8
Unknown_Area_Type
  0
INSERT
  8
FeatureAttribs
  2
FEATURE
  41
1
  42
1
  43
1
  50
0
  10
341750.562
  20
4638317.165
 66
1
  0
ATTRIB
  8
FeatureAttribs
 70
0
  1
PNOA-H_AMS_1956-57_33k_ES_PAN_2
  2
NAME
  10
341750.562
  20
4638317.165
 40
33.99257
  0
SEQEND
  0
POLYLINE
  8
Unknown_Area_Type
  70
1
  66
1
  0
VERTEX
  8
Unknown_Area_Type
  10
342700.000
  20
4640358.500
  0
VERTEX
  8
Unknown_Area_Type
  10
342691.000
  20
4640358.000
  0
VERTEX
  8
Unknown_Area_Type
  10
340774.500
  20
4640250.000
  0
VERTEX
  8
Unknown_Area_Type
  10
340421.500
  20
4640163.500
  0
VERTEX
  8
Unknown_Area_Type
  10
340370.000
  20
4636518.500
  0
VERTEX
  8
Unknown_Area_Type
  10
341445.500
  20
4636170.500
  0
VERTEX
  8
Unknown_Area_Type
  10
343103.500
  20
4636578.000
  0
VERTEX
  8
Unknown_Area_Type
  10
343125.000
  20
4640126.000
  0
VERTEX
  8
Unknown_Area_Type
  10
342705.000
  20
4640357.000
  0
VERTEX
  8
Unknown_Area_Type
  10
342700.000
  20
4640358.500
  0
SEQEND
  8
Unknown_Area_Type
  0
INSERT
  8
FeatureAttribs
  2
FEATURE
  41
1
  42
1
  43
1
  50
0
  10
318381.170
  20
4635284.088
 66
1
  0
ATTRIB
  8
FeatureAttribs
 70
0
  1
PNOA-H_AMS_1956-57_33k_ES_PAN_2
  2
NAME
  10
318381.170
  20
4635284.088
 40
33.99257
  0
SEQEND
  0
POLYLINE
  8
Unknown_Area_Type
  70
1
  66
1
  0
VERTEX
  8
Unknown_Area_Type
  10
318445.821
  20
4636970.666
  0
VERTEX
  8
Unknown_Area_Type
  10
318418.481
  20
4635898.169
  0
VERTEX
  8
Unknown_Area_Type
  10
318359.536
  20
4633584.942
  0
VERTEX
  8
Unknown_Area_Type
  10
318359.508
  20
4633584.943
  0
VERTEX
  8
Unknown_Area_Type
  10
318359.508
  20
4636983.234
  0
VERTEX
  8
Unknown_Area_Type
  10
318445.821
  20
4636970.666
  0
SEQEND
  8
Unknown_Area_Type
  0
INSERT
  8
FeatureAttribs
  2
FEATURE
  41
1
  42
1
  43
1
  50
0
  10
318359.522
  20
4633584.667
 66
1
  0
ATTRIB
  8
FeatureAttribs
 70
0
  1
PNOA-H_AMS_1956-57_33k_ES_PAN_2
  2
NAME
  10
318359.522
  20
4633584.667
 40
33.99257
  0
SEQEND
  0
POLYLINE
  8
Unknown_Area_Type
  70
1
  66
1
  0
VERTEX
  8
Unknown_Area_Type
  10
318359.508
  20
4633584.943
  0
VERTEX
  8
Unknown_Area_Type
  10
318359.536
  20
4633584.942
  0
VERTEX
  8
Unknown_Area_Type
  10
318359.508
  20
4633583.840
  0
VERTEX
  8
Unknown_Area_Type
  10
318359.508
  20
4633584.943
  0
SEQEND
  8
Unknown_Area_Type
  0
INSERT
  8
FeatureAttribs
  2
FEATURE
  41
1
  42
1
  43
1
  50
0
  10
319337.717
  20
4633259.227
 66
1
  0
ATTRIB
  8
FeatureAttribs
 70
0
  1
PNOA-H_AMS_1956-57_33k_ES_PAN_2
  2
NAME
  10
319337.717
  20
4633259.227
 40
33.99257
  0
SEQEND
  0
POLYLINE
  8
Unknown_Area_Type
  70
1
  66
1
  0
VERTEX
  8
Unknown_Area_Type
  10
320298.403
  20
4632933.511
  0
VERTEX
  8
Unknown_Area_Type
  10
318359.508
  20
4632933.511
  0
VERTEX
  8
Unknown_Area_Type
  10
318359.508
  20
4633583.840
  0
VERTEX
  8
Unknown_Area_Type
  10
318359.536
  20
4633584.942
  0
VERTEX
  8
Unknown_Area_Type
  10
320330.773
  20
4633535.201
  0
VERTEX
  8
Unknown_Area_Type
  10
320298.403
  20
4632933.511
  0
SEQEND
  8
Unknown_Area_Type
  0
INSERT
  8
FeatureAttribs
  2
FEATURE
  41
1
  42
1
  43
1
  50
0
  10
319396.978
  20
4635204.122
 66
1
  0
ATTRIB
  8
FeatureAttribs
 70
0
  1
PNOA-H_AMS_1956-57_33k_ES_PAN_2
  2
NAME
  10
319396.978
  20
4635204.122
 40
33.99257
  0
SEQEND
  0
POLYLINE
  8
Unknown_Area_Type
  70
1
  66
1
  0
VERTEX
  8
Unknown_Area_Type
  10
320330.773
  20
4633535.201
  0
VERTEX
  8
Unknown_Area_Type
  10
318359.536
  20
4633584.942
  0
VERTEX
  8
Unknown_Area_Type
  10
318418.481
  20
4635898.169
  0
VERTEX
  8
Unknown_Area_Type
  10
318445.821
  20
4636970.666
  0
VERTEX
  8
Unknown_Area_Type
  10
319120.000
  20
4636872.500
  0
VERTEX
  8
Unknown_Area_Type
  10
319122.000
  20
4636872.500
  0
VERTEX
  8
Unknown_Area_Type
  10
320499.500
  20
4636671.500
  0
VERTEX
  8
Unknown_Area_Type
  10
320330.773
  20
4633535.201
  0
SEQEND
  8
Unknown_Area_Type
  0
INSERT
  8
FeatureAttribs
  2
FEATURE
  41
1
  42
1
  43
1
  50
0
  10
319396.978
  20
4635204.122
 66
1
  0
ATTRIB
  8
FeatureAttribs
 70
0
  1
PNOA-H_AMS_1956-57_33k_ES_PAN_2
  2
NAME
  10
319396.978
  20
4635204.122
 40
33.99257
  0
SEQEND
  0
POLYLINE
  8
Unknown_Area_Type
  70
1
  66
1
  0
VERTEX
  8
Unknown_Area_Type
  10
320330.773
  20
4633535.201
  0
VERTEX
  8
Unknown_Area_Type
  10
320499.500
  20
4636671.500
  0
VERTEX
  8
Unknown_Area_Type
  10
319122.000
  20
4636872.500
  0
VERTEX
  8
Unknown_Area_Type
  10
319120.000
  20
4636872.500
  0
VERTEX
  8
Unknown_Area_Type
  10
318445.821
  20
4636970.666
  0
VERTEX
  8
Unknown_Area_Type
  10
318418.481
  20
4635898.169
  0
VERTEX
  8
Unknown_Area_Type
  10
318359.536
  20
4633584.942
  0
VERTEX
  8
Unknown_Area_Type
  10
320330.773
  20
4633535.201
  0
SEQEND
  8
Unknown_Area_Type
  0
INSERT
  8
FeatureAttribs
  2
FEATURE
  41
1
  42
1
  43
1
  50
0
  10
339030.315
  20
4638347.775
 66
1
  0
ATTRIB
  8
FeatureAttribs
 70
0
  1
PNOA-H_AMS_1956-57_33k_ES_PAN_2
  2
NAME
  10
339030.315
  20
4638347.775
 40
33.99257
  0
SEQEND
  0
POLYLINE
  8
Unknown_Area_Type
  70
1
  66
1
  0
VERTEX
  8
Unknown_Area_Type
  10
339711.500
  20
4640528.000
  0
VERTEX
  8
Unknown_Area_Type
  10
339715.000
  20
4640528.000
  0
VERTEX
  8
Unknown_Area_Type
  10
339726.000
  20
4640522.500
  0
VERTEX
  8
Unknown_Area_Type
  10
340421.500
  20
4640163.500
  0
VERTEX
  8
Unknown_Area_Type
  10
340370.000
  20
4636518.500
  0
VERTEX
  8
Unknown_Area_Type
  10
338944.000
  20
4636146.500
  0
VERTEX
  8
Unknown_Area_Type
  10
338938.500
  20
4636147.000
  0
VERTEX
  8
Unknown_Area_Type
  10
338913.500
  20
4636154.500
  0
VERTEX
  8
Unknown_Area_Type
  10
337594.500
  20
4636552.500
  0
VERTEX
  8
Unknown_Area_Type
  10
337704.000
  20
4640165.000
  0
VERTEX
  8
Unknown_Area_Type
  10
338288.500
  20
4640338.000
  0
VERTEX
  8
Unknown_Area_Type
  10
339708.000
  20
4640527.500
  0
VERTEX
  8
Unknown_Area_Type
  10
339711.500
  20
4640528.000
  0
SEQEND
  8
Unknown_Area_Type
  0
INSERT
  8
FeatureAttribs
  2
FEATURE
  41
1
  42
1
  43
1
  50
0
  10
339030.315
  20
4638347.775
 66
1
  0
ATTRIB
  8
FeatureAttribs
 70
0
  1
PNOA-H_AMS_1956-57_33k_ES_PAN_2
  2
NAME
  10
339030.315
  20
4638347.775
 40
33.99257
  0
SEQEND
  0
POLYLINE
  8
Unknown_Area_Type
  70
1
  66
1
  0
VERTEX
  8
Unknown_Area_Type
  10
339711.500
  20
4640528.000
  0
VERTEX
  8
Unknown_Area_Type
  10
339708.000
  20
4640527.500
  0
VERTEX
  8
Unknown_Area_Type
  10
338288.500
  20
4640338.000
  0
VERTEX
  8
Unknown_Area_Type
  10
337704.000
  20
4640165.000
  0
VERTEX
  8
Unknown_Area_Type
  10
337594.500
  20
4636552.500
  0
VERTEX
  8
Unknown_Area_Type
  10
338913.500
  20
4636154.500
  0
VERTEX
  8
Unknown_Area_Type
  10
338938.500
  20
4636147.000
  0
VERTEX
  8
Unknown_Area_Type
  10
338944.000
  20
4636146.500
  0
VERTEX
  8
Unknown_Area_Type
  10
340370.000
  20
4636518.500
  0
VERTEX
  8
Unknown_Area_Type
  10
340421.500
  20
4640163.500
  0
VERTEX
  8
Unknown_Area_Type
  10
339726.000
  20
4640522.500
  0
VERTEX
  8
Unknown_Area_Type
  10
339715.000
  20
4640528.000
  0
VERTEX
  8
Unknown_Area_Type
  10
339711.500
  20
4640528.000
  0
SEQEND
  8
Unknown_Area_Type
  0
INSERT
  8
FeatureAttribs
  2
FEATURE
  41
1
  42
1
  43
1
  50
0
  10
332485.508
  20
4633102.102
 66
1
  0
ATTRIB
  8
FeatureAttribs
 70
0
  1
PNOA-H_AMS_1956-57_33k_ES_PAN_2
  2
NAME
  10
332485.508
  20
4633102.102
 40
33.99257
  0
SEQEND
  0
POLYLINE
  8
Unknown_Area_Type
  70
1
  66
1
  0
VERTEX
  8
Unknown_Area_Type
  10
333822.719
  20
4632933.511
  0
VERTEX
  8
Unknown_Area_Type
  10
331144.702
  20
4632933.511
  0
VERTEX
  8
Unknown_Area_Type
  10
331152.171
  20
4633270.693
  0
VERTEX
  8
Unknown_Area_Type
  10
332199.478
  20
4633245.792
  0
VERTEX
  8
Unknown_Area_Type
  10
333822.493
  20
4633207.990
  0
VERTEX
  8
Unknown_Area_Type
  10
333822.719
  20
4632933.511
  0
SEQEND
  8
Unknown_Area_Type
  0
INSERT
  8
FeatureAttribs
  2
FEATURE
  41
1
  42
1
  43
1
  50
0
  10
332495.010
  20
4634831.928
 66
1
  0
ATTRIB
  8
FeatureAttribs
 70
0
  1
PNOA-H_AMS_1956-57_33k_ES_PAN_2
  2
NAME
  10
332495.010
  20
4634831.928
 40
33.99257
  0
SEQEND
  0
POLYLINE
  8
Unknown_Area_Type
  70
1
  66
1
  0
VERTEX
  8
Unknown_Area_Type
  10
333822.493
  20
4633207.990
  0
VERTEX
  8
Unknown_Area_Type
  10
332199.478
  20
4633245.792
  0
VERTEX
  8
Unknown_Area_Type
  10
331152.171
  20
4633270.693
  0
VERTEX
  8
Unknown_Area_Type
  10
331219.500
  20
4636310.000
  0
VERTEX
  8
Unknown_Area_Type
  10
332008.500
  20
4636608.000
  0
VERTEX
  8
Unknown_Area_Type
  10
332025.500
  20
4636613.500
  0
VERTEX
  8
Unknown_Area_Type
  10
333820.000
  20
4636235.500
  0
VERTEX
  8
Unknown_Area_Type
  10
333822.493
  20
4633207.990
  0
SEQEND
  8
Unknown_Area_Type
  0
INSERT
  8
FeatureAttribs
  2
FEATURE
  41
1
  42
1
  43
1
  50
0
  10
332495.010
  20
4634831.928
 66
1
  0
ATTRIB
  8
FeatureAttribs
 70
0
  1
PNOA-H_AMS_1956-57_33k_ES_PAN_2
  2
NAME
  10
332495.010
  20
4634831.928
 40
33.99257
  0
SEQEND
  0
POLYLINE
  8
Unknown_Area_Type
  70
1
  66
1
  0
VERTEX
  8
Unknown_Area_Type
  10
333822.493
  20
4633207.990
  0
VERTEX
  8
Unknown_Area_Type
  10
333820.000
  20
4636235.500
  0
VERTEX
  8
Unknown_Area_Type
  10
332025.500
  20
4636613.500
  0
VERTEX
  8
Unknown_Area_Type
  10
332008.500
  20
4636608.000
  0
VERTEX
  8
Unknown_Area_Type
  10
331219.500
  20
4636310.000
  0
VERTEX
  8
Unknown_Area_Type
  10
331152.171
  20
4633270.693
  0
VERTEX
  8
Unknown_Area_Type
  10
332199.478
  20
4633245.792
  0
VERTEX
  8
Unknown_Area_Type
  10
333822.493
  20
4633207.990
  0
SEQEND
  8
Unknown_Area_Type
  0
INSERT
  8
FeatureAttribs
  2
FEATURE
  41
1
  42
1
  43
1
  50
0
  10
344471.363
  20
4638300.492
 66
1
  0
ATTRIB
  8
FeatureAttribs
 70
0
  1
PNOA-H_AMS_1956-57_33k_ES_PAN_2
  2
NAME
  10
344471.363
  20
4638300.492
 40
33.99257
  0
SEQEND
  0
POLYLINE
  8
Unknown_Area_Type
  70
1
  66
1
  0
VERTEX
  8
Unknown_Area_Type
  10
343125.000
  20
4640125.500
  0
VERTEX
  8
Unknown_Area_Type
  10
343359.500
  20
4640180.500
  0
VERTEX
  8
Unknown_Area_Type
  10
343678.000
  20
4640190.500
  0
VERTEX
  8
Unknown_Area_Type
  10
343694.500
  20
4640191.000
  0
VERTEX
  8
Unknown_Area_Type
  10
345623.500
  20
4640249.500
  0
VERTEX
  8
Unknown_Area_Type
  10
345870.000
  20
4640121.500
  0
VERTEX
  8
Unknown_Area_Type
  10
345792.000
  20
4636564.000
  0
VERTEX
  8
Unknown_Area_Type
  10
344130.000
  20
4636196.000
  0
VERTEX
  8
Unknown_Area_Type
  10
344116.500
  20
4636200.000
  0
VERTEX
  8
Unknown_Area_Type
  10
343103.500
  20
4636578.000
  0
VERTEX
  8
Unknown_Area_Type
  10
343125.000
  20
4640125.500
  0
SEQEND
  8
Unknown_Area_Type
  0
INSERT
  8
FeatureAttribs
  2
FEATURE
  41
1
  42
1
  43
1
  50
0
  10
344471.363
  20
4638300.492
 66
1
  0
ATTRIB
  8
FeatureAttribs
 70
0
  1
PNOA-H_AMS_1956-57_33k_ES_PAN_2
  2
NAME
  10
344471.363
  20
4638300.492
 40
33.99257
  0
SEQEND
  0
POLYLINE
  8
Unknown_Area_Type
  70
1
  66
1
  0
VERTEX
  8
Unknown_Area_Type
  10
343125.000
  20
4640125.500
  0
VERTEX
  8
Unknown_Area_Type
  10
343103.500
  20
4636578.000
  0
VERTEX
  8
Unknown_Area_Type
  10
344116.500
  20
4636200.000
  0
VERTEX
  8
Unknown_Area_Type
  10
344130.000
  20
4636196.000
  0
VERTEX
  8
Unknown_Area_Type
  10
345792.000
  20
4636564.000
  0
VERTEX
  8
Unknown_Area_Type
  10
345870.000
  20
4640121.500
  0
VERTEX
  8
Unknown_Area_Type
  10
345623.500
  20
4640249.500
  0
VERTEX
  8
Unknown_Area_Type
  10
343694.500
  20
4640191.000
  0
VERTEX
  8
Unknown_Area_Type
  10
343678.000
  20
4640190.500
  0
VERTEX
  8
Unknown_Area_Type
  10
343359.500
  20
4640180.500
  0
VERTEX
  8
Unknown_Area_Type
  10
343125.000
  20
4640125.500
  0
SEQEND
  8
Unknown_Area_Type
  0
INSERT
  8
FeatureAttribs
  2
FEATURE
  41
1
  42
1
  43
1
  50
0
  10
333477.932
  20
4638480.721
 66
1
  0
ATTRIB
  8
FeatureAttribs
 70
0
  1
PNOA-H_AMS_1956-57_33k_ES_PAN_2
  2
NAME
  10
333477.932
  20
4638480.721
 40
33.99257
  0
SEQEND
  0
POLYLINE
  8
Unknown_Area_Type
  70
1
  66
1
  0
VERTEX
  8
Unknown_Area_Type
  10
333768.500
  20
4640815.500
  0
VERTEX
  8
Unknown_Area_Type
  10
334922.000
  20
4640212.000
  0
VERTEX
  8
Unknown_Area_Type
  10
334813.500
  20
4636579.000
  0
VERTEX
  8
Unknown_Area_Type
  10
333831.500
  20
4636239.000
  0
VERTEX
  8
Unknown_Area_Type
  10
333821.000
  20
4636235.500
  0
VERTEX
  8
Unknown_Area_Type
  10
333817.500
  20
4636235.500
  0
VERTEX
  8
Unknown_Area_Type
  10
332024.000
  20
4636613.500
  0
VERTEX
  8
Unknown_Area_Type
  10
332106.000
  20
4640274.500
  0
VERTEX
  8
Unknown_Area_Type
  10
333767.000
  20
4640815.000
  0
VERTEX
  8
Unknown_Area_Type
  10
333768.500
  20
4640815.500
  0
SEQEND
  8
Unknown_Area_Type
  0
INSERT
  8
FeatureAttribs
  2
FEATURE
  41
1
  42
1
  43
1
  50
0
  10
333477.932
  20
4638480.721
 66
1
  0
ATTRIB
  8
FeatureAttribs
 70
0
  1
PNOA-H_AMS_1956-57_33k_ES_PAN_2
  2
NAME
  10
333477.932
  20
4638480.721
 40
33.99257
  0
SEQEND
  0
POLYLINE
  8
Unknown_Area_Type
  70
1
  66
1
  0
VERTEX
  8
Unknown_Area_Type
  10
333768.500
  20
4640815.500
  0
VERTEX
  8
Unknown_Area_Type
  10
333767.000
  20
4640815.000
  0
VERTEX
  8
Unknown_Area_Type
  10
332106.000
  20
4640274.500
  0
VERTEX
  8
Unknown_Area_Type
  10
332024.000
  20
4636613.500
  0
VERTEX
  8
Unknown_Area_Type
  10
333817.500
  20
4636235.500
  0
VERTEX
  8
Unknown_Area_Type
  10
333821.000
  20
4636235.500
  0
VERTEX
  8
Unknown_Area_Type
  10
333831.500
  20
4636239.000
  0
VERTEX
  8
Unknown_Area_Type
  10
334813.500
  20
4636579.000
  0
VERTEX
  8
Unknown_Area_Type
  10
334922.000
  20
4640212.000
  0
VERTEX
  8
Unknown_Area_Type
  10
333768.500
  20
4640815.500
  0
SEQEND
  8
Unknown_Area_Type
  0
INSERT
  8
FeatureAttribs
  2
FEATURE
  41
1
  42
1
  43
1
  50
0
  10
327894.581
  20
4638595.580
 66
1
  0
ATTRIB
  8
FeatureAttribs
 70
0
  1
PNOA-H_AMS_1956-57_33k_ES_PAN_2
  2
NAME
  10
327894.581
  20
4638595.580
 40
33.99257
  0
SEQEND
  0
POLYLINE
  8
Unknown_Area_Type
  70
1
  66
1
  0
VERTEX
  8
Unknown_Area_Type
  10
328196.000
  20
4640930.500
  0
VERTEX
  8
Unknown_Area_Type
  10
329264.000
  20
4640372.000
  0
VERTEX
  8
Unknown_Area_Type
  10
329237.500
  20
4636639.500
  0
VERTEX
  8
Unknown_Area_Type
  10
328594.000
  20
4636373.000
  0
VERTEX
  8
Unknown_Area_Type
  10
326469.000
  20
4636688.000
  0
VERTEX
  8
Unknown_Area_Type
  10
326559.000
  20
4640468.500
  0
VERTEX
  8
Unknown_Area_Type
  10
328194.000
  20
4640930.000
  0
VERTEX
  8
Unknown_Area_Type
  10
328196.000
  20
4640930.500
  0
SEQEND
  8
Unknown_Area_Type
  0
INSERT
  8
FeatureAttribs
  2
FEATURE
  41
1
  42
1
  43
1
  50
0
  10
327894.581
  20
4638595.580
 66
1
  0
ATTRIB
  8
FeatureAttribs
 70
0
  1
PNOA-H_AMS_1956-57_33k_ES_PAN_2
  2
NAME
  10
327894.581
  20
4638595.580
 40
33.99257
  0
SEQEND
  0
POLYLINE
  8
Unknown_Area_Type
  70
1
  66
1
  0
VERTEX
  8
Unknown_Area_Type
  10
328196.000
  20
4640930.500
  0
VERTEX
  8
Unknown_Area_Type
  10
328194.000
  20
4640930.000
  0
VERTEX
  8
Unknown_Area_Type
  10
326559.000
  20
4640468.500
  0
VERTEX
  8
Unknown_Area_Type
  10
326469.000
  20
4636688.000
  0
VERTEX
  8
Unknown_Area_Type
  10
328594.000
  20
4636373.000
  0
VERTEX
  8
Unknown_Area_Type
  10
329237.500
  20
4636639.500
  0
VERTEX
  8
Unknown_Area_Type
  10
329264.000
  20
4640372.000
  0
VERTEX
  8
Unknown_Area_Type
  10
328196.000
  20
4640930.500
  0
SEQEND
  8
Unknown_Area_Type
  0
INSERT
  8
FeatureAttribs
  2
FEATURE
  41
1
  42
1
  43
1
  50
0
  10
336268.534
  20
4638419.443
 66
1
  0
ATTRIB
  8
FeatureAttribs
 70
0
  1
PNOA-H_AMS_1956-57_33k_ES_PAN_2
  2
NAME
  10
336268.534
  20
4638419.443
 40
33.99257
  0
SEQEND
  0
POLYLINE
  8
Unknown_Area_Type
  70
1
  66
1
  0
VERTEX
  8
Unknown_Area_Type
  10
335504.500
  20
4640380.000
  0
VERTEX
  8
Unknown_Area_Type
  10
336636.000
  20
4640706.000
  0
VERTEX
  8
Unknown_Area_Type
  10
337704.000
  20
4640165.500
  0
VERTEX
  8
Unknown_Area_Type
  10
337594.500
  20
4636552.500
  0
VERTEX
  8
Unknown_Area_Type
  10
336420.000
  20
4636204.500
  0
VERTEX
  8
Unknown_Area_Type
  10
336414.000
  20
4636204.000
  0
VERTEX
  8
Unknown_Area_Type
  10
336407.500
  20
4636205.500
  0
VERTEX
  8
Unknown_Area_Type
  10
334813.500
  20
4636579.500
  0
VERTEX
  8
Unknown_Area_Type
  10
334922.000
  20
4640212.000
  0
VERTEX
  8
Unknown_Area_Type
  10
335502.500
  20
4640379.500
  0
VERTEX
  8
Unknown_Area_Type
  10
335504.500
  20
4640380.000
  0
SEQEND
  8
Unknown_Area_Type
  0
INSERT
  8
FeatureAttribs
  2
FEATURE
  41
1
  42
1
  43
1
  50
0
  10
336268.534
  20
4638419.443
 66
1
  0
ATTRIB
  8
FeatureAttribs
 70
0
  1
PNOA-H_AMS_1956-57_33k_ES_PAN_2
  2
NAME
  10
336268.534
  20
4638419.443
 40
33.99257
  0
SEQEND
  0
POLYLINE
  8
Unknown_Area_Type
  70
1
  66
1
  0
VERTEX
  8
Unknown_Area_Type
  10
335504.500
  20
4640380.000
  0
VERTEX
  8
Unknown_Area_Type
  10
335502.500
  20
4640379.500
  0
VERTEX
  8
Unknown_Area_Type
  10
334922.000
  20
4640212.000
  0
VERTEX
  8
Unknown_Area_Type
  10
334813.500
  20
4636579.500
  0
VERTEX
  8
Unknown_Area_Type
  10
336407.500
  20
4636205.500
  0
VERTEX
  8
Unknown_Area_Type
  10
336414.000
  20
4636204.000
  0
VERTEX
  8
Unknown_Area_Type
  10
336420.000
  20
4636204.500
  0
VERTEX
  8
Unknown_Area_Type
  10
337594.500
  20
4636552.500
  0
VERTEX
  8
Unknown_Area_Type
  10
337704.000
  20
4640165.500
  0
VERTEX
  8
Unknown_Area_Type
  10
336636.000
  20
4640706.000
  0
VERTEX
  8
Unknown_Area_Type
  10
335504.500
  20
4640380.000
  0
SEQEND
  8
Unknown_Area_Type
  0
INSERT
  8
FeatureAttribs
  2
FEATURE
  41
1
  42
1
  43
1
  50
0
  10
325172.725
  20
4638689.860
 66
1
  0
ATTRIB
  8
FeatureAttribs
 70
0
  1
PNOA-H_AMS_1956-57_33k_ES_PAN_2
  2
NAME
  10
325172.725
  20
4638689.860
 40
33.99257
  0
SEQEND
  0
POLYLINE
  8
Unknown_Area_Type
  70
1
  66
1
  0
VERTEX
  8
Unknown_Area_Type
  10
325374.000
  20
4641021.500
  0
VERTEX
  8
Unknown_Area_Type
  10
325378.500
  20
4641021.000
  0
VERTEX
  8
Unknown_Area_Type
  10
326559.000
  20
4640469.000
  0
VERTEX
  8
Unknown_Area_Type
  10
326469.000
  20
4636688.000
  0
VERTEX
  8
Unknown_Area_Type
  10
325924.500
  20
4636463.500
  0
VERTEX
  8
Unknown_Area_Type
  10
325917.500
  20
4636463.500
  0
VERTEX
  8
Unknown_Area_Type
  10
323733.000
  20
4636806.500
  0
VERTEX
  8
Unknown_Area_Type
  10
323867.500
  20
4640544.000
  0
VERTEX
  8
Unknown_Area_Type
  10
325372.500
  20
4641021.000
  0
VERTEX
  8
Unknown_Area_Type
  10
325374.000
  20
4641021.500
  0
SEQEND
  8
Unknown_Area_Type
  0
INSERT
  8
FeatureAttribs
  2
FEATURE
  41
1
  42
1
  43
1
  50
0
  10
325172.725
  20
4638689.860
 66
1
  0
ATTRIB
  8
FeatureAttribs
 70
0
  1
PNOA-H_AMS_1956-57_33k_ES_PAN_2
  2
NAME
  10
325172.725
  20
4638689.860
 40
33.99257
  0
SEQEND
  0
POLYLINE
  8
Unknown_Area_Type
  70
1
  66
1
  0
VERTEX
  8
Unknown_Area_Type
  10
325374.000
  20
4641021.500
  0
VERTEX
  8
Unknown_Area_Type
  10
325372.500
  20
4641021.000
  0
VERTEX
  8
Unknown_Area_Type
  10
323867.500
  20
4640544.000
  0
VERTEX
  8
Unknown_Area_Type
  10
323733.000
  20
4636806.500
  0
VERTEX
  8
Unknown_Area_Type
  10
325917.500
  20
4636463.500
  0
VERTEX
  8
Unknown_Area_Type
  10
325924.500
  20
4636463.500
  0
VERTEX
  8
Unknown_Area_Type
  10
326469.000
  20
4636688.000
  0
VERTEX
  8
Unknown_Area_Type
  10
326559.000
  20
4640469.000
  0
VERTEX
  8
Unknown_Area_Type
  10
325378.500
  20
4641021.000
  0
VERTEX
  8
Unknown_Area_Type
  10
325374.000
  20
4641021.500
  0
SEQEND
  8
Unknown_Area_Type
  0
INSERT
  8
FeatureAttribs
  2
FEATURE
  41
1
  42
1
  43
1
  50
0
  10
330668.270
  20
4638539.642
 66
1
  0
ATTRIB
  8
FeatureAttribs
 70
0
  1
PNOA-H_AMS_1956-57_33k_ES_PAN_2
  2
NAME
  10
330668.270
  20
4638539.642
 40
33.99257
  0
SEQEND
  0
POLYLINE
  8
Unknown_Area_Type
  70
1
  66
1
  0
VERTEX
  8
Unknown_Area_Type
  10
329360.500
  20
4640399.000
  0
VERTEX
  8
Unknown_Area_Type
  10
330970.500
  20
4640847.000
  0
VERTEX
  8
Unknown_Area_Type
  10
332106.000
  20
4640274.500
  0
VERTEX
  8
Unknown_Area_Type
  10
332024.000
  20
4636613.500
  0
VERTEX
  8
Unknown_Area_Type
  10
331221.000
  20
4636310.000
  0
VERTEX
  8
Unknown_Area_Type
  10
331090.000
  20
4636331.000
  0
VERTEX
  8
Unknown_Area_Type
  10
329237.500
  20
4636639.500
  0
VERTEX
  8
Unknown_Area_Type
  10
329264.000
  20
4640372.000
  0
VERTEX
  8
Unknown_Area_Type
  10
329359.000
  20
4640398.500
  0
VERTEX
  8
Unknown_Area_Type
  10
329360.500
  20
4640399.000
  0
SEQEND
  8
Unknown_Area_Type
  0
INSERT
  8
FeatureAttribs
  2
FEATURE
  41
1
  42
1
  43
1
  50
0
  10
330668.270
  20
4638539.642
 66
1
  0
ATTRIB
  8
FeatureAttribs
 70
0
  1
PNOA-H_AMS_1956-57_33k_ES_PAN_2
  2
NAME
  10
330668.270
  20
4638539.642
 40
33.99257
  0
SEQEND
  0
POLYLINE
  8
Unknown_Area_Type
  70
1
  66
1
  0
VERTEX
  8
Unknown_Area_Type
  10
329360.500
  20
4640399.000
  0
VERTEX
  8
Unknown_Area_Type
  10
329359.000
  20
4640398.500
  0
VERTEX
  8
Unknown_Area_Type
  10
329264.000
  20
4640372.000
  0
VERTEX
  8
Unknown_Area_Type
  10
329237.500
  20
4636639.500
  0
VERTEX
  8
Unknown_Area_Type
  10
331090.000
  20
4636331.000
  0
VERTEX
  8
Unknown_Area_Type
  10
331221.000
  20
4636310.000
  0
VERTEX
  8
Unknown_Area_Type
  10
332024.000
  20
4636613.500
  0
VERTEX
  8
Unknown_Area_Type
  10
332106.000
  20
4640274.500
  0
VERTEX
  8
Unknown_Area_Type
  10
330970.500
  20
4640847.000
  0
VERTEX
  8
Unknown_Area_Type
  10
329360.500
  20
4640399.000
  0
SEQEND
  8
Unknown_Area_Type
  0
INSERT
  8
FeatureAttribs
  2
FEATURE
  41
1
  42
1
  43
1
  50
0
  10
318427.055
  20
4638883.998
 66
1
  0
ATTRIB
  8
FeatureAttribs
 70
0
  1
PNOA-H_AMS_1956-57_33k_ES_PAN_2
  2
NAME
  10
318427.055
  20
4638883.998
 40
33.99257
  0
SEQEND
  0
POLYLINE
  8
Unknown_Area_Type
  70
1
  66
1
  0
VERTEX
  8
Unknown_Area_Type
  10
318445.824
  20
4636970.791
  0
VERTEX
  8
Unknown_Area_Type
  10
318359.508
  20
4636983.370
  0
VERTEX
  8
Unknown_Area_Type
  10
318359.508
  20
4640747.363
  0
VERTEX
  8
Unknown_Area_Type
  10
318543.397
  20
4640797.206
  0
VERTEX
  8
Unknown_Area_Type
  10
318536.443
  20
4640524.643
  0
VERTEX
  8
Unknown_Area_Type
  10
318477.450
  20
4638211.402
  0
VERTEX
  8
Unknown_Area_Type
  10
318445.824
  20
4636970.791
  0
SEQEND
  8
Unknown_Area_Type
  0
INSERT
  8
FeatureAttribs
  2
FEATURE
  41
1
  42
1
  43
1
  50
0
  10
319775.635
  20
4638878.217
 66
1
  0
ATTRIB
  8
FeatureAttribs
 70
0
  1
PNOA-H_AMS_1956-57_33k_ES_PAN_2
  2
NAME
  10
319775.635
  20
4638878.217
 40
33.99257
  0
SEQEND
  0
POLYLINE
  8
Unknown_Area_Type
  70
1
  66
1
  0
VERTEX
  8
Unknown_Area_Type
  10
318543.397
  20
4640797.206
  0
VERTEX
  8
Unknown_Area_Type
  10
319952.000
  20
4641179.000
  0
VERTEX
  8
Unknown_Area_Type
  10
319954.000
  20
4641179.500
  0
VERTEX
  8
Unknown_Area_Type
  10
319956.000
  20
4641179.500
  0
VERTEX
  8
Unknown_Area_Type
  10
319979.500
  20
4641168.500
  0
VERTEX
  8
Unknown_Area_Type
  10
321055.500
  20
4640663.000
  0
VERTEX
  8
Unknown_Area_Type
  10
321029.000
  20
4636914.500
  0
VERTEX
  8
Unknown_Area_Type
  10
320499.500
  20
4636671.500
  0
VERTEX
  8
Unknown_Area_Type
  10
318445.824
  20
4636970.791
  0
VERTEX
  8
Unknown_Area_Type
  10
318477.450
  20
4638211.402
  0
VERTEX
  8
Unknown_Area_Type
  10
318536.443
  20
4640524.643
  0
VERTEX
  8
Unknown_Area_Type
  10
318543.397
  20
4640797.206
  0
SEQEND
  8
Unknown_Area_Type
  0
INSERT
  8
FeatureAttribs
  2
FEATURE
  41
1
  42
1
  43
1
  50
0
  10
319775.635
  20
4638878.217
 66
1
  0
ATTRIB
  8
FeatureAttribs
 70
0
  1
PNOA-H_AMS_1956-57_33k_ES_PAN_2
  2
NAME
  10
319775.635
  20
4638878.217
 40
33.99257
  0
SEQEND
  0
POLYLINE
  8
Unknown_Area_Type
  70
1
  66
1
  0
VERTEX
  8
Unknown_Area_Type
  10
318543.397
  20
4640797.206
  0
VERTEX
  8
Unknown_Area_Type
  10
318536.443
  20
4640524.643
  0
VERTEX
  8
Unknown_Area_Type
  10
318477.450
  20
4638211.402
  0
VERTEX
  8
Unknown_Area_Type
  10
318445.824
  20
4636970.791
  0
VERTEX
  8
Unknown_Area_Type
  10
320499.500
  20
4636671.500
  0
VERTEX
  8
Unknown_Area_Type
  10
321029.000
  20
4636914.500
  0
VERTEX
  8
Unknown_Area_Type
  10
321055.500
  20
4640663.000
  0
VERTEX
  8
Unknown_Area_Type
  10
319979.500
  20
4641168.500
  0
VERTEX
  8
Unknown_Area_Type
  10
319956.000
  20
4641179.500
  0
VERTEX
  8
Unknown_Area_Type
  10
319954.000
  20
4641179.500
  0
VERTEX
  8
Unknown_Area_Type
  10
319952.000
  20
4641179.000
  0
VERTEX
  8
Unknown_Area_Type
  10
318543.397
  20
4640797.206
  0
SEQEND
  8
Unknown_Area_Type
  0
INSERT
  8
FeatureAttribs
  2
FEATURE
  41
1
  42
1
  43
1
  50
0
  10
322433.551
  20
4638817.762
 66
1
  0
ATTRIB
  8
FeatureAttribs
 70
0
  1
PNOA-H_AMS_1956-57_33k_ES_PAN_2
  2
NAME
  10
322433.551
  20
4638817.762
 40
33.99257
  0
SEQEND
  0
POLYLINE
  8
Unknown_Area_Type
  70
1
  66
1
  0
VERTEX
  8
Unknown_Area_Type
  10
321169.500
  20
4640696.000
  0
VERTEX
  8
Unknown_Area_Type
  10
322616.500
  20
4641107.500
  0
VERTEX
  8
Unknown_Area_Type
  10
323867.500
  20
4640544.000
  0
VERTEX
  8
Unknown_Area_Type
  10
323733.000
  20
4636806.500
  0
VERTEX
  8
Unknown_Area_Type
  10
323234.500
  20
4636593.500
  0
VERTEX
  8
Unknown_Area_Type
  10
321029.000
  20
4636914.500
  0
VERTEX
  8
Unknown_Area_Type
  10
321055.000
  20
4640661.000
  0
VERTEX
  8
Unknown_Area_Type
  10
321055.500
  20
4640663.500
  0
VERTEX
  8
Unknown_Area_Type
  10
321057.000
  20
4640664.000
  0
VERTEX
  8
Unknown_Area_Type
  10
321167.500
  20
4640695.500
  0
VERTEX
  8
Unknown_Area_Type
  10
321169.500
  20
4640696.000
  0
SEQEND
  8
Unknown_Area_Type
  0
INSERT
  8
FeatureAttribs
  2
FEATURE
  41
1
  42
1
  43
1
  50
0
  10
322433.551
  20
4638817.762
 66
1
  0
ATTRIB
  8
FeatureAttribs
 70
0
  1
PNOA-H_AMS_1956-57_33k_ES_PAN_2
  2
NAME
  10
322433.551
  20
4638817.762
 40
33.99257
  0
SEQEND
  0
POLYLINE
  8
Unknown_Area_Type
  70
1
  66
1
  0
VERTEX
  8
Unknown_Area_Type
  10
321169.500
  20
4640696.000
  0
VERTEX
  8
Unknown_Area_Type
  10
321167.500
  20
4640695.500
  0
VERTEX
  8
Unknown_Area_Type
  10
321057.000
  20
4640664.000
  0
VERTEX
  8
Unknown_Area_Type
  10
321055.500
  20
4640663.500
  0
VERTEX
  8
Unknown_Area_Type
  10
321055.000
  20
4640661.000
  0
VERTEX
  8
Unknown_Area_Type
  10
321029.000
  20
4636914.500
  0
VERTEX
  8
Unknown_Area_Type
  10
323234.500
  20
4636593.500
  0
VERTEX
  8
Unknown_Area_Type
  10
323733.000
  20
4636806.500
  0
VERTEX
  8
Unknown_Area_Type
  10
323867.500
  20
4640544.000
  0
VERTEX
  8
Unknown_Area_Type
  10
322616.500
  20
4641107.500
  0
VERTEX
  8
Unknown_Area_Type
  10
321169.500
  20
4640696.000
  0
SEQEND
  8
Unknown_Area_Type
  0
INSERT
  8
FeatureAttribs
  2
FEATURE
  41
1
  42
1
  43
1
  50
0
  10
346296.869
  20
4638255.912
 66
1
  0
ATTRIB
  8
FeatureAttribs
 70
0
  1
PNOA-H_AMS_1956-57_33k_ES_PAN_2
  2
NAME
  10
346296.869
  20
4638255.912
 40
33.99257
  0
SEQEND
  0
POLYLINE
  8
Unknown_Area_Type
  70
1
  66
1
  0
VERTEX
  8
Unknown_Area_Type
  10
346439.502
  20
4640197.009
  0
VERTEX
  8
Unknown_Area_Type
  10
346439.502
  20
4636307.823
  0
VERTEX
  8
Unknown_Area_Type
  10
346114.917
  20
4636436.242
  0
VERTEX
  8
Unknown_Area_Type
  10
346139.193
  20
4637559.884
  0
VERTEX
  8
Unknown_Area_Type
  10
346189.189
  20
4639873.073
  0
VERTEX
  8
Unknown_Area_Type
  10
346196.225
  20
4640198.506
  0
VERTEX
  8
Unknown_Area_Type
  10
346219.500
  20
4640204.000
  0
VERTEX
  8
Unknown_Area_Type
  10
346439.502
  20
4640197.009
  0
SEQEND
  8
Unknown_Area_Type
  0
INSERT
  8
FeatureAttribs
  2
FEATURE
  41
1
  42
1
  43
1
  50
0
  10
345994.772
  20
4638328.867
 66
1
  0
ATTRIB
  8
FeatureAttribs
 70
0
  1
PNOA-H_AMS_1956-57_33k_ES_PAN_2
  2
NAME
  10
345994.772
  20
4638328.867
 40
33.99257
  0
SEQEND
  0
POLYLINE
  8
Unknown_Area_Type
  70
1
  66
1
  0
VERTEX
  8
Unknown_Area_Type
  10
346114.917
  20
4636436.242
  0
VERTEX
  8
Unknown_Area_Type
  10
345792.000
  20
4636564.000
  0
VERTEX
  8
Unknown_Area_Type
  10
345870.000
  20
4640121.500
  0
VERTEX
  8
Unknown_Area_Type
  10
346196.225
  20
4640198.506
  0
VERTEX
  8
Unknown_Area_Type
  10
346189.189
  20
4639873.073
  0
VERTEX
  8
Unknown_Area_Type
  10
346139.193
  20
4637559.884
  0
VERTEX
  8
Unknown_Area_Type
  10
346114.917
  20
4636436.242
  0
SEQEND
  8
Unknown_Area_Type
  0
INSERT
  8
FeatureAttribs
  2
FEATURE
  41
1
  42
1
  43
1
  50
0
  10
345994.772
  20
4638328.867
 66
1
  0
ATTRIB
  8
FeatureAttribs
 70
0
  1
PNOA-H_AMS_1956-57_33k_ES_PAN_2
  2
NAME
  10
345994.772
  20
4638328.867
 40
33.99257
  0
SEQEND
  0
POLYLINE
  8
Unknown_Area_Type
  70
1
  66
1
  0
VERTEX
  8
Unknown_Area_Type
  10
346114.917
  20
4636436.242
  0
VERTEX
  8
Unknown_Area_Type
  10
346139.193
  20
4637559.884
  0
VERTEX
  8
Unknown_Area_Type
  10
346189.189
  20
4639873.073
  0
VERTEX
  8
Unknown_Area_Type
  10
346196.225
  20
4640198.506
  0
VERTEX
  8
Unknown_Area_Type
  10
345870.000
  20
4640121.500
  0
VERTEX
  8
Unknown_Area_Type
  10
345792.000
  20
4636564.000
  0
VERTEX
  8
Unknown_Area_Type
  10
346114.917
  20
4636436.242
  0
SEQEND
  8
Unknown_Area_Type
  0
INSERT
  8
FeatureAttribs
  2
FEATURE
  41
1
  42
1
  43
1
  50
0
  10
318478.484
  20
4642916.203
 66
1
  0
ATTRIB
  8
FeatureAttribs
 70
0
  1
PNOA-H_AMS_1956-57_33k_ES_PAN_2
  2
NAME
  10
318478.484
  20
4642916.203
 40
33.99257
  0
SEQEND
  0
POLYLINE
  8
Unknown_Area_Type
  70
1
  66
1
  0
VERTEX
  8
Unknown_Area_Type
  10
318543.390
  20
4640796.926
  0
VERTEX
  8
Unknown_Area_Type
  10
318359.508
  20
4640747.090
  0
VERTEX
  8
Unknown_Area_Type
  10
318359.508
  20
4645077.978
  0
VERTEX
  8
Unknown_Area_Type
  10
318652.822
  20
4645085.315
  0
VERTEX
  8
Unknown_Area_Type
  10
318595.461
  20
4642837.891
  0
VERTEX
  8
Unknown_Area_Type
  10
318543.390
  20
4640796.926
  0
SEQEND
  8
Unknown_Area_Type
  0
INSERT
  8
FeatureAttribs
  2
FEATURE
  41
1
  42
1
  43
1
  50
0
  10
319295.630
  20
4643044.240
 66
1
  0
ATTRIB
  8
FeatureAttribs
 70
0
  1
PNOA-H_AMS_1956-57_33k_ES_PAN_2
  2
NAME
  10
319295.630
  20
4643044.240
 40
33.99257
  0
SEQEND
  0
POLYLINE
  8
Unknown_Area_Type
  70
1
  66
1
  0
VERTEX
  8
Unknown_Area_Type
  10
318652.822
  20
4645085.315
  0
VERTEX
  8
Unknown_Area_Type
  10
319819.500
  20
4645114.500
  0
VERTEX
  8
Unknown_Area_Type
  10
319839.500
  20
4645115.000
  0
VERTEX
  8
Unknown_Area_Type
  10
319851.500
  20
4645115.000
  0
VERTEX
  8
Unknown_Area_Type
  10
320074.500
  20
4644971.500
  0
VERTEX
  8
Unknown_Area_Type
  10
319955.000
  20
4641179.500
  0
VERTEX
  8
Unknown_Area_Type
  10
318543.390
  20
4640796.926
  0
VERTEX
  8
Unknown_Area_Type
  10
318595.461
  20
4642837.891
  0
VERTEX
  8
Unknown_Area_Type
  10
318652.822
  20
4645085.315
  0
SEQEND
  8
Unknown_Area_Type
  0
INSERT
  8
FeatureAttribs
  2
FEATURE
  41
1
  42
1
  43
1
  50
0
  10
319295.630
  20
4643044.240
 66
1
  0
ATTRIB
  8
FeatureAttribs
 70
0
  1
PNOA-H_AMS_1956-57_33k_ES_PAN_2
  2
NAME
  10
319295.630
  20
4643044.240
 40
33.99257
  0
SEQEND
  0
POLYLINE
  8
Unknown_Area_Type
  70
1
  66
1
  0
VERTEX
  8
Unknown_Area_Type
  10
318652.822
  20
4645085.315
  0
VERTEX
  8
Unknown_Area_Type
  10
318595.461
  20
4642837.891
  0
VERTEX
  8
Unknown_Area_Type
  10
318543.390
  20
4640796.926
  0
VERTEX
  8
Unknown_Area_Type
  10
319955.000
  20
4641179.500
  0
VERTEX
  8
Unknown_Area_Type
  10
320074.500
  20
4644971.500
  0
VERTEX
  8
Unknown_Area_Type
  10
319851.500
  20
4645115.000
  0
VERTEX
  8
Unknown_Area_Type
  10
319839.500
  20
4645115.000
  0
VERTEX
  8
Unknown_Area_Type
  10
319819.500
  20
4645114.500
  0
VERTEX
  8
Unknown_Area_Type
  10
318652.822
  20
4645085.315
  0
SEQEND
  8
Unknown_Area_Type
  0
INSERT
  8
FeatureAttribs
  2
FEATURE
  41
1
  42
1
  43
1
  50
0
  10
340446.482
  20
4641845.367
 66
1
  0
ATTRIB
  8
FeatureAttribs
 70
0
  1
PNOA-H_AMS_1956-57_33k_ES_PAN_2
  2
NAME
  10
340446.482
  20
4641845.367
 40
33.99257
  0
SEQEND
  0
POLYLINE
  8
Unknown_Area_Type
  70
1
  66
1
  0
VERTEX
  8
Unknown_Area_Type
  10
339737.000
  20
4643187.000
  0
VERTEX
  8
Unknown_Area_Type
  10
341468.500
  20
4643150.000
  0
VERTEX
  8
Unknown_Area_Type
  10
340773.000
  20
4640249.500
  0
VERTEX
  8
Unknown_Area_Type
  10
340421.000
  20
4640163.500
  0
VERTEX
  8
Unknown_Area_Type
  10
339714.500
  20
4640528.000
  0
VERTEX
  8
Unknown_Area_Type
  10
339737.000
  20
4643174.000
  0
VERTEX
  8
Unknown_Area_Type
  10
339737.000
  20
4643187.000
  0
SEQEND
  8
Unknown_Area_Type
  0
INSERT
  8
FeatureAttribs
  2
FEATURE
  41
1
  42
1
  43
1
  50
0
  10
340446.482
  20
4641845.367
 66
1
  0
ATTRIB
  8
FeatureAttribs
 70
0
  1
PNOA-H_AMS_1956-57_33k_ES_PAN_2
  2
NAME
  10
340446.482
  20
4641845.367
 40
33.99257
  0
SEQEND
  0
POLYLINE
  8
Unknown_Area_Type
  70
1
  66
1
  0
VERTEX
  8
Unknown_Area_Type
  10
339737.000
  20
4643187.000
  0
VERTEX
  8
Unknown_Area_Type
  10
339737.000
  20
4643174.000
  0
VERTEX
  8
Unknown_Area_Type
  10
339714.500
  20
4640528.000
  0
VERTEX
  8
Unknown_Area_Type
  10
340421.000
  20
4640163.500
  0
VERTEX
  8
Unknown_Area_Type
  10
340773.000
  20
4640249.500
  0
VERTEX
  8
Unknown_Area_Type
  10
341468.500
  20
4643150.000
  0
VERTEX
  8
Unknown_Area_Type
  10
339737.000
  20
4643187.000
  0
SEQEND
  8
Unknown_Area_Type
  0
INSERT
  8
FeatureAttribs
  2
FEATURE
  41
1
  42
1
  43
1
  50
0
  10
321364.873
  20
4642942.051
 66
1
  0
ATTRIB
  8
FeatureAttribs
 70
0
  1
PNOA-H_AMS_1956-57_33k_ES_PAN_2
  2
NAME
  10
321364.873
  20
4642942.051
 40
33.99257
  0
SEQEND
  0
POLYLINE
  8
Unknown_Area_Type
  70
1
  66
1
  0
VERTEX
  8
Unknown_Area_Type
  10
321170.000
  20
4644964.500
  0
VERTEX
  8
Unknown_Area_Type
  10
322749.000
  20
4644954.000
  0
VERTEX
  8
Unknown_Area_Type
  10
322836.000
  20
4644894.500
  0
VERTEX
  8
Unknown_Area_Type
  10
322836.000
  20
4644888.000
  0
VERTEX
  8
Unknown_Area_Type
  10
322615.500
  20
4641107.500
  0
VERTEX
  8
Unknown_Area_Type
  10
321055.500
  20
4640663.000
  0
VERTEX
  8
Unknown_Area_Type
  10
319962.000
  20
4641176.000
  0
VERTEX
  8
Unknown_Area_Type
  10
319955.000
  20
4641179.500
  0
VERTEX
  8
Unknown_Area_Type
  10
319955.000
  20
4641184.000
  0
VERTEX
  8
Unknown_Area_Type
  10
320074.500
  20
4644971.500
  0
VERTEX
  8
Unknown_Area_Type
  10
321096.000
  20
4644964.500
  0
VERTEX
  8
Unknown_Area_Type
  10
321170.000
  20
4644964.500
  0
SEQEND
  8
Unknown_Area_Type
  0
INSERT
  8
FeatureAttribs
  2
FEATURE
  41
1
  42
1
  43
1
  50
0
  10
321364.873
  20
4642942.051
 66
1
  0
ATTRIB
  8
FeatureAttribs
 70
0
  1
PNOA-H_AMS_1956-57_33k_ES_PAN_2
  2
NAME
  10
321364.873
  20
4642942.051
 40
33.99257
  0
SEQEND
  0
POLYLINE
  8
Unknown_Area_Type
  70
1
  66
1
  0
VERTEX
  8
Unknown_Area_Type
  10
321170.000
  20
4644964.500
  0
VERTEX
  8
Unknown_Area_Type
  10
321096.000
  20
4644964.500
  0
VERTEX
  8
Unknown_Area_Type
  10
320074.500
  20
4644971.500
  0
VERTEX
  8
Unknown_Area_Type
  10
319955.000
  20
4641184.000
  0
VERTEX
  8
Unknown_Area_Type
  10
319955.000
  20
4641179.500
  0
VERTEX
  8
Unknown_Area_Type
  10
319962.000
  20
4641176.000
  0
VERTEX
  8
Unknown_Area_Type
  10
321055.500
  20
4640663.000
  0
VERTEX
  8
Unknown_Area_Type
  10
322615.500
  20
4641107.500
  0
VERTEX
  8
Unknown_Area_Type
  10
322836.000
  20
4644888.000
  0
VERTEX
  8
Unknown_Area_Type
  10
322836.000
  20
4644894.500
  0
VERTEX
  8
Unknown_Area_Type
  10
322749.000
  20
4644954.000
  0
VERTEX
  8
Unknown_Area_Type
  10
321170.000
  20
4644964.500
  0
SEQEND
  8
Unknown_Area_Type
  0
INSERT
  8
FeatureAttribs
  2
FEATURE
  41
1
  42
1
  43
1
  50
0
  10
343302.794
  20
4641921.064
 66
1
  0
ATTRIB
  8
FeatureAttribs
 70
0
  1
PNOA-H_AMS_1956-57_33k_ES_PAN_2
  2
NAME
  10
343302.794
  20
4641921.064
 40
33.99257
  0
SEQEND
  0
POLYLINE
  8
Unknown_Area_Type
  70
1
  66
1
  0
VERTEX
  8
Unknown_Area_Type
  10
342546.500
  20
4643235.000
  0
VERTEX
  8
Unknown_Area_Type
  10
344440.500
  20
4643076.000
  0
VERTEX
  8
Unknown_Area_Type
  10
343362.000
  20
4640182.500
  0
VERTEX
  8
Unknown_Area_Type
  10
343361.000
  20
4640180.500
  0
VERTEX
  8
Unknown_Area_Type
  10
343355.500
  20
4640179.000
  0
VERTEX
  8
Unknown_Area_Type
  10
343125.000
  20
4640125.500
  0
VERTEX
  8
Unknown_Area_Type
  10
342710.000
  20
4640353.500
  0
VERTEX
  8
Unknown_Area_Type
  10
342702.000
  20
4640358.000
  0
VERTEX
  8
Unknown_Area_Type
  10
342701.500
  20
4640360.000
  0
VERTEX
  8
Unknown_Area_Type
  10
342546.500
  20
4643229.000
  0
VERTEX
  8
Unknown_Area_Type
  10
342546.500
  20
4643235.000
  0
SEQEND
  8
Unknown_Area_Type
  0
INSERT
  8
FeatureAttribs
  2
FEATURE
  41
1
  42
1
  43
1
  50
0
  10
343302.794
  20
4641921.064
 66
1
  0
ATTRIB
  8
FeatureAttribs
 70
0
  1
PNOA-H_AMS_1956-57_33k_ES_PAN_2
  2
NAME
  10
343302.794
  20
4641921.064
 40
33.99257
  0
SEQEND
  0
POLYLINE
  8
Unknown_Area_Type
  70
1
  66
1
  0
VERTEX
  8
Unknown_Area_Type
  10
342546.500
  20
4643235.000
  0
VERTEX
  8
Unknown_Area_Type
  10
342546.500
  20
4643229.000
  0
VERTEX
  8
Unknown_Area_Type
  10
342701.500
  20
4640360.000
  0
VERTEX
  8
Unknown_Area_Type
  10
342702.000
  20
4640358.000
  0
VERTEX
  8
Unknown_Area_Type
  10
342710.000
  20
4640353.500
  0
VERTEX
  8
Unknown_Area_Type
  10
343125.000
  20
4640125.500
  0
VERTEX
  8
Unknown_Area_Type
  10
343355.500
  20
4640179.000
  0
VERTEX
  8
Unknown_Area_Type
  10
343361.000
  20
4640180.500
  0
VERTEX
  8
Unknown_Area_Type
  10
343362.000
  20
4640182.500
  0
VERTEX
  8
Unknown_Area_Type
  10
344440.500
  20
4643076.000
  0
VERTEX
  8
Unknown_Area_Type
  10
342546.500
  20
4643235.000
  0
SEQEND
  8
Unknown_Area_Type
  0
INSERT
  8
FeatureAttribs
  2
FEATURE
  41
1
  42
1
  43
1
  50
0
  10
326846.213
  20
4642712.847
 66
1
  0
ATTRIB
  8
FeatureAttribs
 70
0
  1
PNOA-H_AMS_1956-57_33k_ES_PAN_2
  2
NAME
  10
326846.213
  20
4642712.847
 40
33.99257
  0
SEQEND
  0
POLYLINE
  8
Unknown_Area_Type
  70
1
  66
1
  0
VERTEX
  8
Unknown_Area_Type
  10
327314.000
  20
4644684.000
  0
VERTEX
  8
Unknown_Area_Type
  10
328349.000
  20
4644605.500
  0
VERTEX
  8
Unknown_Area_Type
  10
328196.500
  20
4640930.500
  0
VERTEX
  8
Unknown_Area_Type
  10
326559.500
  20
4640468.500
  0
VERTEX
  8
Unknown_Area_Type
  10
325376.000
  20
4641021.500
  0
VERTEX
  8
Unknown_Area_Type
  10
325524.500
  20
4644727.500
  0
VERTEX
  8
Unknown_Area_Type
  10
325669.500
  20
4644808.500
  0
VERTEX
  8
Unknown_Area_Type
  10
327308.500
  20
4644684.000
  0
VERTEX
  8
Unknown_Area_Type
  10
327314.000
  20
4644684.000
  0
SEQEND
  8
Unknown_Area_Type
  0
INSERT
  8
FeatureAttribs
  2
FEATURE
  41
1
  42
1
  43
1
  50
0
  10
326846.213
  20
4642712.847
 66
1
  0
ATTRIB
  8
FeatureAttribs
 70
0
  1
PNOA-H_AMS_1956-57_33k_ES_PAN_2
  2
NAME
  10
326846.213
  20
4642712.847
 40
33.99257
  0
SEQEND
  0
POLYLINE
  8
Unknown_Area_Type
  70
1
  66
1
  0
VERTEX
  8
Unknown_Area_Type
  10
327314.000
  20
4644684.000
  0
VERTEX
  8
Unknown_Area_Type
  10
327308.500
  20
4644684.000
  0
VERTEX
  8
Unknown_Area_Type
  10
325669.500
  20
4644808.500
  0
VERTEX
  8
Unknown_Area_Type
  10
325524.500
  20
4644727.500
  0
VERTEX
  8
Unknown_Area_Type
  10
325376.000
  20
4641021.500
  0
VERTEX
  8
Unknown_Area_Type
  10
326559.500
  20
4640468.500
  0
VERTEX
  8
Unknown_Area_Type
  10
328196.500
  20
4640930.500
  0
VERTEX
  8
Unknown_Area_Type
  10
328349.000
  20
4644605.500
  0
VERTEX
  8
Unknown_Area_Type
  10
327314.000
  20
4644684.000
  0
SEQEND
  8
Unknown_Area_Type
  0
INSERT
  8
FeatureAttribs
  2
FEATURE
  41
1
  42
1
  43
1
  50
0
  10
346334.213
  20
4641710.784
 66
1
  0
ATTRIB
  8
FeatureAttribs
 70
0
  1
PNOA-H_AMS_1956-57_33k_ES_PAN_2
  2
NAME
  10
346334.213
  20
4641710.784
 40
33.99257
  0
SEQEND
  0
POLYLINE
  8
Unknown_Area_Type
  70
1
  66
1
  0
VERTEX
  8
Unknown_Area_Type
  10
346439.502
  20
4643176.353
  0
VERTEX
  8
Unknown_Area_Type
  10
346439.502
  20
4640861.573
  0
VERTEX
  8
Unknown_Area_Type
  10
346221.500
  20
4640204.500
  0
VERTEX
  8
Unknown_Area_Type
  10
346196.226
  20
4640198.549
  0
VERTEX
  8
Unknown_Area_Type
  10
346239.205
  20
4642186.269
  0
VERTEX
  8
Unknown_Area_Type
  10
346261.631
  20
4643223.018
  0
VERTEX
  8
Unknown_Area_Type
  10
346439.502
  20
4643176.353
  0
SEQEND
  8
Unknown_Area_Type
  0
INSERT
  8
FeatureAttribs
  2
FEATURE
  41
1
  42
1
  43
1
  50
0
  10
345795.304
  20
4641931.854
 66
1
  0
ATTRIB
  8
FeatureAttribs
 70
0
  1
PNOA-H_AMS_1956-57_33k_ES_PAN_2
  2
NAME
  10
345795.304
  20
4641931.854
 40
33.99257
  0
SEQEND
  0
POLYLINE
  8
Unknown_Area_Type
  70
1
  66
1
  0
VERTEX
  8
Unknown_Area_Type
  10
346261.631
  20
4643223.018
  0
VERTEX
  8
Unknown_Area_Type
  10
346239.205
  20
4642186.269
  0
VERTEX
  8
Unknown_Area_Type
  10
346196.226
  20
4640198.549
  0
VERTEX
  8
Unknown_Area_Type
  10
345869.000
  20
4640121.500
  0
VERTEX
  8
Unknown_Area_Type
  10
345623.000
  20
4640249.500
  0
VERTEX
  8
Unknown_Area_Type
  10
345170.500
  20
4643246.500
  0
VERTEX
  8
Unknown_Area_Type
  10
345170.500
  20
4643249.000
  0
VERTEX
  8
Unknown_Area_Type
  10
345174.000
  20
4643253.500
  0
VERTEX
  8
Unknown_Area_Type
  10
345344.500
  20
4643462.500
  0
VERTEX
  8
Unknown_Area_Type
  10
345345.000
  20
4643463.500
  0
VERTEX
  8
Unknown_Area_Type
  10
346261.631
  20
4643223.018
  0
SEQEND
  8
Unknown_Area_Type
  0
INSERT
  8
FeatureAttribs
  2
FEATURE
  41
1
  42
1
  43
1
  50
0
  10
345795.304
  20
4641931.854
 66
1
  0
ATTRIB
  8
FeatureAttribs
 70
0
  1
PNOA-H_AMS_1956-57_33k_ES_PAN_2
  2
NAME
  10
345795.304
  20
4641931.854
 40
33.99257
  0
SEQEND
  0
POLYLINE
  8
Unknown_Area_Type
  70
1
  66
1
  0
VERTEX
  8
Unknown_Area_Type
  10
346261.631
  20
4643223.018
  0
VERTEX
  8
Unknown_Area_Type
  10
345345.000
  20
4643463.500
  0
VERTEX
  8
Unknown_Area_Type
  10
345344.500
  20
4643462.500
  0
VERTEX
  8
Unknown_Area_Type
  10
345174.000
  20
4643253.500
  0
VERTEX
  8
Unknown_Area_Type
  10
345170.500
  20
4643249.000
  0
VERTEX
  8
Unknown_Area_Type
  10
345170.500
  20
4643246.500
  0
VERTEX
  8
Unknown_Area_Type
  10
345623.000
  20
4640249.500
  0
VERTEX
  8
Unknown_Area_Type
  10
345869.000
  20
4640121.500
  0
VERTEX
  8
Unknown_Area_Type
  10
346196.226
  20
4640198.549
  0
VERTEX
  8
Unknown_Area_Type
  10
346239.205
  20
4642186.269
  0
VERTEX
  8
Unknown_Area_Type
  10
346261.631
  20
4643223.018
  0
SEQEND
  8
Unknown_Area_Type
  0
INSERT
  8
FeatureAttribs
  2
FEATURE
  41
1
  42
1
  43
1
  50
0
  10
329636.509
  20
4642624.156
 66
1
  0
ATTRIB
  8
FeatureAttribs
 70
0
  1
PNOA-H_AMS_1956-57_33k_ES_PAN_2
  2
NAME
  10
329636.509
  20
4642624.156
 40
33.99257
  0
SEQEND
  0
POLYLINE
  8
Unknown_Area_Type
  70
1
  66
1
  0
VERTEX
  8
Unknown_Area_Type
  10
329362.000
  20
4644672.000
  0
VERTEX
  8
Unknown_Area_Type
  10
331096.500
  20
4644521.000
  0
VERTEX
  8
Unknown_Area_Type
  10
331099.000
  20
4644520.500
  0
VERTEX
  8
Unknown_Area_Type
  10
331099.000
  20
4644508.000
  0
VERTEX
  8
Unknown_Area_Type
  10
330970.500
  20
4640847.000
  0
VERTEX
  8
Unknown_Area_Type
  10
329265.500
  20
4640372.000
  0
VERTEX
  8
Unknown_Area_Type
  10
329263.500
  20
4640372.000
  0
VERTEX
  8
Unknown_Area_Type
  10
329248.000
  20
4640380.000
  0
VERTEX
  8
Unknown_Area_Type
  10
328204.000
  20
4640926.000
  0
VERTEX
  8
Unknown_Area_Type
  10
328196.500
  20
4640930.000
  0
VERTEX
  8
Unknown_Area_Type
  10
328196.500
  20
4640941.000
  0
VERTEX
  8
Unknown_Area_Type
  10
328349.000
  20
4644605.500
  0
VERTEX
  8
Unknown_Area_Type
  10
328592.000
  20
4644739.000
  0
VERTEX
  8
Unknown_Area_Type
  10
329357.000
  20
4644672.000
  0
VERTEX
  8
Unknown_Area_Type
  10
329362.000
  20
4644672.000
  0
SEQEND
  8
Unknown_Area_Type
  0
INSERT
  8
FeatureAttribs
  2
FEATURE
  41
1
  42
1
  43
1
  50
0
  10
329636.509
  20
4642624.156
 66
1
  0
ATTRIB
  8
FeatureAttribs
 70
0
  1
PNOA-H_AMS_1956-57_33k_ES_PAN_2
  2
NAME
  10
329636.509
  20
4642624.156
 40
33.99257
  0
SEQEND
  0
POLYLINE
  8
Unknown_Area_Type
  70
1
  66
1
  0
VERTEX
  8
Unknown_Area_Type
  10
329362.000
  20
4644672.000
  0
VERTEX
  8
Unknown_Area_Type
  10
329357.000
  20
4644672.000
  0
VERTEX
  8
Unknown_Area_Type
  10
328592.000
  20
4644739.000
  0
VERTEX
  8
Unknown_Area_Type
  10
328349.000
  20
4644605.500
  0
VERTEX
  8
Unknown_Area_Type
  10
328196.500
  20
4640941.000
  0
VERTEX
  8
Unknown_Area_Type
  10
328196.500
  20
4640930.000
  0
VERTEX
  8
Unknown_Area_Type
  10
328204.000
  20
4640926.000
  0
VERTEX
  8
Unknown_Area_Type
  10
329248.000
  20
4640380.000
  0
VERTEX
  8
Unknown_Area_Type
  10
329263.500
  20
4640372.000
  0
VERTEX
  8
Unknown_Area_Type
  10
329265.500
  20
4640372.000
  0
VERTEX
  8
Unknown_Area_Type
  10
330970.500
  20
4640847.000
  0
VERTEX
  8
Unknown_Area_Type
  10
331099.000
  20
4644508.000
  0
VERTEX
  8
Unknown_Area_Type
  10
331099.000
  20
4644520.500
  0
VERTEX
  8
Unknown_Area_Type
  10
331096.500
  20
4644521.000
  0
VERTEX
  8
Unknown_Area_Type
  10
329362.000
  20
4644672.000
  0
SEQEND
  8
Unknown_Area_Type
  0
INSERT
  8
FeatureAttribs
  2
FEATURE
  41
1
  42
1
  43
1
  50
0
  10
337485.996
  20
4642472.106
 66
1
  0
ATTRIB
  8
FeatureAttribs
 70
0
  1
PNOA-H_AMS_1956-57_33k_ES_PAN_2
  2
NAME
  10
337485.996
  20
4642472.106
 40
33.99257
  0
SEQEND
  0
POLYLINE
  8
Unknown_Area_Type
  70
1
  66
1
  0
VERTEX
  8
Unknown_Area_Type
  10
337554.000
  20
4644642.500
  0
VERTEX
  8
Unknown_Area_Type
  10
338311.000
  20
4644511.500
  0
VERTEX
  8
Unknown_Area_Type
  10
338286.500
  20
4640337.500
  0
VERTEX
  8
Unknown_Area_Type
  10
337704.500
  20
4640165.000
  0
VERTEX
  8
Unknown_Area_Type
  10
336635.500
  20
4640706.000
  0
VERTEX
  8
Unknown_Area_Type
  10
336638.500
  20
4644369.000
  0
VERTEX
  8
Unknown_Area_Type
  10
337313.000
  20
4644684.000
  0
VERTEX
  8
Unknown_Area_Type
  10
337552.000
  20
4644642.500
  0
VERTEX
  8
Unknown_Area_Type
  10
337554.000
  20
4644642.500
  0
SEQEND
  8
Unknown_Area_Type
  0
INSERT
  8
FeatureAttribs
  2
FEATURE
  41
1
  42
1
  43
1
  50
0
  10
337485.996
  20
4642472.106
 66
1
  0
ATTRIB
  8
FeatureAttribs
 70
0
  1
PNOA-H_AMS_1956-57_33k_ES_PAN_2
  2
NAME
  10
337485.996
  20
4642472.106
 40
33.99257
  0
SEQEND
  0
POLYLINE
  8
Unknown_Area_Type
  70
1
  66
1
  0
VERTEX
  8
Unknown_Area_Type
  10
337554.000
  20
4644642.500
  0
VERTEX
  8
Unknown_Area_Type
  10
337552.000
  20
4644642.500
  0
VERTEX
  8
Unknown_Area_Type
  10
337313.000
  20
4644684.000
  0
VERTEX
  8
Unknown_Area_Type
  10
336638.500
  20
4644369.000
  0
VERTEX
  8
Unknown_Area_Type
  10
336635.500
  20
4640706.000
  0
VERTEX
  8
Unknown_Area_Type
  10
337704.500
  20
4640165.000
  0
VERTEX
  8
Unknown_Area_Type
  10
338286.500
  20
4640337.500
  0
VERTEX
  8
Unknown_Area_Type
  10
338311.000
  20
4644511.500
  0
VERTEX
  8
Unknown_Area_Type
  10
337554.000
  20
4644642.500
  0
SEQEND
  8
Unknown_Area_Type
  0
INSERT
  8
FeatureAttribs
  2
FEATURE
  41
1
  42
1
  43
1
  50
0
  10
324074.054
  20
4642795.266
 66
1
  0
ATTRIB
  8
FeatureAttribs
 70
0
  1
PNOA-H_AMS_1956-57_33k_ES_PAN_2
  2
NAME
  10
324074.054
  20
4642795.266
 40
33.99257
  0
SEQEND
  0
POLYLINE
  8
Unknown_Area_Type
  70
1
  66
1
  0
VERTEX
  8
Unknown_Area_Type
  10
322836.000
  20
4644894.000
  0
VERTEX
  8
Unknown_Area_Type
  10
325524.500
  20
4644727.500
  0
VERTEX
  8
Unknown_Area_Type
  10
325376.000
  20
4641021.500
  0
VERTEX
  8
Unknown_Area_Type
  10
323867.000
  20
4640544.000
  0
VERTEX
  8
Unknown_Area_Type
  10
322615.500
  20
4641107.500
  0
VERTEX
  8
Unknown_Area_Type
  10
322836.000
  20
4644888.000
  0
VERTEX
  8
Unknown_Area_Type
  10
322836.000
  20
4644894.000
  0
SEQEND
  8
Unknown_Area_Type
  0
INSERT
  8
FeatureAttribs
  2
FEATURE
  41
1
  42
1
  43
1
  50
0
  10
324074.054
  20
4642795.266
 66
1
  0
ATTRIB
  8
FeatureAttribs
 70
0
  1
PNOA-H_AMS_1956-57_33k_ES_PAN_2
  2
NAME
  10
324074.054
  20
4642795.266
 40
33.99257
  0
SEQEND
  0
POLYLINE
  8
Unknown_Area_Type
  70
1
  66
1
  0
VERTEX
  8
Unknown_Area_Type
  10
322836.000
  20
4644894.000
  0
VERTEX
  8
Unknown_Area_Type
  10
322836.000
  20
4644888.000
  0
VERTEX
  8
Unknown_Area_Type
  10
322615.500
  20
4641107.500
  0
VERTEX
  8
Unknown_Area_Type
  10
323867.000
  20
4640544.000
  0
VERTEX
  8
Unknown_Area_Type
  10
325376.000
  20
4641021.500
  0
VERTEX
  8
Unknown_Area_Type
  10
325524.500
  20
4644727.500
  0
VERTEX
  8
Unknown_Area_Type
  10
322836.000
  20
4644894.000
  0
SEQEND
  8
Unknown_Area_Type
  0
INSERT
  8
FeatureAttribs
  2
FEATURE
  41
1
  42
1
  43
1
  50
0
  10
335219.801
  20
4642479.212
 66
1
  0
ATTRIB
  8
FeatureAttribs
 70
0
  1
PNOA-H_AMS_1956-57_33k_ES_PAN_2
  2
NAME
  10
335219.801
  20
4642479.212
 40
33.99257
  0
SEQEND
  0
POLYLINE
  8
Unknown_Area_Type
  70
1
  66
1
  0
VERTEX
  8
Unknown_Area_Type
  10
335506.000
  20
4644510.000
  0
VERTEX
  8
Unknown_Area_Type
  10
336638.500
  20
4644369.000
  0
VERTEX
  8
Unknown_Area_Type
  10
336635.500
  20
4640706.000
  0
VERTEX
  8
Unknown_Area_Type
  10
334924.000
  20
4640212.000
  0
VERTEX
  8
Unknown_Area_Type
  10
334919.000
  20
4640213.000
  0
VERTEX
  8
Unknown_Area_Type
  10
333769.500
  20
4640815.000
  0
VERTEX
  8
Unknown_Area_Type
  10
333887.500
  20
4644403.500
  0
VERTEX
  8
Unknown_Area_Type
  10
334375.000
  20
4644650.500
  0
VERTEX
  8
Unknown_Area_Type
  10
335504.000
  20
4644510.000
  0
VERTEX
  8
Unknown_Area_Type
  10
335506.000
  20
4644510.000
  0
SEQEND
  8
Unknown_Area_Type
  0
INSERT
  8
FeatureAttribs
  2
FEATURE
  41
1
  42
1
  43
1
  50
0
  10
335219.801
  20
4642479.212
 66
1
  0
ATTRIB
  8
FeatureAttribs
 70
0
  1
PNOA-H_AMS_1956-57_33k_ES_PAN_2
  2
NAME
  10
335219.801
  20
4642479.212
 40
33.99257
  0
SEQEND
  0
POLYLINE
  8
Unknown_Area_Type
  70
1
  66
1
  0
VERTEX
  8
Unknown_Area_Type
  10
335506.000
  20
4644510.000
  0
VERTEX
  8
Unknown_Area_Type
  10
335504.000
  20
4644510.000
  0
VERTEX
  8
Unknown_Area_Type
  10
334375.000
  20
4644650.500
  0
VERTEX
  8
Unknown_Area_Type
  10
333887.500
  20
4644403.500
  0
VERTEX
  8
Unknown_Area_Type
  10
333769.500
  20
4640815.000
  0
VERTEX
  8
Unknown_Area_Type
  10
334919.000
  20
4640213.000
  0
VERTEX
  8
Unknown_Area_Type
  10
334924.000
  20
4640212.000
  0
VERTEX
  8
Unknown_Area_Type
  10
336635.500
  20
4640706.000
  0
VERTEX
  8
Unknown_Area_Type
  10
336638.500
  20
4644369.000
  0
VERTEX
  8
Unknown_Area_Type
  10
335506.000
  20
4644510.000
  0
SEQEND
  8
Unknown_Area_Type
  0
INSERT
  8
FeatureAttribs
  2
FEATURE
  41
1
  42
1
  43
1
  50
0
  10
332409.354
  20
4642550.762
 66
1
  0
ATTRIB
  8
FeatureAttribs
 70
0
  1
PNOA-H_AMS_1956-57_33k_ES_PAN_2
  2
NAME
  10
332409.354
  20
4642550.762
 40
33.99257
  0
SEQEND
  0
POLYLINE
  8
Unknown_Area_Type
  70
1
  66
1
  0
VERTEX
  8
Unknown_Area_Type
  10
331409.000
  20
4644675.500
  0
VERTEX
  8
Unknown_Area_Type
  10
331450.500
  20
4644695.500
  0
VERTEX
  8
Unknown_Area_Type
  10
333887.500
  20
4644403.500
  0
VERTEX
  8
Unknown_Area_Type
  10
333769.500
  20
4640815.500
  0
VERTEX
  8
Unknown_Area_Type
  10
332105.500
  20
4640274.500
  0
VERTEX
  8
Unknown_Area_Type
  10
330970.500
  20
4640846.500
  0
VERTEX
  8
Unknown_Area_Type
  10
331099.000
  20
4644520.500
  0
VERTEX
  8
Unknown_Area_Type
  10
331408.000
  20
4644675.000
  0
VERTEX
  8
Unknown_Area_Type
  10
331409.000
  20
4644675.500
  0
SEQEND
  8
Unknown_Area_Type
  0
INSERT
  8
FeatureAttribs
  2
FEATURE
  41
1
  42
1
  43
1
  50
0
  10
332409.354
  20
4642550.762
 66
1
  0
ATTRIB
  8
FeatureAttribs
 70
0
  1
PNOA-H_AMS_1956-57_33k_ES_PAN_2
  2
NAME
  10
332409.354
  20
4642550.762
 40
33.99257
  0
SEQEND
  0
POLYLINE
  8
Unknown_Area_Type
  70
1
  66
1
  0
VERTEX
  8
Unknown_Area_Type
  10
331409.000
  20
4644675.500
  0
VERTEX
  8
Unknown_Area_Type
  10
331408.000
  20
4644675.000
  0
VERTEX
  8
Unknown_Area_Type
  10
331099.000
  20
4644520.500
  0
VERTEX
  8
Unknown_Area_Type
  10
330970.500
  20
4640846.500
  0
VERTEX
  8
Unknown_Area_Type
  10
332105.500
  20
4640274.500
  0
VERTEX
  8
Unknown_Area_Type
  10
333769.500
  20
4640815.500
  0
VERTEX
  8
Unknown_Area_Type
  10
333887.500
  20
4644403.500
  0
VERTEX
  8
Unknown_Area_Type
  10
331450.500
  20
4644695.500
  0
VERTEX
  8
Unknown_Area_Type
  10
331409.000
  20
4644675.500
  0
SEQEND
  8
Unknown_Area_Type
  0
INSERT
  8
FeatureAttribs
  2
FEATURE
  41
1
  42
1
  43
1
  50
0
  10
340709.300
  20
4644351.082
 66
1
  0
ATTRIB
  8
FeatureAttribs
 70
0
  1
PNOA-H_AMS_1956-57_33k_ES_PAN_2
  2
NAME
  10
340709.300
  20
4644351.082
 40
33.99257
  0
SEQEND
  0
POLYLINE
  8
Unknown_Area_Type
  70
1
  66
1
  0
VERTEX
  8
Unknown_Area_Type
  10
341650.000
  20
4645338.500
  0
VERTEX
  8
Unknown_Area_Type
  10
342381.000
  20
4645099.000
  0
VERTEX
  8
Unknown_Area_Type
  10
342376.000
  20
4643416.000
  0
VERTEX
  8
Unknown_Area_Type
  10
341470.500
  20
4643150.000
  0
VERTEX
  8
Unknown_Area_Type
  10
339736.500
  20
4643187.000
  0
VERTEX
  8
Unknown_Area_Type
  10
338618.500
  20
4644496.500
  0
VERTEX
  8
Unknown_Area_Type
  10
340251.000
  20
4645797.000
  0
VERTEX
  8
Unknown_Area_Type
  10
340263.000
  20
4645794.000
  0
VERTEX
  8
Unknown_Area_Type
  10
341648.500
  20
4645339.000
  0
VERTEX
  8
Unknown_Area_Type
  10
341650.000
  20
4645338.500
  0
SEQEND
  8
Unknown_Area_Type
  0
INSERT
  8
FeatureAttribs
  2
FEATURE
  41
1
  42
1
  43
1
  50
0
  10
340709.300
  20
4644351.082
 66
1
  0
ATTRIB
  8
FeatureAttribs
 70
0
  1
PNOA-H_AMS_1956-57_33k_ES_PAN_2
  2
NAME
  10
340709.300
  20
4644351.082
 40
33.99257
  0
SEQEND
  0
POLYLINE
  8
Unknown_Area_Type
  70
1
  66
1
  0
VERTEX
  8
Unknown_Area_Type
  10
341650.000
  20
4645338.500
  0
VERTEX
  8
Unknown_Area_Type
  10
341648.500
  20
4645339.000
  0
VERTEX
  8
Unknown_Area_Type
  10
340263.000
  20
4645794.000
  0
VERTEX
  8
Unknown_Area_Type
  10
340251.000
  20
4645797.000
  0
VERTEX
  8
Unknown_Area_Type
  10
338618.500
  20
4644496.500
  0
VERTEX
  8
Unknown_Area_Type
  10
339736.500
  20
4643187.000
  0
VERTEX
  8
Unknown_Area_Type
  10
341470.500
  20
4643150.000
  0
VERTEX
  8
Unknown_Area_Type
  10
342376.000
  20
4643416.000
  0
VERTEX
  8
Unknown_Area_Type
  10
342381.000
  20
4645099.000
  0
VERTEX
  8
Unknown_Area_Type
  10
341650.000
  20
4645338.500
  0
SEQEND
  8
Unknown_Area_Type
  0
INSERT
  8
FeatureAttribs
  2
FEATURE
  41
1
  42
1
  43
1
  50
0
  10
344631.273
  20
4641434.028
 66
1
  0
ATTRIB
  8
FeatureAttribs
 70
0
  1
PNOA-H_AMS_1956-57_33k_ES_PAN_2
  2
NAME
  10
344631.273
  20
4641434.028
 40
33.99257
  0
SEQEND
  0
POLYLINE
  8
Unknown_Area_Type
  70
1
  66
1
  0
VERTEX
  8
Unknown_Area_Type
  10
344440.000
  20
4643075.500
  0
VERTEX
  8
Unknown_Area_Type
  10
345167.000
  20
4643248.000
  0
VERTEX
  8
Unknown_Area_Type
  10
345169.000
  20
4643248.500
  0
VERTEX
  8
Unknown_Area_Type
  10
345170.500
  20
4643248.500
  0
VERTEX
  8
Unknown_Area_Type
  10
345171.000
  20
4643246.500
  0
VERTEX
  8
Unknown_Area_Type
  10
345174.000
  20
4643227.000
  0
VERTEX
  8
Unknown_Area_Type
  10
345623.000
  20
4640249.500
  0
VERTEX
  8
Unknown_Area_Type
  10
343361.000
  20
4640180.500
  0
VERTEX
  8
Unknown_Area_Type
  10
344440.000
  20
4643075.500
  0
SEQEND
  8
Unknown_Area_Type
  0
INSERT
  8
FeatureAttribs
  2
FEATURE
  41
1
  42
1
  43
1
  50
0
  10
344631.273
  20
4641434.028
 66
1
  0
ATTRIB
  8
FeatureAttribs
 70
0
  1
PNOA-H_AMS_1956-57_33k_ES_PAN_2
  2
NAME
  10
344631.273
  20
4641434.028
 40
33.99257
  0
SEQEND
  0
POLYLINE
  8
Unknown_Area_Type
  70
1
  66
1
  0
VERTEX
  8
Unknown_Area_Type
  10
344440.000
  20
4643075.500
  0
VERTEX
  8
Unknown_Area_Type
  10
343361.000
  20
4640180.500
  0
VERTEX
  8
Unknown_Area_Type
  10
345623.000
  20
4640249.500
  0
VERTEX
  8
Unknown_Area_Type
  10
345174.000
  20
4643227.000
  0
VERTEX
  8
Unknown_Area_Type
  10
345171.000
  20
4643246.500
  0
VERTEX
  8
Unknown_Area_Type
  10
345170.500
  20
4643248.500
  0
VERTEX
  8
Unknown_Area_Type
  10
345169.000
  20
4643248.500
  0
VERTEX
  8
Unknown_Area_Type
  10
345167.000
  20
4643248.000
  0
VERTEX
  8
Unknown_Area_Type
  10
344440.000
  20
4643075.500
  0
SEQEND
  8
Unknown_Area_Type
  0
INSERT
  8
FeatureAttribs
  2
FEATURE
  41
1
  42
1
  43
1
  50
0
  10
338956.933
  20
4642235.761
 66
1
  0
ATTRIB
  8
FeatureAttribs
 70
0
  1
PNOA-H_AMS_1956-57_33k_ES_PAN_2
  2
NAME
  10
338956.933
  20
4642235.761
 40
33.99257
  0
SEQEND
  0
POLYLINE
  8
Unknown_Area_Type
  70
1
  66
1
  0
VERTEX
  8
Unknown_Area_Type
  10
339727.500
  20
4642056.000
  0
VERTEX
  8
Unknown_Area_Type
  10
339714.500
  20
4640528.000
  0
VERTEX
  8
Unknown_Area_Type
  10
338286.500
  20
4640337.500
  0
VERTEX
  8
Unknown_Area_Type
  10
338311.000
  20
4644511.500
  0
VERTEX
  8
Unknown_Area_Type
  10
338618.500
  20
4644496.500
  0
VERTEX
  8
Unknown_Area_Type
  10
339737.000
  20
4643187.000
  0
VERTEX
  8
Unknown_Area_Type
  10
339727.500
  20
4642108.500
  0
VERTEX
  8
Unknown_Area_Type
  10
339727.500
  20
4642056.000
  0
SEQEND
  8
Unknown_Area_Type
  0
INSERT
  8
FeatureAttribs
  2
FEATURE
  41
1
  42
1
  43
1
  50
0
  10
338956.933
  20
4642235.761
 66
1
  0
ATTRIB
  8
FeatureAttribs
 70
0
  1
PNOA-H_AMS_1956-57_33k_ES_PAN_2
  2
NAME
  10
338956.933
  20
4642235.761
 40
33.99257
  0
SEQEND
  0
POLYLINE
  8
Unknown_Area_Type
  70
1
  66
1
  0
VERTEX
  8
Unknown_Area_Type
  10
339727.500
  20
4642056.000
  0
VERTEX
  8
Unknown_Area_Type
  10
339727.500
  20
4642108.500
  0
VERTEX
  8
Unknown_Area_Type
  10
339737.000
  20
4643187.000
  0
VERTEX
  8
Unknown_Area_Type
  10
338618.500
  20
4644496.500
  0
VERTEX
  8
Unknown_Area_Type
  10
338311.000
  20
4644511.500
  0
VERTEX
  8
Unknown_Area_Type
  10
338286.500
  20
4640337.500
  0
VERTEX
  8
Unknown_Area_Type
  10
339714.500
  20
4640528.000
  0
VERTEX
  8
Unknown_Area_Type
  10
339727.500
  20
4642056.000
  0
SEQEND
  8
Unknown_Area_Type
  0
INSERT
  8
FeatureAttribs
  2
FEATURE
  41
1
  42
1
  43
1
  50
0
  10
341867.420
  20
4641650.872
 66
1
  0
ATTRIB
  8
FeatureAttribs
 70
0
  1
PNOA-H_AMS_1956-57_33k_ES_PAN_2
  2
NAME
  10
341867.420
  20
4641650.872
 40
33.99257
  0
SEQEND
  0
POLYLINE
  8
Unknown_Area_Type
  70
1
  66
1
  0
VERTEX
  8
Unknown_Area_Type
  10
341649.500
  20
4643203.000
  0
VERTEX
  8
Unknown_Area_Type
  10
342374.500
  20
4643415.500
  0
VERTEX
  8
Unknown_Area_Type
  10
342376.000
  20
4643415.500
  0
VERTEX
  8
Unknown_Area_Type
  10
342382.500
  20
4643409.000
  0
VERTEX
  8
Unknown_Area_Type
  10
342546.500
  20
4643235.000
  0
VERTEX
  8
Unknown_Area_Type
  10
342702.000
  20
4640358.500
  0
VERTEX
  8
Unknown_Area_Type
  10
340773.000
  20
4640249.500
  0
VERTEX
  8
Unknown_Area_Type
  10
341468.000
  20
4643148.500
  0
VERTEX
  8
Unknown_Area_Type
  10
341468.500
  20
4643150.000
  0
VERTEX
  8
Unknown_Area_Type
  10
341647.500
  20
4643202.500
  0
VERTEX
  8
Unknown_Area_Type
  10
341649.500
  20
4643203.000
  0
SEQEND
  8
Unknown_Area_Type
  0
INSERT
  8
FeatureAttribs
  2
FEATURE
  41
1
  42
1
  43
1
  50
0
  10
341867.420
  20
4641650.872
 66
1
  0
ATTRIB
  8
FeatureAttribs
 70
0
  1
PNOA-H_AMS_1956-57_33k_ES_PAN_2
  2
NAME
  10
341867.420
  20
4641650.872
 40
33.99257
  0
SEQEND
  0
POLYLINE
  8
Unknown_Area_Type
  70
1
  66
1
  0
VERTEX
  8
Unknown_Area_Type
  10
341649.500
  20
4643203.000
  0
VERTEX
  8
Unknown_Area_Type
  10
341647.500
  20
4643202.500
  0
VERTEX
  8
Unknown_Area_Type
  10
341468.500
  20
4643150.000
  0
VERTEX
  8
Unknown_Area_Type
  10
341468.000
  20
4643148.500
  0
VERTEX
  8
Unknown_Area_Type
  10
340773.000
  20
4640249.500
  0
VERTEX
  8
Unknown_Area_Type
  10
342702.000
  20
4640358.500
  0
VERTEX
  8
Unknown_Area_Type
  10
342546.500
  20
4643235.000
  0
VERTEX
  8
Unknown_Area_Type
  10
342382.500
  20
4643409.000
  0
VERTEX
  8
Unknown_Area_Type
  10
342376.000
  20
4643415.500
  0
VERTEX
  8
Unknown_Area_Type
  10
342374.500
  20
4643415.500
  0
VERTEX
  8
Unknown_Area_Type
  10
341649.500
  20
4643203.000
  0
SEQEND
  8
Unknown_Area_Type
  0
INSERT
  8
FeatureAttribs
  2
FEATURE
  41
1
  42
1
  43
1
  50
0
  10
346384.303
  20
4640529.711
 66
1
  0
ATTRIB
  8
FeatureAttribs
 70
0
  1
PNOA-H_AMS_1956-57_33k_ES_PAN_2
  2
NAME
  10
346384.303
  20
4640529.711
 40
33.99257
  0
SEQEND
  0
POLYLINE
  8
Unknown_Area_Type
  70
1
  66
1
  0
VERTEX
  8
Unknown_Area_Type
  10
346439.502
  20
4640197.081
  0
VERTEX
  8
Unknown_Area_Type
  10
346221.000
  20
4640204.000
  0
VERTEX
  8
Unknown_Area_Type
  10
346439.502
  20
4640862.342
  0
VERTEX
  8
Unknown_Area_Type
  10
346439.502
  20
4640197.081
  0
SEQEND
  8
Unknown_Area_Type
  0
ENDSEC
  0
EOF
