  0
SECTION
  2
HEADER
  9
$ACADVER
  1
AC1009
  9
$LUNITS
  70
2
  9
$LIMMIN
  10
290679.094
  20
4633584.923
  9
$LIMMAX
  10
318831.799
  20
4652850.448
  9
$EXTMIN
  10
290679.094
  20
4633584.923
  9
$EXTMAX
  10
318831.799
  20
4652850.448
  999
Created by Global Mapper
  999
Projection: UTM
  999
Datum: ETRS89
  999
Ground Units: meters
  999
ZONE: 30
  0
ENDSEC
  0
SECTION
  2
TABLES
  0
ENDSEC
  0
SECTION
  2
BLOCKS
  0
BLOCK
  8
FeatureAttribs
  70
0
  2
FEATURE
  3
FEATURE
  10
0.00000000
  20
0.00000000
  0
ATTDEF
  8
FeatureAttribs
  70
0
  1
 
  2
NAME
  3
NAME
  10
0.00000000
  20
0.00000000
  40
1.00000000
  0
ENDBLK
  0
ENDSEC
  0
SECTION
  2
ENTITIES
  0
INSERT
  8
FeatureAttribs
  2
FEATURE
  41
1
  42
1
  43
1
  50
0
  10
291379.225
  20
4652243.314
 66
1
  0
ATTRIB
  8
FeatureAttribs
 70
0
  1
PNOA-H_AMS_1956-57_33k_ES_PAN_2
  2
NAME
  10
291379.225
  20
4652243.314
 40
34.11356
  0
SEQEND
  0
POLYLINE
  8
Unknown_Area_Type
  70
1
  66
1
  0
VERTEX
  8
Unknown_Area_Type
  10
291567.199
  20
4652840.385
  0
VERTEX
  8
Unknown_Area_Type
  10
291541.000
  20
4651745.500
  0
VERTEX
  8
Unknown_Area_Type
  10
291187.656
  20
4651636.199
  0
VERTEX
  8
Unknown_Area_Type
  10
291223.419
  20
4652850.429
  0
VERTEX
  8
Unknown_Area_Type
  10
291567.199
  20
4652840.385
  0
SEQEND
  8
Unknown_Area_Type
  0
INSERT
  8
FeatureAttribs
  2
FEATURE
  41
1
  42
1
  43
1
  50
0
  10
291481.149
  20
4652845.417
 66
1
  0
ATTRIB
  8
FeatureAttribs
 70
0
  1
PNOA-H_AMS_1956-57_33k_ES_PAN_2
  2
NAME
  10
291481.149
  20
4652845.417
 40
34.11356
  0
SEQEND
  0
POLYLINE
  8
Unknown_Area_Type
  70
1
  66
1
  0
VERTEX
  8
Unknown_Area_Type
  10
291567.440
  20
4652850.448
  0
VERTEX
  8
Unknown_Area_Type
  10
291567.199
  20
4652840.385
  0
VERTEX
  8
Unknown_Area_Type
  10
291223.419
  20
4652850.429
  0
VERTEX
  8
Unknown_Area_Type
  10
291223.419
  20
4652850.448
  0
VERTEX
  8
Unknown_Area_Type
  10
291567.440
  20
4652850.448
  0
SEQEND
  8
Unknown_Area_Type
  0
INSERT
  8
FeatureAttribs
  2
FEATURE
  41
1
  42
1
  43
1
  50
0
  10
291379.225
  20
4652243.314
 66
1
  0
ATTRIB
  8
FeatureAttribs
 70
0
  1
PNOA-H_AMS_1956-57_33k_ES_PAN_2
  2
NAME
  10
291379.225
  20
4652243.314
 40
34.11356
  0
SEQEND
  0
POLYLINE
  8
Unknown_Area_Type
  70
1
  66
1
  0
VERTEX
  8
Unknown_Area_Type
  10
291567.199
  20
4652840.385
  0
VERTEX
  8
Unknown_Area_Type
  10
291541.000
  20
4651745.500
  0
VERTEX
  8
Unknown_Area_Type
  10
291187.656
  20
4651636.199
  0
VERTEX
  8
Unknown_Area_Type
  10
291223.419
  20
4652850.429
  0
VERTEX
  8
Unknown_Area_Type
  10
291567.199
  20
4652840.385
  0
SEQEND
  8
Unknown_Area_Type
  0
INSERT
  8
FeatureAttribs
  2
FEATURE
  41
1
  42
1
  43
1
  50
0
  10
290941.158
  20
4652164.666
 66
1
  0
ATTRIB
  8
FeatureAttribs
 70
0
  1
PNOA-H_AMS_1956-57_33k_ES_PAN_2
  2
NAME
  10
290941.158
  20
4652164.666
 40
34.11356
  0
SEQEND
  0
POLYLINE
  8
Unknown_Area_Type
  70
1
  66
1
  0
VERTEX
  8
Unknown_Area_Type
  10
291187.656
  20
4651636.199
  0
VERTEX
  8
Unknown_Area_Type
  10
290679.094
  20
4651478.884
  0
VERTEX
  8
Unknown_Area_Type
  10
290679.094
  20
4652850.448
  0
VERTEX
  8
Unknown_Area_Type
  10
291222.770
  20
4652850.448
  0
VERTEX
  8
Unknown_Area_Type
  10
291223.419
  20
4652850.429
  0
VERTEX
  8
Unknown_Area_Type
  10
291187.656
  20
4651636.199
  0
SEQEND
  8
Unknown_Area_Type
  0
INSERT
  8
FeatureAttribs
  2
FEATURE
  41
1
  42
1
  43
1
  50
0
  10
317408.553
  20
4652470.701
 66
1
  0
ATTRIB
  8
FeatureAttribs
 70
0
  1
PNOA-H_AMS_1956-57_33k_ES_PAN_2
  2
NAME
  10
317408.553
  20
4652470.701
 40
34.11356
  0
SEQEND
  0
POLYLINE
  8
Unknown_Area_Type
  70
1
  66
1
  0
VERTEX
  8
Unknown_Area_Type
  10
316003.554
  20
4652850.448
  0
VERTEX
  8
Unknown_Area_Type
  10
318831.799
  20
4652850.448
  0
VERTEX
  8
Unknown_Area_Type
  10
318831.799
  20
4652092.055
  0
VERTEX
  8
Unknown_Area_Type
  10
318831.771
  20
4652090.954
  0
VERTEX
  8
Unknown_Area_Type
  10
315970.607
  20
4652164.780
  0
VERTEX
  8
Unknown_Area_Type
  10
316003.554
  20
4652850.448
  0
SEQEND
  8
Unknown_Area_Type
  0
INSERT
  8
FeatureAttribs
  2
FEATURE
  41
1
  42
1
  43
1
  50
0
  10
318831.785
  20
4652091.229
 66
1
  0
ATTRIB
  8
FeatureAttribs
 70
0
  1
PNOA-H_AMS_1956-57_33k_ES_PAN_2
  2
NAME
  10
318831.785
  20
4652091.229
 40
34.11356
  0
SEQEND
  0
POLYLINE
  8
Unknown_Area_Type
  70
1
  66
1
  0
VERTEX
  8
Unknown_Area_Type
  10
318831.799
  20
4652092.055
  0
VERTEX
  8
Unknown_Area_Type
  10
318831.799
  20
4652090.953
  0
VERTEX
  8
Unknown_Area_Type
  10
318831.771
  20
4652090.954
  0
VERTEX
  8
Unknown_Area_Type
  10
318831.799
  20
4652092.055
  0
SEQEND
  8
Unknown_Area_Type
  0
INSERT
  8
FeatureAttribs
  2
FEATURE
  41
1
  42
1
  43
1
  50
0
  10
318818.220
  20
4651029.269
 66
1
  0
ATTRIB
  8
FeatureAttribs
 70
0
  1
PNOA-H_AMS_1956-57_33k_ES_PAN_2
  2
NAME
  10
318818.220
  20
4651029.269
 40
34.11356
  0
SEQEND
  0
POLYLINE
  8
Unknown_Area_Type
  70
1
  66
1
  0
VERTEX
  8
Unknown_Area_Type
  10
318831.799
  20
4649978.779
  0
VERTEX
  8
Unknown_Area_Type
  10
318777.510
  20
4649967.584
  0
VERTEX
  8
Unknown_Area_Type
  10
318831.771
  20
4652090.954
  0
VERTEX
  8
Unknown_Area_Type
  10
318831.799
  20
4652090.953
  0
VERTEX
  8
Unknown_Area_Type
  10
318831.799
  20
4649978.779
  0
SEQEND
  8
Unknown_Area_Type
  0
INSERT
  8
FeatureAttribs
  2
FEATURE
  41
1
  42
1
  43
1
  50
0
  10
317371.793
  20
4650985.859
 66
1
  0
ATTRIB
  8
FeatureAttribs
 70
0
  1
PNOA-H_AMS_1956-57_33k_ES_PAN_2
  2
NAME
  10
317371.793
  20
4650985.859
 40
34.11356
  0
SEQEND
  0
POLYLINE
  8
Unknown_Area_Type
  70
1
  66
1
  0
VERTEX
  8
Unknown_Area_Type
  10
318777.510
  20
4649967.584
  0
VERTEX
  8
Unknown_Area_Type
  10
317223.000
  20
4649647.000
  0
VERTEX
  8
Unknown_Area_Type
  10
315875.500
  20
4650185.500
  0
VERTEX
  8
Unknown_Area_Type
  10
315970.607
  20
4652164.780
  0
VERTEX
  8
Unknown_Area_Type
  10
318831.771
  20
4652090.954
  0
VERTEX
  8
Unknown_Area_Type
  10
318777.510
  20
4649967.584
  0
SEQEND
  8
Unknown_Area_Type
  0
INSERT
  8
FeatureAttribs
  2
FEATURE
  41
1
  42
1
  43
1
  50
0
  10
317371.793
  20
4650985.859
 66
1
  0
ATTRIB
  8
FeatureAttribs
 70
0
  1
PNOA-H_AMS_1956-57_33k_ES_PAN_2
  2
NAME
  10
317371.793
  20
4650985.859
 40
34.11356
  0
SEQEND
  0
POLYLINE
  8
Unknown_Area_Type
  70
1
  66
1
  0
VERTEX
  8
Unknown_Area_Type
  10
318777.510
  20
4649967.584
  0
VERTEX
  8
Unknown_Area_Type
  10
318831.771
  20
4652090.954
  0
VERTEX
  8
Unknown_Area_Type
  10
315970.607
  20
4652164.780
  0
VERTEX
  8
Unknown_Area_Type
  10
315875.500
  20
4650185.500
  0
VERTEX
  8
Unknown_Area_Type
  10
317223.000
  20
4649647.000
  0
VERTEX
  8
Unknown_Area_Type
  10
318777.510
  20
4649967.584
  0
SEQEND
  8
Unknown_Area_Type
  0
INSERT
  8
FeatureAttribs
  2
FEATURE
  41
1
  42
1
  43
1
  50
0
  10
311440.824
  20
4652547.202
 66
1
  0
ATTRIB
  8
FeatureAttribs
 70
0
  1
PNOA-H_AMS_1956-57_33k_ES_PAN_2
  2
NAME
  10
311440.824
  20
4652547.202
 40
34.11356
  0
SEQEND
  0
POLYLINE
  8
Unknown_Area_Type
  70
1
  66
1
  0
VERTEX
  8
Unknown_Area_Type
  10
312988.472
  20
4652850.448
  0
VERTEX
  8
Unknown_Area_Type
  10
312948.046
  20
4652243.957
  0
VERTEX
  8
Unknown_Area_Type
  10
311929.748
  20
4652270.728
  0
VERTEX
  8
Unknown_Area_Type
  10
309899.605
  20
4652325.091
  0
VERTEX
  8
Unknown_Area_Type
  10
309932.209
  20
4652850.448
  0
VERTEX
  8
Unknown_Area_Type
  10
312988.472
  20
4652850.448
  0
SEQEND
  8
Unknown_Area_Type
  0
INSERT
  8
FeatureAttribs
  2
FEATURE
  41
1
  42
1
  43
1
  50
0
  10
311374.638
  20
4651271.561
 66
1
  0
ATTRIB
  8
FeatureAttribs
 70
0
  1
PNOA-H_AMS_1956-57_33k_ES_PAN_2
  2
NAME
  10
311374.638
  20
4651271.561
 40
34.11356
  0
SEQEND
  0
POLYLINE
  8
Unknown_Area_Type
  70
1
  66
1
  0
VERTEX
  8
Unknown_Area_Type
  10
312948.046
  20
4652243.957
  0
VERTEX
  8
Unknown_Area_Type
  10
312824.500
  20
4650390.500
  0
VERTEX
  8
Unknown_Area_Type
  10
311176.500
  20
4650035.000
  0
VERTEX
  8
Unknown_Area_Type
  10
309794.500
  20
4650631.500
  0
VERTEX
  8
Unknown_Area_Type
  10
309899.605
  20
4652325.091
  0
VERTEX
  8
Unknown_Area_Type
  10
311929.748
  20
4652270.728
  0
VERTEX
  8
Unknown_Area_Type
  10
312948.046
  20
4652243.957
  0
SEQEND
  8
Unknown_Area_Type
  0
INSERT
  8
FeatureAttribs
  2
FEATURE
  41
1
  42
1
  43
1
  50
0
  10
311374.638
  20
4651271.561
 66
1
  0
ATTRIB
  8
FeatureAttribs
 70
0
  1
PNOA-H_AMS_1956-57_33k_ES_PAN_2
  2
NAME
  10
311374.638
  20
4651271.561
 40
34.11356
  0
SEQEND
  0
POLYLINE
  8
Unknown_Area_Type
  70
1
  66
1
  0
VERTEX
  8
Unknown_Area_Type
  10
312948.046
  20
4652243.957
  0
VERTEX
  8
Unknown_Area_Type
  10
311929.748
  20
4652270.728
  0
VERTEX
  8
Unknown_Area_Type
  10
309899.605
  20
4652325.091
  0
VERTEX
  8
Unknown_Area_Type
  10
309794.500
  20
4650631.500
  0
VERTEX
  8
Unknown_Area_Type
  10
311176.500
  20
4650035.000
  0
VERTEX
  8
Unknown_Area_Type
  10
312824.500
  20
4650390.500
  0
VERTEX
  8
Unknown_Area_Type
  10
312948.046
  20
4652243.957
  0
SEQEND
  8
Unknown_Area_Type
  0
INSERT
  8
FeatureAttribs
  2
FEATURE
  41
1
  42
1
  43
1
  50
0
  10
308384.031
  20
4652587.771
 66
1
  0
ATTRIB
  8
FeatureAttribs
 70
0
  1
PNOA-H_AMS_1956-57_33k_ES_PAN_2
  2
NAME
  10
308384.031
  20
4652587.771
 40
34.11356
  0
SEQEND
  0
POLYLINE
  8
Unknown_Area_Type
  70
1
  66
1
  0
VERTEX
  8
Unknown_Area_Type
  10
309932.154
  20
4652850.448
  0
VERTEX
  8
Unknown_Area_Type
  10
309899.504
  20
4652325.094
  0
VERTEX
  8
Unknown_Area_Type
  10
308478.721
  20
4652363.139
  0
VERTEX
  8
Unknown_Area_Type
  10
306838.464
  20
4652407.861
  0
VERTEX
  8
Unknown_Area_Type
  10
306872.337
  20
4652850.448
  0
VERTEX
  8
Unknown_Area_Type
  10
309932.154
  20
4652850.448
  0
SEQEND
  8
Unknown_Area_Type
  0
INSERT
  8
FeatureAttribs
  2
FEATURE
  41
1
  42
1
  43
1
  50
0
  10
308319.104
  20
4651423.052
 66
1
  0
ATTRIB
  8
FeatureAttribs
 70
0
  1
PNOA-H_AMS_1956-57_33k_ES_PAN_2
  2
NAME
  10
308319.104
  20
4651423.052
 40
34.11356
  0
SEQEND
  0
POLYLINE
  8
Unknown_Area_Type
  70
1
  66
1
  0
VERTEX
  8
Unknown_Area_Type
  10
309899.504
  20
4652325.094
  0
VERTEX
  8
Unknown_Area_Type
  10
309794.500
  20
4650635.500
  0
VERTEX
  8
Unknown_Area_Type
  10
309794.000
  20
4650632.000
  0
VERTEX
  8
Unknown_Area_Type
  10
309793.000
  20
4650631.500
  0
VERTEX
  8
Unknown_Area_Type
  10
308142.500
  20
4650253.500
  0
VERTEX
  8
Unknown_Area_Type
  10
306720.000
  20
4650851.000
  0
VERTEX
  8
Unknown_Area_Type
  10
306833.500
  20
4652336.500
  0
VERTEX
  8
Unknown_Area_Type
  10
306833.500
  20
4652343.000
  0
VERTEX
  8
Unknown_Area_Type
  10
306838.464
  20
4652407.861
  0
VERTEX
  8
Unknown_Area_Type
  10
308478.721
  20
4652363.139
  0
VERTEX
  8
Unknown_Area_Type
  10
309899.504
  20
4652325.094
  0
SEQEND
  8
Unknown_Area_Type
  0
INSERT
  8
FeatureAttribs
  2
FEATURE
  41
1
  42
1
  43
1
  50
0
  10
308319.104
  20
4651423.052
 66
1
  0
ATTRIB
  8
FeatureAttribs
 70
0
  1
PNOA-H_AMS_1956-57_33k_ES_PAN_2
  2
NAME
  10
308319.104
  20
4651423.052
 40
34.11356
  0
SEQEND
  0
POLYLINE
  8
Unknown_Area_Type
  70
1
  66
1
  0
VERTEX
  8
Unknown_Area_Type
  10
309899.504
  20
4652325.094
  0
VERTEX
  8
Unknown_Area_Type
  10
308478.721
  20
4652363.139
  0
VERTEX
  8
Unknown_Area_Type
  10
306838.464
  20
4652407.861
  0
VERTEX
  8
Unknown_Area_Type
  10
306833.500
  20
4652343.000
  0
VERTEX
  8
Unknown_Area_Type
  10
306833.500
  20
4652336.500
  0
VERTEX
  8
Unknown_Area_Type
  10
306720.000
  20
4650851.000
  0
VERTEX
  8
Unknown_Area_Type
  10
308142.500
  20
4650253.500
  0
VERTEX
  8
Unknown_Area_Type
  10
309793.000
  20
4650631.500
  0
VERTEX
  8
Unknown_Area_Type
  10
309794.000
  20
4650632.000
  0
VERTEX
  8
Unknown_Area_Type
  10
309794.500
  20
4650635.500
  0
VERTEX
  8
Unknown_Area_Type
  10
309899.504
  20
4652325.094
  0
SEQEND
  8
Unknown_Area_Type
  0
INSERT
  8
FeatureAttribs
  2
FEATURE
  41
1
  42
1
  43
1
  50
0
  10
314476.273
  20
4652507.617
 66
1
  0
ATTRIB
  8
FeatureAttribs
 70
0
  1
PNOA-H_AMS_1956-57_33k_ES_PAN_2
  2
NAME
  10
314476.273
  20
4652507.617
 40
34.11356
  0
SEQEND
  0
POLYLINE
  8
Unknown_Area_Type
  70
1
  66
1
  0
VERTEX
  8
Unknown_Area_Type
  10
316003.427
  20
4652850.448
  0
VERTEX
  8
Unknown_Area_Type
  10
315970.384
  20
4652164.786
  0
VERTEX
  8
Unknown_Area_Type
  10
315380.765
  20
4652180.000
  0
VERTEX
  8
Unknown_Area_Type
  10
312948.064
  20
4652243.957
  0
VERTEX
  8
Unknown_Area_Type
  10
312977.500
  20
4652685.500
  0
VERTEX
  8
Unknown_Area_Type
  10
312977.500
  20
4652693.000
  0
VERTEX
  8
Unknown_Area_Type
  10
312988.025
  20
4652850.448
  0
VERTEX
  8
Unknown_Area_Type
  10
316003.427
  20
4652850.448
  0
SEQEND
  8
Unknown_Area_Type
  0
INSERT
  8
FeatureAttribs
  2
FEATURE
  41
1
  42
1
  43
1
  50
0
  10
314407.832
  20
4651116.489
 66
1
  0
ATTRIB
  8
FeatureAttribs
 70
0
  1
PNOA-H_AMS_1956-57_33k_ES_PAN_2
  2
NAME
  10
314407.832
  20
4651116.489
 40
34.11356
  0
SEQEND
  0
POLYLINE
  8
Unknown_Area_Type
  70
1
  66
1
  0
VERTEX
  8
Unknown_Area_Type
  10
315970.384
  20
4652164.786
  0
VERTEX
  8
Unknown_Area_Type
  10
315875.000
  20
4650185.500
  0
VERTEX
  8
Unknown_Area_Type
  10
314222.000
  20
4649805.500
  0
VERTEX
  8
Unknown_Area_Type
  10
312824.500
  20
4650390.500
  0
VERTEX
  8
Unknown_Area_Type
  10
312948.064
  20
4652243.957
  0
VERTEX
  8
Unknown_Area_Type
  10
315380.765
  20
4652180.000
  0
VERTEX
  8
Unknown_Area_Type
  10
315970.384
  20
4652164.786
  0
SEQEND
  8
Unknown_Area_Type
  0
INSERT
  8
FeatureAttribs
  2
FEATURE
  41
1
  42
1
  43
1
  50
0
  10
314407.832
  20
4651116.489
 66
1
  0
ATTRIB
  8
FeatureAttribs
 70
0
  1
PNOA-H_AMS_1956-57_33k_ES_PAN_2
  2
NAME
  10
314407.832
  20
4651116.489
 40
34.11356
  0
SEQEND
  0
POLYLINE
  8
Unknown_Area_Type
  70
1
  66
1
  0
VERTEX
  8
Unknown_Area_Type
  10
315970.384
  20
4652164.786
  0
VERTEX
  8
Unknown_Area_Type
  10
315380.765
  20
4652180.000
  0
VERTEX
  8
Unknown_Area_Type
  10
312948.064
  20
4652243.957
  0
VERTEX
  8
Unknown_Area_Type
  10
312824.500
  20
4650390.500
  0
VERTEX
  8
Unknown_Area_Type
  10
314222.000
  20
4649805.500
  0
VERTEX
  8
Unknown_Area_Type
  10
315875.000
  20
4650185.500
  0
VERTEX
  8
Unknown_Area_Type
  10
315970.384
  20
4652164.786
  0
SEQEND
  8
Unknown_Area_Type
  0
INSERT
  8
FeatureAttribs
  2
FEATURE
  41
1
  42
1
  43
1
  50
0
  10
302276.353
  20
4652670.963
 66
1
  0
ATTRIB
  8
FeatureAttribs
 70
0
  1
PNOA-H_AMS_1956-57_33k_ES_PAN_2
  2
NAME
  10
302276.353
  20
4652670.963
 40
34.11356
  0
SEQEND
  0
POLYLINE
  8
Unknown_Area_Type
  70
1
  66
1
  0
VERTEX
  8
Unknown_Area_Type
  10
303820.442
  20
4652850.448
  0
VERTEX
  8
Unknown_Area_Type
  10
303793.694
  20
4652491.478
  0
VERTEX
  8
Unknown_Area_Type
  10
301576.633
  20
4652553.007
  0
VERTEX
  8
Unknown_Area_Type
  10
300738.942
  20
4652576.663
  0
VERTEX
  8
Unknown_Area_Type
  10
300758.381
  20
4652850.448
  0
VERTEX
  8
Unknown_Area_Type
  10
303820.442
  20
4652850.448
  0
SEQEND
  8
Unknown_Area_Type
  0
INSERT
  8
FeatureAttribs
  2
FEATURE
  41
1
  42
1
  43
1
  50
0
  10
302221.939
  20
4651723.037
 66
1
  0
ATTRIB
  8
FeatureAttribs
 70
0
  1
PNOA-H_AMS_1956-57_33k_ES_PAN_2
  2
NAME
  10
302221.939
  20
4651723.037
 40
34.11356
  0
SEQEND
  0
POLYLINE
  8
Unknown_Area_Type
  70
1
  66
1
  0
VERTEX
  8
Unknown_Area_Type
  10
303793.694
  20
4652491.478
  0
VERTEX
  8
Unknown_Area_Type
  10
303779.500
  20
4652301.000
  0
VERTEX
  8
Unknown_Area_Type
  10
303779.500
  20
4652296.000
  0
VERTEX
  8
Unknown_Area_Type
  10
303687.500
  20
4651061.500
  0
VERTEX
  8
Unknown_Area_Type
  10
302104.500
  20
4650695.500
  0
VERTEX
  8
Unknown_Area_Type
  10
300644.500
  20
4651246.500
  0
VERTEX
  8
Unknown_Area_Type
  10
300738.942
  20
4652576.663
  0
VERTEX
  8
Unknown_Area_Type
  10
301576.633
  20
4652553.007
  0
VERTEX
  8
Unknown_Area_Type
  10
303793.694
  20
4652491.478
  0
SEQEND
  8
Unknown_Area_Type
  0
INSERT
  8
FeatureAttribs
  2
FEATURE
  41
1
  42
1
  43
1
  50
0
  10
302221.939
  20
4651723.037
 66
1
  0
ATTRIB
  8
FeatureAttribs
 70
0
  1
PNOA-H_AMS_1956-57_33k_ES_PAN_2
  2
NAME
  10
302221.939
  20
4651723.037
 40
34.11356
  0
SEQEND
  0
POLYLINE
  8
Unknown_Area_Type
  70
1
  66
1
  0
VERTEX
  8
Unknown_Area_Type
  10
303793.694
  20
4652491.478
  0
VERTEX
  8
Unknown_Area_Type
  10
301576.633
  20
4652553.007
  0
VERTEX
  8
Unknown_Area_Type
  10
300738.942
  20
4652576.663
  0
VERTEX
  8
Unknown_Area_Type
  10
300644.500
  20
4651246.500
  0
VERTEX
  8
Unknown_Area_Type
  10
302104.500
  20
4650695.500
  0
VERTEX
  8
Unknown_Area_Type
  10
303687.500
  20
4651061.500
  0
VERTEX
  8
Unknown_Area_Type
  10
303779.500
  20
4652296.000
  0
VERTEX
  8
Unknown_Area_Type
  10
303779.500
  20
4652301.000
  0
VERTEX
  8
Unknown_Area_Type
  10
303793.694
  20
4652491.478
  0
SEQEND
  8
Unknown_Area_Type
  0
INSERT
  8
FeatureAttribs
  2
FEATURE
  41
1
  42
1
  43
1
  50
0
  10
305329.988
  20
4652629.148
 66
1
  0
ATTRIB
  8
FeatureAttribs
 70
0
  1
PNOA-H_AMS_1956-57_33k_ES_PAN_2
  2
NAME
  10
305329.988
  20
4652629.148
 40
34.11356
  0
SEQEND
  0
POLYLINE
  8
Unknown_Area_Type
  70
1
  66
1
  0
VERTEX
  8
Unknown_Area_Type
  10
306872.746
  20
4652850.448
  0
VERTEX
  8
Unknown_Area_Type
  10
306838.925
  20
4652407.848
  0
VERTEX
  8
Unknown_Area_Type
  10
305027.682
  20
4652457.232
  0
VERTEX
  8
Unknown_Area_Type
  10
303793.896
  20
4652491.472
  0
VERTEX
  8
Unknown_Area_Type
  10
303820.605
  20
4652850.448
  0
VERTEX
  8
Unknown_Area_Type
  10
306872.746
  20
4652850.448
  0
SEQEND
  8
Unknown_Area_Type
  0
INSERT
  8
FeatureAttribs
  2
FEATURE
  41
1
  42
1
  43
1
  50
0
  10
305264.515
  20
4651575.111
 66
1
  0
ATTRIB
  8
FeatureAttribs
 70
0
  1
PNOA-H_AMS_1956-57_33k_ES_PAN_2
  2
NAME
  10
305264.515
  20
4651575.111
 40
34.11356
  0
SEQEND
  0
POLYLINE
  8
Unknown_Area_Type
  70
1
  66
1
  0
VERTEX
  8
Unknown_Area_Type
  10
306838.925
  20
4652407.848
  0
VERTEX
  8
Unknown_Area_Type
  10
306720.000
  20
4650851.500
  0
VERTEX
  8
Unknown_Area_Type
  10
305072.500
  20
4650476.000
  0
VERTEX
  8
Unknown_Area_Type
  10
303687.500
  20
4651061.500
  0
VERTEX
  8
Unknown_Area_Type
  10
303793.896
  20
4652491.472
  0
VERTEX
  8
Unknown_Area_Type
  10
305027.682
  20
4652457.232
  0
VERTEX
  8
Unknown_Area_Type
  10
306838.925
  20
4652407.848
  0
SEQEND
  8
Unknown_Area_Type
  0
INSERT
  8
FeatureAttribs
  2
FEATURE
  41
1
  42
1
  43
1
  50
0
  10
305264.515
  20
4651575.111
 66
1
  0
ATTRIB
  8
FeatureAttribs
 70
0
  1
PNOA-H_AMS_1956-57_33k_ES_PAN_2
  2
NAME
  10
305264.515
  20
4651575.111
 40
34.11356
  0
SEQEND
  0
POLYLINE
  8
Unknown_Area_Type
  70
1
  66
1
  0
VERTEX
  8
Unknown_Area_Type
  10
306838.925
  20
4652407.848
  0
VERTEX
  8
Unknown_Area_Type
  10
305027.682
  20
4652457.232
  0
VERTEX
  8
Unknown_Area_Type
  10
303793.896
  20
4652491.472
  0
VERTEX
  8
Unknown_Area_Type
  10
303687.500
  20
4651061.500
  0
VERTEX
  8
Unknown_Area_Type
  10
305072.500
  20
4650476.000
  0
VERTEX
  8
Unknown_Area_Type
  10
306720.000
  20
4650851.500
  0
VERTEX
  8
Unknown_Area_Type
  10
306838.925
  20
4652407.848
  0
SEQEND
  8
Unknown_Area_Type
  0
INSERT
  8
FeatureAttribs
  2
FEATURE
  41
1
  42
1
  43
1
  50
0
  10
296176.805
  20
4652756.387
 66
1
  0
ATTRIB
  8
FeatureAttribs
 70
0
  1
PNOA-H_AMS_1956-57_33k_ES_PAN_2
  2
NAME
  10
296176.805
  20
4652756.387
 40
34.11356
  0
SEQEND
  0
POLYLINE
  8
Unknown_Area_Type
  70
1
  66
1
  0
VERTEX
  8
Unknown_Area_Type
  10
297719.954
  20
4652850.448
  0
VERTEX
  8
Unknown_Area_Type
  10
297712.689
  20
4652662.326
  0
VERTEX
  8
Unknown_Area_Type
  10
294674.502
  20
4652749.605
  0
VERTEX
  8
Unknown_Area_Type
  10
294637.021
  20
4652750.700
  0
VERTEX
  8
Unknown_Area_Type
  10
294641.711
  20
4652850.448
  0
VERTEX
  8
Unknown_Area_Type
  10
297719.954
  20
4652850.448
  0
SEQEND
  8
Unknown_Area_Type
  0
INSERT
  8
FeatureAttribs
  2
FEATURE
  41
1
  42
1
  43
1
  50
0
  10
296160.721
  20
4651967.111
 66
1
  0
ATTRIB
  8
FeatureAttribs
 70
0
  1
PNOA-H_AMS_1956-57_33k_ES_PAN_2
  2
NAME
  10
296160.721
  20
4651967.111
 40
34.11356
  0
SEQEND
  0
POLYLINE
  8
Unknown_Area_Type
  70
1
  66
1
  0
VERTEX
  8
Unknown_Area_Type
  10
297712.689
  20
4652662.326
  0
VERTEX
  8
Unknown_Area_Type
  10
297664.500
  20
4651414.500
  0
VERTEX
  8
Unknown_Area_Type
  10
296202.500
  20
4650991.000
  0
VERTEX
  8
Unknown_Area_Type
  10
294581.500
  20
4651570.000
  0
VERTEX
  8
Unknown_Area_Type
  10
294637.021
  20
4652750.700
  0
VERTEX
  8
Unknown_Area_Type
  10
294674.502
  20
4652749.605
  0
VERTEX
  8
Unknown_Area_Type
  10
297712.689
  20
4652662.326
  0
SEQEND
  8
Unknown_Area_Type
  0
INSERT
  8
FeatureAttribs
  2
FEATURE
  41
1
  42
1
  43
1
  50
0
  10
296160.721
  20
4651967.111
 66
1
  0
ATTRIB
  8
FeatureAttribs
 70
0
  1
PNOA-H_AMS_1956-57_33k_ES_PAN_2
  2
NAME
  10
296160.721
  20
4651967.111
 40
34.11356
  0
SEQEND
  0
POLYLINE
  8
Unknown_Area_Type
  70
1
  66
1
  0
VERTEX
  8
Unknown_Area_Type
  10
297712.689
  20
4652662.326
  0
VERTEX
  8
Unknown_Area_Type
  10
294674.502
  20
4652749.605
  0
VERTEX
  8
Unknown_Area_Type
  10
294637.021
  20
4652750.700
  0
VERTEX
  8
Unknown_Area_Type
  10
294581.500
  20
4651570.000
  0
VERTEX
  8
Unknown_Area_Type
  10
296202.500
  20
4650991.000
  0
VERTEX
  8
Unknown_Area_Type
  10
297664.500
  20
4651414.500
  0
VERTEX
  8
Unknown_Area_Type
  10
297712.689
  20
4652662.326
  0
SEQEND
  8
Unknown_Area_Type
  0
INSERT
  8
FeatureAttribs
  2
FEATURE
  41
1
  42
1
  43
1
  50
0
  10
299231.526
  20
4652713.556
 66
1
  0
ATTRIB
  8
FeatureAttribs
 70
0
  1
PNOA-H_AMS_1956-57_33k_ES_PAN_2
  2
NAME
  10
299231.526
  20
4652713.556
 40
34.11356
  0
SEQEND
  0
POLYLINE
  8
Unknown_Area_Type
  70
1
  66
1
  0
VERTEX
  8
Unknown_Area_Type
  10
300758.381
  20
4652850.448
  0
VERTEX
  8
Unknown_Area_Type
  10
300738.942
  20
4652576.663
  0
VERTEX
  8
Unknown_Area_Type
  10
298125.573
  20
4652650.465
  0
VERTEX
  8
Unknown_Area_Type
  10
297712.404
  20
4652662.334
  0
VERTEX
  8
Unknown_Area_Type
  10
297719.698
  20
4652850.448
  0
VERTEX
  8
Unknown_Area_Type
  10
300758.381
  20
4652850.448
  0
SEQEND
  8
Unknown_Area_Type
  0
INSERT
  8
FeatureAttribs
  2
FEATURE
  41
1
  42
1
  43
1
  50
0
  10
299200.753
  20
4651857.162
 66
1
  0
ATTRIB
  8
FeatureAttribs
 70
0
  1
PNOA-H_AMS_1956-57_33k_ES_PAN_2
  2
NAME
  10
299200.753
  20
4651857.162
 40
34.11356
  0
SEQEND
  0
POLYLINE
  8
Unknown_Area_Type
  70
1
  66
1
  0
VERTEX
  8
Unknown_Area_Type
  10
300738.942
  20
4652576.663
  0
VERTEX
  8
Unknown_Area_Type
  10
300644.500
  20
4651246.500
  0
VERTEX
  8
Unknown_Area_Type
  10
299198.500
  20
4650873.500
  0
VERTEX
  8
Unknown_Area_Type
  10
297664.000
  20
4651414.000
  0
VERTEX
  8
Unknown_Area_Type
  10
297712.404
  20
4652662.334
  0
VERTEX
  8
Unknown_Area_Type
  10
298125.573
  20
4652650.465
  0
VERTEX
  8
Unknown_Area_Type
  10
300738.942
  20
4652576.663
  0
SEQEND
  8
Unknown_Area_Type
  0
INSERT
  8
FeatureAttribs
  2
FEATURE
  41
1
  42
1
  43
1
  50
0
  10
299200.753
  20
4651857.162
 66
1
  0
ATTRIB
  8
FeatureAttribs
 70
0
  1
PNOA-H_AMS_1956-57_33k_ES_PAN_2
  2
NAME
  10
299200.753
  20
4651857.162
 40
34.11356
  0
SEQEND
  0
POLYLINE
  8
Unknown_Area_Type
  70
1
  66
1
  0
VERTEX
  8
Unknown_Area_Type
  10
300738.942
  20
4652576.663
  0
VERTEX
  8
Unknown_Area_Type
  10
298125.573
  20
4652650.465
  0
VERTEX
  8
Unknown_Area_Type
  10
297712.404
  20
4652662.334
  0
VERTEX
  8
Unknown_Area_Type
  10
297664.000
  20
4651414.000
  0
VERTEX
  8
Unknown_Area_Type
  10
299198.500
  20
4650873.500
  0
VERTEX
  8
Unknown_Area_Type
  10
300644.500
  20
4651246.500
  0
VERTEX
  8
Unknown_Area_Type
  10
300738.942
  20
4652576.663
  0
SEQEND
  8
Unknown_Area_Type
  0
INSERT
  8
FeatureAttribs
  2
FEATURE
  41
1
  42
1
  43
1
  50
0
  10
293784.628
  20
4652800.574
 66
1
  0
ATTRIB
  8
FeatureAttribs
 70
0
  1
PNOA-H_AMS_1956-57_33k_ES_PAN_2
  2
NAME
  10
293784.628
  20
4652800.574
 40
34.11356
  0
SEQEND
  0
POLYLINE
  8
Unknown_Area_Type
  70
1
  66
1
  0
VERTEX
  8
Unknown_Area_Type
  10
294641.711
  20
4652850.448
  0
VERTEX
  8
Unknown_Area_Type
  10
294637.021
  20
4652750.700
  0
VERTEX
  8
Unknown_Area_Type
  10
291566.895
  20
4652840.394
  0
VERTEX
  8
Unknown_Area_Type
  10
291567.137
  20
4652850.448
  0
VERTEX
  8
Unknown_Area_Type
  10
294641.711
  20
4652850.448
  0
SEQEND
  8
Unknown_Area_Type
  0
INSERT
  8
FeatureAttribs
  2
FEATURE
  41
1
  42
1
  43
1
  50
0
  10
293099.273
  20
4652095.975
 66
1
  0
ATTRIB
  8
FeatureAttribs
 70
0
  1
PNOA-H_AMS_1956-57_33k_ES_PAN_2
  2
NAME
  10
293099.273
  20
4652095.975
 40
34.11356
  0
SEQEND
  0
POLYLINE
  8
Unknown_Area_Type
  70
1
  66
1
  0
VERTEX
  8
Unknown_Area_Type
  10
294637.021
  20
4652750.700
  0
VERTEX
  8
Unknown_Area_Type
  10
294581.500
  20
4651570.000
  0
VERTEX
  8
Unknown_Area_Type
  10
293180.000
  20
4651165.500
  0
VERTEX
  8
Unknown_Area_Type
  10
293152.500
  20
4651158.500
  0
VERTEX
  8
Unknown_Area_Type
  10
291540.500
  20
4651745.000
  0
VERTEX
  8
Unknown_Area_Type
  10
291566.895
  20
4652840.394
  0
VERTEX
  8
Unknown_Area_Type
  10
294637.021
  20
4652750.700
  0
SEQEND
  8
Unknown_Area_Type
  0
INSERT
  8
FeatureAttribs
  2
FEATURE
  41
1
  42
1
  43
1
  50
0
  10
293099.273
  20
4652095.975
 66
1
  0
ATTRIB
  8
FeatureAttribs
 70
0
  1
PNOA-H_AMS_1956-57_33k_ES_PAN_2
  2
NAME
  10
293099.273
  20
4652095.975
 40
34.11356
  0
SEQEND
  0
POLYLINE
  8
Unknown_Area_Type
  70
1
  66
1
  0
VERTEX
  8
Unknown_Area_Type
  10
294637.021
  20
4652750.700
  0
VERTEX
  8
Unknown_Area_Type
  10
291566.895
  20
4652840.394
  0
VERTEX
  8
Unknown_Area_Type
  10
291540.500
  20
4651745.000
  0
VERTEX
  8
Unknown_Area_Type
  10
293152.500
  20
4651158.500
  0
VERTEX
  8
Unknown_Area_Type
  10
293180.000
  20
4651165.500
  0
VERTEX
  8
Unknown_Area_Type
  10
294581.500
  20
4651570.000
  0
VERTEX
  8
Unknown_Area_Type
  10
294637.021
  20
4652750.700
  0
SEQEND
  8
Unknown_Area_Type
  0
INSERT
  8
FeatureAttribs
  2
FEATURE
  41
1
  42
1
  43
1
  50
0
  10
300534.264
  20
4648620.355
 66
1
  0
ATTRIB
  8
FeatureAttribs
 70
0
  1
PNOA-H_AMS_1956-57_33k_ES_PAN_2
  2
NAME
  10
300534.264
  20
4648620.355
 40
34.11356
  0
SEQEND
  0
POLYLINE
  8
Unknown_Area_Type
  70
1
  66
1
  0
VERTEX
  8
Unknown_Area_Type
  10
300643.000
  20
4651246.500
  0
VERTEX
  8
Unknown_Area_Type
  10
300646.000
  20
4651246.500
  0
VERTEX
  8
Unknown_Area_Type
  10
300680.500
  20
4651233.500
  0
VERTEX
  8
Unknown_Area_Type
  10
302101.000
  20
4650697.500
  0
VERTEX
  8
Unknown_Area_Type
  10
302106.000
  20
4650695.500
  0
VERTEX
  8
Unknown_Area_Type
  10
302106.000
  20
4650694.500
  0
VERTEX
  8
Unknown_Area_Type
  10
301871.000
  20
4646368.500
  0
VERTEX
  8
Unknown_Area_Type
  10
300443.500
  20
4646003.000
  0
VERTEX
  8
Unknown_Area_Type
  10
300441.000
  20
4646002.500
  0
VERTEX
  8
Unknown_Area_Type
  10
300436.500
  20
4646004.000
  0
VERTEX
  8
Unknown_Area_Type
  10
298983.000
  20
4646515.500
  0
VERTEX
  8
Unknown_Area_Type
  10
298966.000
  20
4646521.500
  0
VERTEX
  8
Unknown_Area_Type
  10
298964.000
  20
4646522.500
  0
VERTEX
  8
Unknown_Area_Type
  10
298964.000
  20
4646524.000
  0
VERTEX
  8
Unknown_Area_Type
  10
299199.000
  20
4650873.500
  0
VERTEX
  8
Unknown_Area_Type
  10
300641.000
  20
4651246.000
  0
VERTEX
  8
Unknown_Area_Type
  10
300643.000
  20
4651246.500
  0
SEQEND
  8
Unknown_Area_Type
  0
INSERT
  8
FeatureAttribs
  2
FEATURE
  41
1
  42
1
  43
1
  50
0
  10
300534.264
  20
4648620.355
 66
1
  0
ATTRIB
  8
FeatureAttribs
 70
0
  1
PNOA-H_AMS_1956-57_33k_ES_PAN_2
  2
NAME
  10
300534.264
  20
4648620.355
 40
34.11356
  0
SEQEND
  0
POLYLINE
  8
Unknown_Area_Type
  70
1
  66
1
  0
VERTEX
  8
Unknown_Area_Type
  10
300643.000
  20
4651246.500
  0
VERTEX
  8
Unknown_Area_Type
  10
300641.000
  20
4651246.000
  0
VERTEX
  8
Unknown_Area_Type
  10
299199.000
  20
4650873.500
  0
VERTEX
  8
Unknown_Area_Type
  10
298964.000
  20
4646524.000
  0
VERTEX
  8
Unknown_Area_Type
  10
298964.000
  20
4646522.500
  0
VERTEX
  8
Unknown_Area_Type
  10
298966.000
  20
4646521.500
  0
VERTEX
  8
Unknown_Area_Type
  10
298983.000
  20
4646515.500
  0
VERTEX
  8
Unknown_Area_Type
  10
300436.500
  20
4646004.000
  0
VERTEX
  8
Unknown_Area_Type
  10
300441.000
  20
4646002.500
  0
VERTEX
  8
Unknown_Area_Type
  10
300443.500
  20
4646003.000
  0
VERTEX
  8
Unknown_Area_Type
  10
301871.000
  20
4646368.500
  0
VERTEX
  8
Unknown_Area_Type
  10
302106.000
  20
4650694.500
  0
VERTEX
  8
Unknown_Area_Type
  10
302106.000
  20
4650695.500
  0
VERTEX
  8
Unknown_Area_Type
  10
302101.000
  20
4650697.500
  0
VERTEX
  8
Unknown_Area_Type
  10
300680.500
  20
4651233.500
  0
VERTEX
  8
Unknown_Area_Type
  10
300646.000
  20
4651246.500
  0
VERTEX
  8
Unknown_Area_Type
  10
300643.000
  20
4651246.500
  0
SEQEND
  8
Unknown_Area_Type
  0
INSERT
  8
FeatureAttribs
  2
FEATURE
  41
1
  42
1
  43
1
  50
0
  10
294541.215
  20
4648917.759
 66
1
  0
ATTRIB
  8
FeatureAttribs
 70
0
  1
PNOA-H_AMS_1956-57_33k_ES_PAN_2
  2
NAME
  10
294541.215
  20
4648917.759
 40
34.11356
  0
SEQEND
  0
POLYLINE
  8
Unknown_Area_Type
  70
1
  66
1
  0
VERTEX
  8
Unknown_Area_Type
  10
294580.000
  20
4651570.000
  0
VERTEX
  8
Unknown_Area_Type
  10
294588.500
  20
4651568.000
  0
VERTEX
  8
Unknown_Area_Type
  10
296202.500
  20
4650991.500
  0
VERTEX
  8
Unknown_Area_Type
  10
295952.500
  20
4646677.500
  0
VERTEX
  8
Unknown_Area_Type
  10
294686.000
  20
4646305.500
  0
VERTEX
  8
Unknown_Area_Type
  10
294667.500
  20
4646309.500
  0
VERTEX
  8
Unknown_Area_Type
  10
292853.000
  20
4646803.000
  0
VERTEX
  8
Unknown_Area_Type
  10
293154.000
  20
4651158.500
  0
VERTEX
  8
Unknown_Area_Type
  10
294578.000
  20
4651569.500
  0
VERTEX
  8
Unknown_Area_Type
  10
294580.000
  20
4651570.000
  0
SEQEND
  8
Unknown_Area_Type
  0
INSERT
  8
FeatureAttribs
  2
FEATURE
  41
1
  42
1
  43
1
  50
0
  10
294541.215
  20
4648917.759
 66
1
  0
ATTRIB
  8
FeatureAttribs
 70
0
  1
PNOA-H_AMS_1956-57_33k_ES_PAN_2
  2
NAME
  10
294541.215
  20
4648917.759
 40
34.11356
  0
SEQEND
  0
POLYLINE
  8
Unknown_Area_Type
  70
1
  66
1
  0
VERTEX
  8
Unknown_Area_Type
  10
294580.000
  20
4651570.000
  0
VERTEX
  8
Unknown_Area_Type
  10
294578.000
  20
4651569.500
  0
VERTEX
  8
Unknown_Area_Type
  10
293154.000
  20
4651158.500
  0
VERTEX
  8
Unknown_Area_Type
  10
292853.000
  20
4646803.000
  0
VERTEX
  8
Unknown_Area_Type
  10
294667.500
  20
4646309.500
  0
VERTEX
  8
Unknown_Area_Type
  10
294686.000
  20
4646305.500
  0
VERTEX
  8
Unknown_Area_Type
  10
295952.500
  20
4646677.500
  0
VERTEX
  8
Unknown_Area_Type
  10
296202.500
  20
4650991.500
  0
VERTEX
  8
Unknown_Area_Type
  10
294588.500
  20
4651568.000
  0
VERTEX
  8
Unknown_Area_Type
  10
294580.000
  20
4651570.000
  0
SEQEND
  8
Unknown_Area_Type
  0
INSERT
  8
FeatureAttribs
  2
FEATURE
  41
1
  42
1
  43
1
  50
0
  10
306462.279
  20
4648278.613
 66
1
  0
ATTRIB
  8
FeatureAttribs
 70
0
  1
PNOA-H_AMS_1956-57_33k_ES_PAN_2
  2
NAME
  10
306462.279
  20
4648278.613
 40
34.11356
  0
SEQEND
  0
POLYLINE
  8
Unknown_Area_Type
  70
1
  66
1
  0
VERTEX
  8
Unknown_Area_Type
  10
306719.000
  20
4650851.500
  0
VERTEX
  8
Unknown_Area_Type
  10
308142.500
  20
4650254.000
  0
VERTEX
  8
Unknown_Area_Type
  10
307804.500
  20
4646034.500
  0
VERTEX
  8
Unknown_Area_Type
  10
307804.000
  20
4646030.500
  0
VERTEX
  8
Unknown_Area_Type
  10
307803.000
  20
4646030.000
  0
VERTEX
  8
Unknown_Area_Type
  10
306178.000
  20
4645713.000
  0
VERTEX
  8
Unknown_Area_Type
  10
304825.000
  20
4646234.500
  0
VERTEX
  8
Unknown_Area_Type
  10
305072.500
  20
4650476.000
  0
VERTEX
  8
Unknown_Area_Type
  10
306717.000
  20
4650851.000
  0
VERTEX
  8
Unknown_Area_Type
  10
306719.000
  20
4650851.500
  0
SEQEND
  8
Unknown_Area_Type
  0
INSERT
  8
FeatureAttribs
  2
FEATURE
  41
1
  42
1
  43
1
  50
0
  10
306462.279
  20
4648278.613
 66
1
  0
ATTRIB
  8
FeatureAttribs
 70
0
  1
PNOA-H_AMS_1956-57_33k_ES_PAN_2
  2
NAME
  10
306462.279
  20
4648278.613
 40
34.11356
  0
SEQEND
  0
POLYLINE
  8
Unknown_Area_Type
  70
1
  66
1
  0
VERTEX
  8
Unknown_Area_Type
  10
306719.000
  20
4650851.500
  0
VERTEX
  8
Unknown_Area_Type
  10
306717.000
  20
4650851.000
  0
VERTEX
  8
Unknown_Area_Type
  10
305072.500
  20
4650476.000
  0
VERTEX
  8
Unknown_Area_Type
  10
304825.000
  20
4646234.500
  0
VERTEX
  8
Unknown_Area_Type
  10
306178.000
  20
4645713.000
  0
VERTEX
  8
Unknown_Area_Type
  10
307803.000
  20
4646030.000
  0
VERTEX
  8
Unknown_Area_Type
  10
307804.000
  20
4646030.500
  0
VERTEX
  8
Unknown_Area_Type
  10
307804.500
  20
4646034.500
  0
VERTEX
  8
Unknown_Area_Type
  10
308142.500
  20
4650254.000
  0
VERTEX
  8
Unknown_Area_Type
  10
306719.000
  20
4650851.500
  0
SEQEND
  8
Unknown_Area_Type
  0
INSERT
  8
FeatureAttribs
  2
FEATURE
  41
1
  42
1
  43
1
  50
0
  10
312524.277
  20
4647819.762
 66
1
  0
ATTRIB
  8
FeatureAttribs
 70
0
  1
PNOA-H_AMS_1956-57_33k_ES_PAN_2
  2
NAME
  10
312524.277
  20
4647819.762
 40
34.11356
  0
SEQEND
  0
POLYLINE
  8
Unknown_Area_Type
  70
1
  66
1
  0
VERTEX
  8
Unknown_Area_Type
  10
312822.500
  20
4650390.500
  0
VERTEX
  8
Unknown_Area_Type
  10
312825.500
  20
4650390.500
  0
VERTEX
  8
Unknown_Area_Type
  10
312831.500
  20
4650388.000
  0
VERTEX
  8
Unknown_Area_Type
  10
314222.500
  20
4649805.500
  0
VERTEX
  8
Unknown_Area_Type
  10
313892.500
  20
4645569.500
  0
VERTEX
  8
Unknown_Area_Type
  10
311795.000
  20
4645322.000
  0
VERTEX
  8
Unknown_Area_Type
  10
310823.500
  20
4645812.500
  0
VERTEX
  8
Unknown_Area_Type
  10
311177.000
  20
4650035.000
  0
VERTEX
  8
Unknown_Area_Type
  10
312820.000
  20
4650390.000
  0
VERTEX
  8
Unknown_Area_Type
  10
312822.500
  20
4650390.500
  0
SEQEND
  8
Unknown_Area_Type
  0
INSERT
  8
FeatureAttribs
  2
FEATURE
  41
1
  42
1
  43
1
  50
0
  10
312524.277
  20
4647819.762
 66
1
  0
ATTRIB
  8
FeatureAttribs
 70
0
  1
PNOA-H_AMS_1956-57_33k_ES_PAN_2
  2
NAME
  10
312524.277
  20
4647819.762
 40
34.11356
  0
SEQEND
  0
POLYLINE
  8
Unknown_Area_Type
  70
1
  66
1
  0
VERTEX
  8
Unknown_Area_Type
  10
312822.500
  20
4650390.500
  0
VERTEX
  8
Unknown_Area_Type
  10
312820.000
  20
4650390.000
  0
VERTEX
  8
Unknown_Area_Type
  10
311177.000
  20
4650035.000
  0
VERTEX
  8
Unknown_Area_Type
  10
310823.500
  20
4645812.500
  0
VERTEX
  8
Unknown_Area_Type
  10
311795.000
  20
4645322.000
  0
VERTEX
  8
Unknown_Area_Type
  10
313892.500
  20
4645569.500
  0
VERTEX
  8
Unknown_Area_Type
  10
314222.500
  20
4649805.500
  0
VERTEX
  8
Unknown_Area_Type
  10
312831.500
  20
4650388.000
  0
VERTEX
  8
Unknown_Area_Type
  10
312825.500
  20
4650390.500
  0
VERTEX
  8
Unknown_Area_Type
  10
312822.500
  20
4650390.500
  0
SEQEND
  8
Unknown_Area_Type
  0
INSERT
  8
FeatureAttribs
  2
FEATURE
  41
1
  42
1
  43
1
  50
0
  10
290896.582
  20
4649137.176
 66
1
  0
ATTRIB
  8
FeatureAttribs
 70
0
  1
PNOA-H_AMS_1956-57_33k_ES_PAN_2
  2
NAME
  10
290896.582
  20
4649137.176
 40
34.11356
  0
SEQEND
  0
POLYLINE
  8
Unknown_Area_Type
  70
1
  66
1
  0
VERTEX
  8
Unknown_Area_Type
  10
291040.526
  20
4646638.505
  0
VERTEX
  8
Unknown_Area_Type
  10
290679.094
  20
4646721.934
  0
VERTEX
  8
Unknown_Area_Type
  10
290679.094
  20
4651478.976
  0
VERTEX
  8
Unknown_Area_Type
  10
291187.646
  20
4651635.848
  0
VERTEX
  8
Unknown_Area_Type
  10
291155.285
  20
4650537.093
  0
VERTEX
  8
Unknown_Area_Type
  10
291087.178
  20
4648223.765
  0
VERTEX
  8
Unknown_Area_Type
  10
291040.526
  20
4646638.505
  0
SEQEND
  8
Unknown_Area_Type
  0
INSERT
  8
FeatureAttribs
  2
FEATURE
  41
1
  42
1
  43
1
  50
0
  10
292034.772
  20
4649086.416
 66
1
  0
ATTRIB
  8
FeatureAttribs
 70
0
  1
PNOA-H_AMS_1956-57_33k_ES_PAN_2
  2
NAME
  10
292034.772
  20
4649086.416
 40
34.11356
  0
SEQEND
  0
POLYLINE
  8
Unknown_Area_Type
  70
1
  66
1
  0
VERTEX
  8
Unknown_Area_Type
  10
291187.646
  20
4651635.848
  0
VERTEX
  8
Unknown_Area_Type
  10
291541.500
  20
4651745.000
  0
VERTEX
  8
Unknown_Area_Type
  10
293154.000
  20
4651158.500
  0
VERTEX
  8
Unknown_Area_Type
  10
292853.500
  20
4646803.500
  0
VERTEX
  8
Unknown_Area_Type
  10
291842.000
  20
4646453.500
  0
VERTEX
  8
Unknown_Area_Type
  10
291040.526
  20
4646638.505
  0
VERTEX
  8
Unknown_Area_Type
  10
291087.178
  20
4648223.765
  0
VERTEX
  8
Unknown_Area_Type
  10
291155.285
  20
4650537.093
  0
VERTEX
  8
Unknown_Area_Type
  10
291187.646
  20
4651635.848
  0
SEQEND
  8
Unknown_Area_Type
  0
INSERT
  8
FeatureAttribs
  2
FEATURE
  41
1
  42
1
  43
1
  50
0
  10
292034.772
  20
4649086.416
 66
1
  0
ATTRIB
  8
FeatureAttribs
 70
0
  1
PNOA-H_AMS_1956-57_33k_ES_PAN_2
  2
NAME
  10
292034.772
  20
4649086.416
 40
34.11356
  0
SEQEND
  0
POLYLINE
  8
Unknown_Area_Type
  70
1
  66
1
  0
VERTEX
  8
Unknown_Area_Type
  10
291187.646
  20
4651635.848
  0
VERTEX
  8
Unknown_Area_Type
  10
291155.285
  20
4650537.093
  0
VERTEX
  8
Unknown_Area_Type
  10
291087.178
  20
4648223.765
  0
VERTEX
  8
Unknown_Area_Type
  10
291040.526
  20
4646638.505
  0
VERTEX
  8
Unknown_Area_Type
  10
291842.000
  20
4646453.500
  0
VERTEX
  8
Unknown_Area_Type
  10
292853.500
  20
4646803.500
  0
VERTEX
  8
Unknown_Area_Type
  10
293154.000
  20
4651158.500
  0
VERTEX
  8
Unknown_Area_Type
  10
291541.500
  20
4651745.000
  0
VERTEX
  8
Unknown_Area_Type
  10
291187.646
  20
4651635.848
  0
SEQEND
  8
Unknown_Area_Type
  0
INSERT
  8
FeatureAttribs
  2
FEATURE
  41
1
  42
1
  43
1
  50
0
  10
315558.683
  20
4647617.462
 66
1
  0
ATTRIB
  8
FeatureAttribs
 70
0
  1
PNOA-H_AMS_1956-57_33k_ES_PAN_2
  2
NAME
  10
315558.683
  20
4647617.462
 40
34.11356
  0
SEQEND
  0
POLYLINE
  8
Unknown_Area_Type
  70
1
  66
1
  0
VERTEX
  8
Unknown_Area_Type
  10
315025.500
  20
4649990.500
  0
VERTEX
  8
Unknown_Area_Type
  10
315875.500
  20
4650186.000
  0
VERTEX
  8
Unknown_Area_Type
  10
317223.500
  20
4649647.000
  0
VERTEX
  8
Unknown_Area_Type
  10
316899.000
  20
4645328.000
  0
VERTEX
  8
Unknown_Area_Type
  10
314604.500
  20
4645165.500
  0
VERTEX
  8
Unknown_Area_Type
  10
313893.000
  20
4645569.500
  0
VERTEX
  8
Unknown_Area_Type
  10
314222.500
  20
4649805.500
  0
VERTEX
  8
Unknown_Area_Type
  10
315023.500
  20
4649990.000
  0
VERTEX
  8
Unknown_Area_Type
  10
315025.500
  20
4649990.500
  0
SEQEND
  8
Unknown_Area_Type
  0
INSERT
  8
FeatureAttribs
  2
FEATURE
  41
1
  42
1
  43
1
  50
0
  10
315558.683
  20
4647617.462
 66
1
  0
ATTRIB
  8
FeatureAttribs
 70
0
  1
PNOA-H_AMS_1956-57_33k_ES_PAN_2
  2
NAME
  10
315558.683
  20
4647617.462
 40
34.11356
  0
SEQEND
  0
POLYLINE
  8
Unknown_Area_Type
  70
1
  66
1
  0
VERTEX
  8
Unknown_Area_Type
  10
315025.500
  20
4649990.500
  0
VERTEX
  8
Unknown_Area_Type
  10
315023.500
  20
4649990.000
  0
VERTEX
  8
Unknown_Area_Type
  10
314222.500
  20
4649805.500
  0
VERTEX
  8
Unknown_Area_Type
  10
313893.000
  20
4645569.500
  0
VERTEX
  8
Unknown_Area_Type
  10
314604.500
  20
4645165.500
  0
VERTEX
  8
Unknown_Area_Type
  10
316899.000
  20
4645328.000
  0
VERTEX
  8
Unknown_Area_Type
  10
317223.500
  20
4649647.000
  0
VERTEX
  8
Unknown_Area_Type
  10
315875.500
  20
4650186.000
  0
VERTEX
  8
Unknown_Area_Type
  10
315025.500
  20
4649990.500
  0
SEQEND
  8
Unknown_Area_Type
  0
INSERT
  8
FeatureAttribs
  2
FEATURE
  41
1
  42
1
  43
1
  50
0
  10
309484.790
  20
4648051.327
 66
1
  0
ATTRIB
  8
FeatureAttribs
 70
0
  1
PNOA-H_AMS_1956-57_33k_ES_PAN_2
  2
NAME
  10
309484.790
  20
4648051.327
 40
34.11356
  0
SEQEND
  0
POLYLINE
  8
Unknown_Area_Type
  70
1
  66
1
  0
VERTEX
  8
Unknown_Area_Type
  10
308881.000
  20
4650423.000
  0
VERTEX
  8
Unknown_Area_Type
  10
309794.500
  20
4650632.000
  0
VERTEX
  8
Unknown_Area_Type
  10
311177.000
  20
4650035.000
  0
VERTEX
  8
Unknown_Area_Type
  10
310823.000
  20
4645812.500
  0
VERTEX
  8
Unknown_Area_Type
  10
308952.500
  20
4645512.500
  0
VERTEX
  8
Unknown_Area_Type
  10
307804.000
  20
4646030.000
  0
VERTEX
  8
Unknown_Area_Type
  10
308142.500
  20
4650253.500
  0
VERTEX
  8
Unknown_Area_Type
  10
308878.500
  20
4650422.500
  0
VERTEX
  8
Unknown_Area_Type
  10
308881.000
  20
4650423.000
  0
SEQEND
  8
Unknown_Area_Type
  0
INSERT
  8
FeatureAttribs
  2
FEATURE
  41
1
  42
1
  43
1
  50
0
  10
309484.790
  20
4648051.327
 66
1
  0
ATTRIB
  8
FeatureAttribs
 70
0
  1
PNOA-H_AMS_1956-57_33k_ES_PAN_2
  2
NAME
  10
309484.790
  20
4648051.327
 40
34.11356
  0
SEQEND
  0
POLYLINE
  8
Unknown_Area_Type
  70
1
  66
1
  0
VERTEX
  8
Unknown_Area_Type
  10
308881.000
  20
4650423.000
  0
VERTEX
  8
Unknown_Area_Type
  10
308878.500
  20
4650422.500
  0
VERTEX
  8
Unknown_Area_Type
  10
308142.500
  20
4650253.500
  0
VERTEX
  8
Unknown_Area_Type
  10
307804.000
  20
4646030.000
  0
VERTEX
  8
Unknown_Area_Type
  10
308952.500
  20
4645512.500
  0
VERTEX
  8
Unknown_Area_Type
  10
310823.000
  20
4645812.500
  0
VERTEX
  8
Unknown_Area_Type
  10
311177.000
  20
4650035.000
  0
VERTEX
  8
Unknown_Area_Type
  10
309794.500
  20
4650632.000
  0
VERTEX
  8
Unknown_Area_Type
  10
308881.000
  20
4650423.000
  0
SEQEND
  8
Unknown_Area_Type
  0
INSERT
  8
FeatureAttribs
  2
FEATURE
  41
1
  42
1
  43
1
  50
0
  10
297582.070
  20
4648770.737
 66
1
  0
ATTRIB
  8
FeatureAttribs
 70
0
  1
PNOA-H_AMS_1956-57_33k_ES_PAN_2
  2
NAME
  10
297582.070
  20
4648770.737
 40
34.11356
  0
SEQEND
  0
POLYLINE
  8
Unknown_Area_Type
  70
1
  66
1
  0
VERTEX
  8
Unknown_Area_Type
  10
296593.500
  20
4651104.500
  0
VERTEX
  8
Unknown_Area_Type
  10
297665.000
  20
4651414.000
  0
VERTEX
  8
Unknown_Area_Type
  10
299199.000
  20
4650873.500
  0
VERTEX
  8
Unknown_Area_Type
  10
298965.000
  20
4646533.000
  0
VERTEX
  8
Unknown_Area_Type
  10
298963.500
  20
4646522.000
  0
VERTEX
  8
Unknown_Area_Type
  10
297517.500
  20
4646144.500
  0
VERTEX
  8
Unknown_Area_Type
  10
295952.500
  20
4646677.500
  0
VERTEX
  8
Unknown_Area_Type
  10
296202.500
  20
4650991.000
  0
VERTEX
  8
Unknown_Area_Type
  10
296592.000
  20
4651104.000
  0
VERTEX
  8
Unknown_Area_Type
  10
296593.500
  20
4651104.500
  0
SEQEND
  8
Unknown_Area_Type
  0
INSERT
  8
FeatureAttribs
  2
FEATURE
  41
1
  42
1
  43
1
  50
0
  10
297582.070
  20
4648770.737
 66
1
  0
ATTRIB
  8
FeatureAttribs
 70
0
  1
PNOA-H_AMS_1956-57_33k_ES_PAN_2
  2
NAME
  10
297582.070
  20
4648770.737
 40
34.11356
  0
SEQEND
  0
POLYLINE
  8
Unknown_Area_Type
  70
1
  66
1
  0
VERTEX
  8
Unknown_Area_Type
  10
296593.500
  20
4651104.500
  0
VERTEX
  8
Unknown_Area_Type
  10
296592.000
  20
4651104.000
  0
VERTEX
  8
Unknown_Area_Type
  10
296202.500
  20
4650991.000
  0
VERTEX
  8
Unknown_Area_Type
  10
295952.500
  20
4646677.500
  0
VERTEX
  8
Unknown_Area_Type
  10
297517.500
  20
4646144.500
  0
VERTEX
  8
Unknown_Area_Type
  10
298963.500
  20
4646522.000
  0
VERTEX
  8
Unknown_Area_Type
  10
298965.000
  20
4646533.000
  0
VERTEX
  8
Unknown_Area_Type
  10
299199.000
  20
4650873.500
  0
VERTEX
  8
Unknown_Area_Type
  10
297665.000
  20
4651414.000
  0
VERTEX
  8
Unknown_Area_Type
  10
296593.500
  20
4651104.500
  0
SEQEND
  8
Unknown_Area_Type
  0
INSERT
  8
FeatureAttribs
  2
FEATURE
  41
1
  42
1
  43
1
  50
0
  10
303466.314
  20
4648455.128
 66
1
  0
ATTRIB
  8
FeatureAttribs
 70
0
  1
PNOA-H_AMS_1956-57_33k_ES_PAN_2
  2
NAME
  10
303466.314
  20
4648455.128
 40
34.11356
  0
SEQEND
  0
POLYLINE
  8
Unknown_Area_Type
  70
1
  66
1
  0
VERTEX
  8
Unknown_Area_Type
  10
303686.000
  20
4651061.500
  0
VERTEX
  8
Unknown_Area_Type
  10
303688.500
  20
4651061.500
  0
VERTEX
  8
Unknown_Area_Type
  10
303703.000
  20
4651055.500
  0
VERTEX
  8
Unknown_Area_Type
  10
305072.500
  20
4650476.500
  0
VERTEX
  8
Unknown_Area_Type
  10
304825.500
  20
4646239.500
  0
VERTEX
  8
Unknown_Area_Type
  10
304825.000
  20
4646234.500
  0
VERTEX
  8
Unknown_Area_Type
  10
304812.000
  20
4646231.000
  0
VERTEX
  8
Unknown_Area_Type
  10
303351.000
  20
4645856.000
  0
VERTEX
  8
Unknown_Area_Type
  10
303338.500
  20
4645853.500
  0
VERTEX
  8
Unknown_Area_Type
  10
301871.000
  20
4646368.500
  0
VERTEX
  8
Unknown_Area_Type
  10
302105.500
  20
4650694.500
  0
VERTEX
  8
Unknown_Area_Type
  10
302109.500
  20
4650696.500
  0
VERTEX
  8
Unknown_Area_Type
  10
303684.000
  20
4651061.000
  0
VERTEX
  8
Unknown_Area_Type
  10
303686.000
  20
4651061.500
  0
SEQEND
  8
Unknown_Area_Type
  0
INSERT
  8
FeatureAttribs
  2
FEATURE
  41
1
  42
1
  43
1
  50
0
  10
303466.314
  20
4648455.128
 66
1
  0
ATTRIB
  8
FeatureAttribs
 70
0
  1
PNOA-H_AMS_1956-57_33k_ES_PAN_2
  2
NAME
  10
303466.314
  20
4648455.128
 40
34.11356
  0
SEQEND
  0
POLYLINE
  8
Unknown_Area_Type
  70
1
  66
1
  0
VERTEX
  8
Unknown_Area_Type
  10
303686.000
  20
4651061.500
  0
VERTEX
  8
Unknown_Area_Type
  10
303684.000
  20
4651061.000
  0
VERTEX
  8
Unknown_Area_Type
  10
302109.500
  20
4650696.500
  0
VERTEX
  8
Unknown_Area_Type
  10
302105.500
  20
4650694.500
  0
VERTEX
  8
Unknown_Area_Type
  10
301871.000
  20
4646368.500
  0
VERTEX
  8
Unknown_Area_Type
  10
303338.500
  20
4645853.500
  0
VERTEX
  8
Unknown_Area_Type
  10
303351.000
  20
4645856.000
  0
VERTEX
  8
Unknown_Area_Type
  10
304812.000
  20
4646231.000
  0
VERTEX
  8
Unknown_Area_Type
  10
304825.000
  20
4646234.500
  0
VERTEX
  8
Unknown_Area_Type
  10
304825.500
  20
4646239.500
  0
VERTEX
  8
Unknown_Area_Type
  10
305072.500
  20
4650476.500
  0
VERTEX
  8
Unknown_Area_Type
  10
303703.000
  20
4651055.500
  0
VERTEX
  8
Unknown_Area_Type
  10
303688.500
  20
4651061.500
  0
VERTEX
  8
Unknown_Area_Type
  10
303686.000
  20
4651061.500
  0
SEQEND
  8
Unknown_Area_Type
  0
INSERT
  8
FeatureAttribs
  2
FEATURE
  41
1
  42
1
  43
1
  50
0
  10
318773.546
  20
4647531.935
 66
1
  0
ATTRIB
  8
FeatureAttribs
 70
0
  1
PNOA-H_AMS_1956-57_33k_ES_PAN_2
  2
NAME
  10
318773.546
  20
4647531.935
 40
34.11356
  0
SEQEND
  0
POLYLINE
  8
Unknown_Area_Type
  70
1
  66
1
  0
VERTEX
  8
Unknown_Area_Type
  10
318831.799
  20
4645089.627
  0
VERTEX
  8
Unknown_Area_Type
  10
318652.818
  20
4645085.172
  0
VERTEX
  8
Unknown_Area_Type
  10
318654.502
  20
4645151.146
  0
VERTEX
  8
Unknown_Area_Type
  10
318713.568
  20
4647464.408
  0
VERTEX
  8
Unknown_Area_Type
  10
318772.658
  20
4649777.677
  0
VERTEX
  8
Unknown_Area_Type
  10
318777.509
  20
4649967.515
  0
VERTEX
  8
Unknown_Area_Type
  10
318831.799
  20
4649978.698
  0
VERTEX
  8
Unknown_Area_Type
  10
318831.799
  20
4645089.627
  0
SEQEND
  8
Unknown_Area_Type
  0
INSERT
  8
FeatureAttribs
  2
FEATURE
  41
1
  42
1
  43
1
  50
0
  10
317896.278
  20
4647400.101
 66
1
  0
ATTRIB
  8
FeatureAttribs
 70
0
  1
PNOA-H_AMS_1956-57_33k_ES_PAN_2
  2
NAME
  10
317896.278
  20
4647400.101
 40
34.11356
  0
SEQEND
  0
POLYLINE
  8
Unknown_Area_Type
  70
1
  66
1
  0
VERTEX
  8
Unknown_Area_Type
  10
318652.818
  20
4645085.172
  0
VERTEX
  8
Unknown_Area_Type
  10
317360.500
  20
4645053.000
  0
VERTEX
  8
Unknown_Area_Type
  10
316899.000
  20
4645327.500
  0
VERTEX
  8
Unknown_Area_Type
  10
317073.500
  20
4647649.500
  0
VERTEX
  8
Unknown_Area_Type
  10
317073.500
  20
4647656.000
  0
VERTEX
  8
Unknown_Area_Type
  10
317223.000
  20
4649645.500
  0
VERTEX
  8
Unknown_Area_Type
  10
317224.000
  20
4649647.500
  0
VERTEX
  8
Unknown_Area_Type
  10
318777.509
  20
4649967.515
  0
VERTEX
  8
Unknown_Area_Type
  10
318772.658
  20
4649777.677
  0
VERTEX
  8
Unknown_Area_Type
  10
318713.568
  20
4647464.408
  0
VERTEX
  8
Unknown_Area_Type
  10
318654.502
  20
4645151.146
  0
VERTEX
  8
Unknown_Area_Type
  10
318652.818
  20
4645085.172
  0
SEQEND
  8
Unknown_Area_Type
  0
INSERT
  8
FeatureAttribs
  2
FEATURE
  41
1
  42
1
  43
1
  50
0
  10
317896.278
  20
4647400.101
 66
1
  0
ATTRIB
  8
FeatureAttribs
 70
0
  1
PNOA-H_AMS_1956-57_33k_ES_PAN_2
  2
NAME
  10
317896.278
  20
4647400.101
 40
34.11356
  0
SEQEND
  0
POLYLINE
  8
Unknown_Area_Type
  70
1
  66
1
  0
VERTEX
  8
Unknown_Area_Type
  10
318652.818
  20
4645085.172
  0
VERTEX
  8
Unknown_Area_Type
  10
318654.502
  20
4645151.146
  0
VERTEX
  8
Unknown_Area_Type
  10
318713.568
  20
4647464.408
  0
VERTEX
  8
Unknown_Area_Type
  10
318772.658
  20
4649777.677
  0
VERTEX
  8
Unknown_Area_Type
  10
318777.509
  20
4649967.515
  0
VERTEX
  8
Unknown_Area_Type
  10
317224.000
  20
4649647.500
  0
VERTEX
  8
Unknown_Area_Type
  10
317223.000
  20
4649645.500
  0
VERTEX
  8
Unknown_Area_Type
  10
317073.500
  20
4647656.000
  0
VERTEX
  8
Unknown_Area_Type
  10
317073.500
  20
4647649.500
  0
VERTEX
  8
Unknown_Area_Type
  10
316899.000
  20
4645327.500
  0
VERTEX
  8
Unknown_Area_Type
  10
317360.500
  20
4645053.000
  0
VERTEX
  8
Unknown_Area_Type
  10
318652.818
  20
4645085.172
  0
SEQEND
  8
Unknown_Area_Type
  0
INSERT
  8
FeatureAttribs
  2
FEATURE
  41
1
  42
1
  43
1
  50
0
  10
308179.508
  20
4633735.934
 66
1
  0
ATTRIB
  8
FeatureAttribs
 70
0
  1
PNOA-H_AMS_1956-57_33k_ES_PAN_2
  2
NAME
  10
308179.508
  20
4633735.934
 40
34.11356
  0
SEQEND
  0
POLYLINE
  8
Unknown_Area_Type
  70
1
  66
1
  0
VERTEX
  8
Unknown_Area_Type
  10
309478.295
  20
4633584.923
  0
VERTEX
  8
Unknown_Area_Type
  10
306862.569
  20
4633584.923
  0
VERTEX
  8
Unknown_Area_Type
  10
306875.923
  20
4633886.946
  0
VERTEX
  8
Unknown_Area_Type
  10
307979.467
  20
4633856.955
  0
VERTEX
  8
Unknown_Area_Type
  10
309495.889
  20
4633816.480
  0
VERTEX
  8
Unknown_Area_Type
  10
309478.295
  20
4633584.923
  0
SEQEND
  8
Unknown_Area_Type
  0
INSERT
  8
FeatureAttribs
  2
FEATURE
  41
1
  42
1
  43
1
  50
0
  10
308281.062
  20
4635503.730
 66
1
  0
ATTRIB
  8
FeatureAttribs
 70
0
  1
PNOA-H_AMS_1956-57_33k_ES_PAN_2
  2
NAME
  10
308281.062
  20
4635503.730
 40
34.11356
  0
SEQEND
  0
POLYLINE
  8
Unknown_Area_Type
  70
1
  66
1
  0
VERTEX
  8
Unknown_Area_Type
  10
309495.889
  20
4633816.480
  0
VERTEX
  8
Unknown_Area_Type
  10
307979.467
  20
4633856.955
  0
VERTEX
  8
Unknown_Area_Type
  10
306875.923
  20
4633886.946
  0
VERTEX
  8
Unknown_Area_Type
  10
307021.000
  20
4637168.000
  0
VERTEX
  8
Unknown_Area_Type
  10
307022.000
  20
4637178.000
  0
VERTEX
  8
Unknown_Area_Type
  10
307053.500
  20
4637197.500
  0
VERTEX
  8
Unknown_Area_Type
  10
309742.500
  20
4637070.000
  0
VERTEX
  8
Unknown_Area_Type
  10
309499.500
  20
4633868.500
  0
VERTEX
  8
Unknown_Area_Type
  10
309499.500
  20
4633864.000
  0
VERTEX
  8
Unknown_Area_Type
  10
309495.889
  20
4633816.480
  0
SEQEND
  8
Unknown_Area_Type
  0
INSERT
  8
FeatureAttribs
  2
FEATURE
  41
1
  42
1
  43
1
  50
0
  10
308281.062
  20
4635503.730
 66
1
  0
ATTRIB
  8
FeatureAttribs
 70
0
  1
PNOA-H_AMS_1956-57_33k_ES_PAN_2
  2
NAME
  10
308281.062
  20
4635503.730
 40
34.11356
  0
SEQEND
  0
POLYLINE
  8
Unknown_Area_Type
  70
1
  66
1
  0
VERTEX
  8
Unknown_Area_Type
  10
309495.889
  20
4633816.480
  0
VERTEX
  8
Unknown_Area_Type
  10
309499.500
  20
4633864.000
  0
VERTEX
  8
Unknown_Area_Type
  10
309499.500
  20
4633868.500
  0
VERTEX
  8
Unknown_Area_Type
  10
309742.500
  20
4637070.000
  0
VERTEX
  8
Unknown_Area_Type
  10
307053.500
  20
4637197.500
  0
VERTEX
  8
Unknown_Area_Type
  10
307022.000
  20
4637178.000
  0
VERTEX
  8
Unknown_Area_Type
  10
307021.000
  20
4637168.000
  0
VERTEX
  8
Unknown_Area_Type
  10
306875.923
  20
4633886.946
  0
VERTEX
  8
Unknown_Area_Type
  10
307979.467
  20
4633856.955
  0
VERTEX
  8
Unknown_Area_Type
  10
309495.889
  20
4633816.480
  0
SEQEND
  8
Unknown_Area_Type
  0
INSERT
  8
FeatureAttribs
  2
FEATURE
  41
1
  42
1
  43
1
  50
0
  10
313566.166
  20
4633664.895
 66
1
  0
ATTRIB
  8
FeatureAttribs
 70
0
  1
PNOA-H_AMS_1956-57_33k_ES_PAN_2
  2
NAME
  10
313566.166
  20
4633664.895
 40
34.11356
  0
SEQEND
  0
POLYLINE
  8
Unknown_Area_Type
  70
1
  66
1
  0
VERTEX
  8
Unknown_Area_Type
  10
314943.323
  20
4633672.806
  0
VERTEX
  8
Unknown_Area_Type
  10
314941.530
  20
4633584.923
  0
VERTEX
  8
Unknown_Area_Type
  10
312185.684
  20
4633584.923
  0
VERTEX
  8
Unknown_Area_Type
  10
312192.658
  20
4633744.866
  0
VERTEX
  8
Unknown_Area_Type
  10
314899.524
  20
4633673.932
  0
VERTEX
  8
Unknown_Area_Type
  10
314943.323
  20
4633672.806
  0
SEQEND
  8
Unknown_Area_Type
  0
INSERT
  8
FeatureAttribs
  2
FEATURE
  41
1
  42
1
  43
1
  50
0
  10
313608.120
  20
4635313.370
 66
1
  0
ATTRIB
  8
FeatureAttribs
 70
0
  1
PNOA-H_AMS_1956-57_33k_ES_PAN_2
  2
NAME
  10
313608.120
  20
4635313.370
 40
34.11356
  0
SEQEND
  0
POLYLINE
  8
Unknown_Area_Type
  70
1
  66
1
  0
VERTEX
  8
Unknown_Area_Type
  10
314943.323
  20
4633672.806
  0
VERTEX
  8
Unknown_Area_Type
  10
314899.524
  20
4633673.932
  0
VERTEX
  8
Unknown_Area_Type
  10
312192.658
  20
4633744.866
  0
VERTEX
  8
Unknown_Area_Type
  10
312330.000
  20
4636895.000
  0
VERTEX
  8
Unknown_Area_Type
  10
312644.500
  20
4637056.500
  0
VERTEX
  8
Unknown_Area_Type
  10
312974.000
  20
4637019.500
  0
VERTEX
  8
Unknown_Area_Type
  10
312978.000
  20
4637019.500
  0
VERTEX
  8
Unknown_Area_Type
  10
315007.000
  20
4636794.000
  0
VERTEX
  8
Unknown_Area_Type
  10
314943.323
  20
4633672.806
  0
SEQEND
  8
Unknown_Area_Type
  0
INSERT
  8
FeatureAttribs
  2
FEATURE
  41
1
  42
1
  43
1
  50
0
  10
313608.120
  20
4635313.370
 66
1
  0
ATTRIB
  8
FeatureAttribs
 70
0
  1
PNOA-H_AMS_1956-57_33k_ES_PAN_2
  2
NAME
  10
313608.120
  20
4635313.370
 40
34.11356
  0
SEQEND
  0
POLYLINE
  8
Unknown_Area_Type
  70
1
  66
1
  0
VERTEX
  8
Unknown_Area_Type
  10
314943.323
  20
4633672.806
  0
VERTEX
  8
Unknown_Area_Type
  10
315007.000
  20
4636794.000
  0
VERTEX
  8
Unknown_Area_Type
  10
312978.000
  20
4637019.500
  0
VERTEX
  8
Unknown_Area_Type
  10
312974.000
  20
4637019.500
  0
VERTEX
  8
Unknown_Area_Type
  10
312644.500
  20
4637056.500
  0
VERTEX
  8
Unknown_Area_Type
  10
312330.000
  20
4636895.000
  0
VERTEX
  8
Unknown_Area_Type
  10
312192.658
  20
4633744.866
  0
VERTEX
  8
Unknown_Area_Type
  10
314899.524
  20
4633673.932
  0
VERTEX
  8
Unknown_Area_Type
  10
314943.323
  20
4633672.806
  0
SEQEND
  8
Unknown_Area_Type
  0
INSERT
  8
FeatureAttribs
  2
FEATURE
  41
1
  42
1
  43
1
  50
0
  10
302727.840
  20
4633811.667
 66
1
  0
ATTRIB
  8
FeatureAttribs
 70
0
  1
PNOA-H_AMS_1956-57_33k_ES_PAN_2
  2
NAME
  10
302727.840
  20
4633811.667
 40
34.11356
  0
SEQEND
  0
POLYLINE
  8
Unknown_Area_Type
  70
1
  66
1
  0
VERTEX
  8
Unknown_Area_Type
  10
304098.867
  20
4633584.923
  0
VERTEX
  8
Unknown_Area_Type
  10
301329.212
  20
4633584.923
  0
VERTEX
  8
Unknown_Area_Type
  10
301359.094
  20
4634038.411
  0
VERTEX
  8
Unknown_Area_Type
  10
304119.922
  20
4633962.039
  0
VERTEX
  8
Unknown_Area_Type
  10
304098.867
  20
4633584.923
  0
SEQEND
  8
Unknown_Area_Type
  0
INSERT
  8
FeatureAttribs
  2
FEATURE
  41
1
  42
1
  43
1
  50
0
  10
302844.056
  20
4635666.446
 66
1
  0
ATTRIB
  8
FeatureAttribs
 70
0
  1
PNOA-H_AMS_1956-57_33k_ES_PAN_2
  2
NAME
  10
302844.056
  20
4635666.446
 40
34.11356
  0
SEQEND
  0
POLYLINE
  8
Unknown_Area_Type
  70
1
  66
1
  0
VERTEX
  8
Unknown_Area_Type
  10
304119.922
  20
4633962.039
  0
VERTEX
  8
Unknown_Area_Type
  10
301359.094
  20
4634038.411
  0
VERTEX
  8
Unknown_Area_Type
  10
301577.500
  20
4637353.000
  0
VERTEX
  8
Unknown_Area_Type
  10
302736.500
  20
4637342.000
  0
VERTEX
  8
Unknown_Area_Type
  10
302738.000
  20
4637342.000
  0
VERTEX
  8
Unknown_Area_Type
  10
304235.000
  20
4637328.500
  0
VERTEX
  8
Unknown_Area_Type
  10
304305.000
  20
4637277.000
  0
VERTEX
  8
Unknown_Area_Type
  10
304119.922
  20
4633962.039
  0
SEQEND
  8
Unknown_Area_Type
  0
INSERT
  8
FeatureAttribs
  2
FEATURE
  41
1
  42
1
  43
1
  50
0
  10
302844.056
  20
4635666.446
 66
1
  0
ATTRIB
  8
FeatureAttribs
 70
0
  1
PNOA-H_AMS_1956-57_33k_ES_PAN_2
  2
NAME
  10
302844.056
  20
4635666.446
 40
34.11356
  0
SEQEND
  0
POLYLINE
  8
Unknown_Area_Type
  70
1
  66
1
  0
VERTEX
  8
Unknown_Area_Type
  10
304119.922
  20
4633962.039
  0
VERTEX
  8
Unknown_Area_Type
  10
304305.000
  20
4637277.000
  0
VERTEX
  8
Unknown_Area_Type
  10
304235.000
  20
4637328.500
  0
VERTEX
  8
Unknown_Area_Type
  10
302738.000
  20
4637342.000
  0
VERTEX
  8
Unknown_Area_Type
  10
302736.500
  20
4637342.000
  0
VERTEX
  8
Unknown_Area_Type
  10
301577.500
  20
4637353.000
  0
VERTEX
  8
Unknown_Area_Type
  10
301359.094
  20
4634038.411
  0
VERTEX
  8
Unknown_Area_Type
  10
304119.922
  20
4633962.039
  0
SEQEND
  8
Unknown_Area_Type
  0
INSERT
  8
FeatureAttribs
  2
FEATURE
  41
1
  42
1
  43
1
  50
0
  10
290701.271
  20
4635853.181
 66
1
  0
ATTRIB
  8
FeatureAttribs
 70
0
  1
PNOA-H_AMS_1956-57_33k_ES_PAN_2
  2
NAME
  10
290701.271
  20
4635853.181
 40
34.11356
  0
SEQEND
  0
POLYLINE
  8
Unknown_Area_Type
  70
1
  66
1
  0
VERTEX
  8
Unknown_Area_Type
  10
290767.782
  20
4637362.427
  0
VERTEX
  8
Unknown_Area_Type
  10
290747.062
  20
4636657.224
  0
VERTEX
  8
Unknown_Area_Type
  10
290679.122
  20
4634343.936
  0
VERTEX
  8
Unknown_Area_Type
  10
290679.094
  20
4634343.937
  0
VERTEX
  8
Unknown_Area_Type
  10
290679.094
  20
4637360.479
  0
VERTEX
  8
Unknown_Area_Type
  10
290767.782
  20
4637362.427
  0
SEQEND
  8
Unknown_Area_Type
  0
INSERT
  8
FeatureAttribs
  2
FEATURE
  41
1
  42
1
  43
1
  50
0
  10
290679.108
  20
4634343.697
 66
1
  0
ATTRIB
  8
FeatureAttribs
 70
0
  1
PNOA-H_AMS_1956-57_33k_ES_PAN_2
  2
NAME
  10
290679.108
  20
4634343.697
 40
34.11356
  0
SEQEND
  0
POLYLINE
  8
Unknown_Area_Type
  70
1
  66
1
  0
VERTEX
  8
Unknown_Area_Type
  10
290679.094
  20
4634343.937
  0
VERTEX
  8
Unknown_Area_Type
  10
290679.122
  20
4634343.936
  0
VERTEX
  8
Unknown_Area_Type
  10
290679.094
  20
4634342.977
  0
VERTEX
  8
Unknown_Area_Type
  10
290679.094
  20
4634343.937
  0
SEQEND
  8
Unknown_Area_Type
  0
INSERT
  8
FeatureAttribs
  2
FEATURE
  41
1
  42
1
  43
1
  50
0
  10
291915.192
  20
4633964.430
 66
1
  0
ATTRIB
  8
FeatureAttribs
 70
0
  1
PNOA-H_AMS_1956-57_33k_ES_PAN_2
  2
NAME
  10
291915.192
  20
4633964.430
 40
34.11356
  0
SEQEND
  0
POLYLINE
  8
Unknown_Area_Type
  70
1
  66
1
  0
VERTEX
  8
Unknown_Area_Type
  10
293145.476
  20
4633584.923
  0
VERTEX
  8
Unknown_Area_Type
  10
290679.094
  20
4633584.923
  0
VERTEX
  8
Unknown_Area_Type
  10
290679.094
  20
4634342.977
  0
VERTEX
  8
Unknown_Area_Type
  10
290679.122
  20
4634343.936
  0
VERTEX
  8
Unknown_Area_Type
  10
293156.251
  20
4634271.801
  0
VERTEX
  8
Unknown_Area_Type
  10
293150.000
  20
4633884.500
  0
VERTEX
  8
Unknown_Area_Type
  10
293150.000
  20
4633864.000
  0
VERTEX
  8
Unknown_Area_Type
  10
293145.476
  20
4633584.923
  0
SEQEND
  8
Unknown_Area_Type
  0
INSERT
  8
FeatureAttribs
  2
FEATURE
  41
1
  42
1
  43
1
  50
0
  10
291960.788
  20
4635844.253
 66
1
  0
ATTRIB
  8
FeatureAttribs
 70
0
  1
PNOA-H_AMS_1956-57_33k_ES_PAN_2
  2
NAME
  10
291960.788
  20
4635844.253
 40
34.11356
  0
SEQEND
  0
POLYLINE
  8
Unknown_Area_Type
  70
1
  66
1
  0
VERTEX
  8
Unknown_Area_Type
  10
293156.251
  20
4634271.801
  0
VERTEX
  8
Unknown_Area_Type
  10
290679.122
  20
4634343.936
  0
VERTEX
  8
Unknown_Area_Type
  10
290747.062
  20
4636657.224
  0
VERTEX
  8
Unknown_Area_Type
  10
290767.782
  20
4637362.427
  0
VERTEX
  8
Unknown_Area_Type
  10
293207.000
  20
4637416.000
  0
VERTEX
  8
Unknown_Area_Type
  10
293156.251
  20
4634271.801
  0
SEQEND
  8
Unknown_Area_Type
  0
INSERT
  8
FeatureAttribs
  2
FEATURE
  41
1
  42
1
  43
1
  50
0
  10
291960.788
  20
4635844.253
 66
1
  0
ATTRIB
  8
FeatureAttribs
 70
0
  1
PNOA-H_AMS_1956-57_33k_ES_PAN_2
  2
NAME
  10
291960.788
  20
4635844.253
 40
34.11356
  0
SEQEND
  0
POLYLINE
  8
Unknown_Area_Type
  70
1
  66
1
  0
VERTEX
  8
Unknown_Area_Type
  10
293156.251
  20
4634271.801
  0
VERTEX
  8
Unknown_Area_Type
  10
293207.000
  20
4637416.000
  0
VERTEX
  8
Unknown_Area_Type
  10
290767.782
  20
4637362.427
  0
VERTEX
  8
Unknown_Area_Type
  10
290747.062
  20
4636657.224
  0
VERTEX
  8
Unknown_Area_Type
  10
290679.122
  20
4634343.936
  0
VERTEX
  8
Unknown_Area_Type
  10
293156.251
  20
4634271.801
  0
SEQEND
  8
Unknown_Area_Type
  0
INSERT
  8
FeatureAttribs
  2
FEATURE
  41
1
  42
1
  43
1
  50
0
  10
294533.156
  20
4633928.359
 66
1
  0
ATTRIB
  8
FeatureAttribs
 70
0
  1
PNOA-H_AMS_1956-57_33k_ES_PAN_2
  2
NAME
  10
294533.156
  20
4633928.359
 40
34.11356
  0
SEQEND
  0
POLYLINE
  8
Unknown_Area_Type
  70
1
  66
1
  0
VERTEX
  8
Unknown_Area_Type
  10
295916.975
  20
4633584.923
  0
VERTEX
  8
Unknown_Area_Type
  10
293145.445
  20
4633584.923
  0
VERTEX
  8
Unknown_Area_Type
  10
293156.481
  20
4634271.794
  0
VERTEX
  8
Unknown_Area_Type
  10
294139.215
  20
4634243.177
  0
VERTEX
  8
Unknown_Area_Type
  10
295914.099
  20
4634192.354
  0
VERTEX
  8
Unknown_Area_Type
  10
295916.975
  20
4633584.923
  0
SEQEND
  8
Unknown_Area_Type
  0
INSERT
  8
FeatureAttribs
  2
FEATURE
  41
1
  42
1
  43
1
  50
0
  10
294546.373
  20
4635811.954
 66
1
  0
ATTRIB
  8
FeatureAttribs
 70
0
  1
PNOA-H_AMS_1956-57_33k_ES_PAN_2
  2
NAME
  10
294546.373
  20
4635811.954
 40
34.11356
  0
SEQEND
  0
POLYLINE
  8
Unknown_Area_Type
  70
1
  66
1
  0
VERTEX
  8
Unknown_Area_Type
  10
295914.099
  20
4634192.354
  0
VERTEX
  8
Unknown_Area_Type
  10
294139.215
  20
4634243.177
  0
VERTEX
  8
Unknown_Area_Type
  10
293156.481
  20
4634271.794
  0
VERTEX
  8
Unknown_Area_Type
  10
293207.000
  20
4637416.000
  0
VERTEX
  8
Unknown_Area_Type
  10
293222.500
  20
4637428.000
  0
VERTEX
  8
Unknown_Area_Type
  10
293248.500
  20
4637428.000
  0
VERTEX
  8
Unknown_Area_Type
  10
294532.500
  20
4637405.000
  0
VERTEX
  8
Unknown_Area_Type
  10
294546.000
  20
4637405.000
  0
VERTEX
  8
Unknown_Area_Type
  10
295899.000
  20
4637381.500
  0
VERTEX
  8
Unknown_Area_Type
  10
295914.099
  20
4634192.354
  0
SEQEND
  8
Unknown_Area_Type
  0
INSERT
  8
FeatureAttribs
  2
FEATURE
  41
1
  42
1
  43
1
  50
0
  10
294546.373
  20
4635811.954
 66
1
  0
ATTRIB
  8
FeatureAttribs
 70
0
  1
PNOA-H_AMS_1956-57_33k_ES_PAN_2
  2
NAME
  10
294546.373
  20
4635811.954
 40
34.11356
  0
SEQEND
  0
POLYLINE
  8
Unknown_Area_Type
  70
1
  66
1
  0
VERTEX
  8
Unknown_Area_Type
  10
295914.099
  20
4634192.354
  0
VERTEX
  8
Unknown_Area_Type
  10
295899.000
  20
4637381.500
  0
VERTEX
  8
Unknown_Area_Type
  10
294546.000
  20
4637405.000
  0
VERTEX
  8
Unknown_Area_Type
  10
294532.500
  20
4637405.000
  0
VERTEX
  8
Unknown_Area_Type
  10
293248.500
  20
4637428.000
  0
VERTEX
  8
Unknown_Area_Type
  10
293222.500
  20
4637428.000
  0
VERTEX
  8
Unknown_Area_Type
  10
293207.000
  20
4637416.000
  0
VERTEX
  8
Unknown_Area_Type
  10
293156.481
  20
4634271.794
  0
VERTEX
  8
Unknown_Area_Type
  10
294139.215
  20
4634243.177
  0
VERTEX
  8
Unknown_Area_Type
  10
295914.099
  20
4634192.354
  0
SEQEND
  8
Unknown_Area_Type
  0
INSERT
  8
FeatureAttribs
  2
FEATURE
  41
1
  42
1
  43
1
  50
0
  10
310838.737
  20
4633700.706
 66
1
  0
ATTRIB
  8
FeatureAttribs
 70
0
  1
PNOA-H_AMS_1956-57_33k_ES_PAN_2
  2
NAME
  10
310838.737
  20
4633700.706
 40
34.11356
  0
SEQEND
  0
POLYLINE
  8
Unknown_Area_Type
  70
1
  66
1
  0
VERTEX
  8
Unknown_Area_Type
  10
312185.684
  20
4633584.923
  0
VERTEX
  8
Unknown_Area_Type
  10
309477.952
  20
4633584.923
  0
VERTEX
  8
Unknown_Area_Type
  10
309495.530
  20
4633816.489
  0
VERTEX
  8
Unknown_Area_Type
  10
311439.501
  20
4633764.603
  0
VERTEX
  8
Unknown_Area_Type
  10
312192.658
  20
4633744.866
  0
VERTEX
  8
Unknown_Area_Type
  10
312185.684
  20
4633584.923
  0
SEQEND
  8
Unknown_Area_Type
  0
INSERT
  8
FeatureAttribs
  2
FEATURE
  41
1
  42
1
  43
1
  50
0
  10
310927.643
  20
4635399.448
 66
1
  0
ATTRIB
  8
FeatureAttribs
 70
0
  1
PNOA-H_AMS_1956-57_33k_ES_PAN_2
  2
NAME
  10
310927.643
  20
4635399.448
 40
34.11356
  0
SEQEND
  0
POLYLINE
  8
Unknown_Area_Type
  70
1
  66
1
  0
VERTEX
  8
Unknown_Area_Type
  10
312192.658
  20
4633744.866
  0
VERTEX
  8
Unknown_Area_Type
  10
311439.501
  20
4633764.603
  0
VERTEX
  8
Unknown_Area_Type
  10
309495.530
  20
4633816.489
  0
VERTEX
  8
Unknown_Area_Type
  10
309742.500
  20
4637070.000
  0
VERTEX
  8
Unknown_Area_Type
  10
309926.000
  20
4637169.500
  0
VERTEX
  8
Unknown_Area_Type
  10
310925.500
  20
4637055.000
  0
VERTEX
  8
Unknown_Area_Type
  10
310930.000
  20
4637054.500
  0
VERTEX
  8
Unknown_Area_Type
  10
312330.000
  20
4636895.000
  0
VERTEX
  8
Unknown_Area_Type
  10
312192.658
  20
4633744.866
  0
SEQEND
  8
Unknown_Area_Type
  0
INSERT
  8
FeatureAttribs
  2
FEATURE
  41
1
  42
1
  43
1
  50
0
  10
310927.643
  20
4635399.448
 66
1
  0
ATTRIB
  8
FeatureAttribs
 70
0
  1
PNOA-H_AMS_1956-57_33k_ES_PAN_2
  2
NAME
  10
310927.643
  20
4635399.448
 40
34.11356
  0
SEQEND
  0
POLYLINE
  8
Unknown_Area_Type
  70
1
  66
1
  0
VERTEX
  8
Unknown_Area_Type
  10
312192.658
  20
4633744.866
  0
VERTEX
  8
Unknown_Area_Type
  10
312330.000
  20
4636895.000
  0
VERTEX
  8
Unknown_Area_Type
  10
310930.000
  20
4637054.500
  0
VERTEX
  8
Unknown_Area_Type
  10
310925.500
  20
4637055.000
  0
VERTEX
  8
Unknown_Area_Type
  10
309926.000
  20
4637169.500
  0
VERTEX
  8
Unknown_Area_Type
  10
309742.500
  20
4637070.000
  0
VERTEX
  8
Unknown_Area_Type
  10
309495.530
  20
4633816.489
  0
VERTEX
  8
Unknown_Area_Type
  10
311439.501
  20
4633764.603
  0
VERTEX
  8
Unknown_Area_Type
  10
312192.658
  20
4633744.866
  0
SEQEND
  8
Unknown_Area_Type
  0
INSERT
  8
FeatureAttribs
  2
FEATURE
  41
1
  42
1
  43
1
  50
0
  10
315797.115
  20
4633628.864
 66
1
  0
ATTRIB
  8
FeatureAttribs
 70
0
  1
PNOA-H_AMS_1956-57_33k_ES_PAN_2
  2
NAME
  10
315797.115
  20
4633628.864
 40
34.11356
  0
SEQEND
  0
POLYLINE
  8
Unknown_Area_Type
  70
1
  66
1
  0
VERTEX
  8
Unknown_Area_Type
  10
317619.534
  20
4633603.975
  0
VERTEX
  8
Unknown_Area_Type
  10
317618.885
  20
4633584.923
  0
VERTEX
  8
Unknown_Area_Type
  10
314941.530
  20
4633584.923
  0
VERTEX
  8
Unknown_Area_Type
  10
314943.323
  20
4633672.806
  0
VERTEX
  8
Unknown_Area_Type
  10
317619.534
  20
4633603.975
  0
SEQEND
  8
Unknown_Area_Type
  0
INSERT
  8
FeatureAttribs
  2
FEATURE
  41
1
  42
1
  43
1
  50
0
  10
316314.541
  20
4635269.542
 66
1
  0
ATTRIB
  8
FeatureAttribs
 70
0
  1
PNOA-H_AMS_1956-57_33k_ES_PAN_2
  2
NAME
  10
316314.541
  20
4635269.542
 40
34.11356
  0
SEQEND
  0
POLYLINE
  8
Unknown_Area_Type
  70
1
  66
1
  0
VERTEX
  8
Unknown_Area_Type
  10
317619.534
  20
4633603.975
  0
VERTEX
  8
Unknown_Area_Type
  10
314943.323
  20
4633672.806
  0
VERTEX
  8
Unknown_Area_Type
  10
315007.000
  20
4636794.000
  0
VERTEX
  8
Unknown_Area_Type
  10
315024.000
  20
4636802.500
  0
VERTEX
  8
Unknown_Area_Type
  10
315025.000
  20
4636803.000
  0
VERTEX
  8
Unknown_Area_Type
  10
315481.500
  20
4637033.000
  0
VERTEX
  8
Unknown_Area_Type
  10
315492.500
  20
4637038.500
  0
VERTEX
  8
Unknown_Area_Type
  10
315494.500
  20
4637038.500
  0
VERTEX
  8
Unknown_Area_Type
  10
317726.000
  20
4636729.000
  0
VERTEX
  8
Unknown_Area_Type
  10
317619.534
  20
4633603.975
  0
SEQEND
  8
Unknown_Area_Type
  0
INSERT
  8
FeatureAttribs
  2
FEATURE
  41
1
  42
1
  43
1
  50
0
  10
316314.541
  20
4635269.542
 66
1
  0
ATTRIB
  8
FeatureAttribs
 70
0
  1
PNOA-H_AMS_1956-57_33k_ES_PAN_2
  2
NAME
  10
316314.541
  20
4635269.542
 40
34.11356
  0
SEQEND
  0
POLYLINE
  8
Unknown_Area_Type
  70
1
  66
1
  0
VERTEX
  8
Unknown_Area_Type
  10
317619.534
  20
4633603.975
  0
VERTEX
  8
Unknown_Area_Type
  10
317726.000
  20
4636729.000
  0
VERTEX
  8
Unknown_Area_Type
  10
315494.500
  20
4637038.500
  0
VERTEX
  8
Unknown_Area_Type
  10
315492.500
  20
4637038.500
  0
VERTEX
  8
Unknown_Area_Type
  10
315481.500
  20
4637033.000
  0
VERTEX
  8
Unknown_Area_Type
  10
315025.000
  20
4636803.000
  0
VERTEX
  8
Unknown_Area_Type
  10
315024.000
  20
4636802.500
  0
VERTEX
  8
Unknown_Area_Type
  10
315007.000
  20
4636794.000
  0
VERTEX
  8
Unknown_Area_Type
  10
314943.323
  20
4633672.806
  0
VERTEX
  8
Unknown_Area_Type
  10
317619.534
  20
4633603.975
  0
SEQEND
  8
Unknown_Area_Type
  0
INSERT
  8
FeatureAttribs
  2
FEATURE
  41
1
  42
1
  43
1
  50
0
  10
299984.102
  20
4633849.973
 66
1
  0
ATTRIB
  8
FeatureAttribs
 70
0
  1
PNOA-H_AMS_1956-57_33k_ES_PAN_2
  2
NAME
  10
299984.102
  20
4633849.973
 40
34.11356
  0
SEQEND
  0
POLYLINE
  8
Unknown_Area_Type
  70
1
  66
1
  0
VERTEX
  8
Unknown_Area_Type
  10
301329.212
  20
4633584.923
  0
VERTEX
  8
Unknown_Area_Type
  10
298610.832
  20
4633584.923
  0
VERTEX
  8
Unknown_Area_Type
  10
298632.221
  20
4634115.023
  0
VERTEX
  8
Unknown_Area_Type
  10
301059.364
  20
4634046.703
  0
VERTEX
  8
Unknown_Area_Type
  10
301359.094
  20
4634038.411
  0
VERTEX
  8
Unknown_Area_Type
  10
301329.212
  20
4633584.923
  0
SEQEND
  8
Unknown_Area_Type
  0
INSERT
  8
FeatureAttribs
  2
FEATURE
  41
1
  42
1
  43
1
  50
0
  10
300092.411
  20
4635758.654
 66
1
  0
ATTRIB
  8
FeatureAttribs
 70
0
  1
PNOA-H_AMS_1956-57_33k_ES_PAN_2
  2
NAME
  10
300092.411
  20
4635758.654
 40
34.11356
  0
SEQEND
  0
POLYLINE
  8
Unknown_Area_Type
  70
1
  66
1
  0
VERTEX
  8
Unknown_Area_Type
  10
301359.094
  20
4634038.411
  0
VERTEX
  8
Unknown_Area_Type
  10
301059.364
  20
4634046.703
  0
VERTEX
  8
Unknown_Area_Type
  10
298632.221
  20
4634115.023
  0
VERTEX
  8
Unknown_Area_Type
  10
298641.500
  20
4634345.000
  0
VERTEX
  8
Unknown_Area_Type
  10
298641.500
  20
4634357.500
  0
VERTEX
  8
Unknown_Area_Type
  10
298763.500
  20
4637403.500
  0
VERTEX
  8
Unknown_Area_Type
  10
301452.000
  20
4637445.500
  0
VERTEX
  8
Unknown_Area_Type
  10
301577.500
  20
4637353.000
  0
VERTEX
  8
Unknown_Area_Type
  10
301359.094
  20
4634038.411
  0
SEQEND
  8
Unknown_Area_Type
  0
INSERT
  8
FeatureAttribs
  2
FEATURE
  41
1
  42
1
  43
1
  50
0
  10
300092.411
  20
4635758.654
 66
1
  0
ATTRIB
  8
FeatureAttribs
 70
0
  1
PNOA-H_AMS_1956-57_33k_ES_PAN_2
  2
NAME
  10
300092.411
  20
4635758.654
 40
34.11356
  0
SEQEND
  0
POLYLINE
  8
Unknown_Area_Type
  70
1
  66
1
  0
VERTEX
  8
Unknown_Area_Type
  10
301359.094
  20
4634038.411
  0
VERTEX
  8
Unknown_Area_Type
  10
301577.500
  20
4637353.000
  0
VERTEX
  8
Unknown_Area_Type
  10
301452.000
  20
4637445.500
  0
VERTEX
  8
Unknown_Area_Type
  10
298763.500
  20
4637403.500
  0
VERTEX
  8
Unknown_Area_Type
  10
298641.500
  20
4634357.500
  0
VERTEX
  8
Unknown_Area_Type
  10
298641.500
  20
4634345.000
  0
VERTEX
  8
Unknown_Area_Type
  10
298632.221
  20
4634115.023
  0
VERTEX
  8
Unknown_Area_Type
  10
301059.364
  20
4634046.703
  0
VERTEX
  8
Unknown_Area_Type
  10
301359.094
  20
4634038.411
  0
SEQEND
  8
Unknown_Area_Type
  0
INSERT
  8
FeatureAttribs
  2
FEATURE
  41
1
  42
1
  43
1
  50
0
  10
297269.204
  20
4633888.638
 66
1
  0
ATTRIB
  8
FeatureAttribs
 70
0
  1
PNOA-H_AMS_1956-57_33k_ES_PAN_2
  2
NAME
  10
297269.204
  20
4633888.638
 40
34.11356
  0
SEQEND
  0
POLYLINE
  8
Unknown_Area_Type
  70
1
  66
1
  0
VERTEX
  8
Unknown_Area_Type
  10
298610.720
  20
4633584.923
  0
VERTEX
  8
Unknown_Area_Type
  10
295916.975
  20
4633584.923
  0
VERTEX
  8
Unknown_Area_Type
  10
295914.099
  20
4634192.354
  0
VERTEX
  8
Unknown_Area_Type
  10
297599.295
  20
4634144.099
  0
VERTEX
  8
Unknown_Area_Type
  10
298631.930
  20
4634115.032
  0
VERTEX
  8
Unknown_Area_Type
  10
298610.720
  20
4633584.923
  0
SEQEND
  8
Unknown_Area_Type
  0
INSERT
  8
FeatureAttribs
  2
FEATURE
  41
1
  42
1
  43
1
  50
0
  10
297309.706
  20
4635815.787
 66
1
  0
ATTRIB
  8
FeatureAttribs
 70
0
  1
PNOA-H_AMS_1956-57_33k_ES_PAN_2
  2
NAME
  10
297309.706
  20
4635815.787
 40
34.11356
  0
SEQEND
  0
POLYLINE
  8
Unknown_Area_Type
  70
1
  66
1
  0
VERTEX
  8
Unknown_Area_Type
  10
298631.930
  20
4634115.032
  0
VERTEX
  8
Unknown_Area_Type
  10
297599.295
  20
4634144.099
  0
VERTEX
  8
Unknown_Area_Type
  10
295914.099
  20
4634192.354
  0
VERTEX
  8
Unknown_Area_Type
  10
295899.000
  20
4637381.500
  0
VERTEX
  8
Unknown_Area_Type
  10
295972.500
  20
4637438.500
  0
VERTEX
  8
Unknown_Area_Type
  10
295979.500
  20
4637442.500
  0
VERTEX
  8
Unknown_Area_Type
  10
296465.500
  20
4637445.500
  0
VERTEX
  8
Unknown_Area_Type
  10
296546.500
  20
4637446.000
  0
VERTEX
  8
Unknown_Area_Type
  10
298688.000
  20
4637459.000
  0
VERTEX
  8
Unknown_Area_Type
  10
298763.500
  20
4637403.500
  0
VERTEX
  8
Unknown_Area_Type
  10
298631.930
  20
4634115.032
  0
SEQEND
  8
Unknown_Area_Type
  0
INSERT
  8
FeatureAttribs
  2
FEATURE
  41
1
  42
1
  43
1
  50
0
  10
297309.706
  20
4635815.787
 66
1
  0
ATTRIB
  8
FeatureAttribs
 70
0
  1
PNOA-H_AMS_1956-57_33k_ES_PAN_2
  2
NAME
  10
297309.706
  20
4635815.787
 40
34.11356
  0
SEQEND
  0
POLYLINE
  8
Unknown_Area_Type
  70
1
  66
1
  0
VERTEX
  8
Unknown_Area_Type
  10
298631.930
  20
4634115.032
  0
VERTEX
  8
Unknown_Area_Type
  10
298763.500
  20
4637403.500
  0
VERTEX
  8
Unknown_Area_Type
  10
298688.000
  20
4637459.000
  0
VERTEX
  8
Unknown_Area_Type
  10
296546.500
  20
4637446.000
  0
VERTEX
  8
Unknown_Area_Type
  10
296465.500
  20
4637445.500
  0
VERTEX
  8
Unknown_Area_Type
  10
295979.500
  20
4637442.500
  0
VERTEX
  8
Unknown_Area_Type
  10
295972.500
  20
4637438.500
  0
VERTEX
  8
Unknown_Area_Type
  10
295899.000
  20
4637381.500
  0
VERTEX
  8
Unknown_Area_Type
  10
295914.099
  20
4634192.354
  0
VERTEX
  8
Unknown_Area_Type
  10
297599.295
  20
4634144.099
  0
VERTEX
  8
Unknown_Area_Type
  10
298631.930
  20
4634115.032
  0
SEQEND
  8
Unknown_Area_Type
  0
INSERT
  8
FeatureAttribs
  2
FEATURE
  41
1
  42
1
  43
1
  50
0
  10
305490.045
  20
4633773.484
 66
1
  0
ATTRIB
  8
FeatureAttribs
 70
0
  1
PNOA-H_AMS_1956-57_33k_ES_PAN_2
  2
NAME
  10
305490.045
  20
4633773.484
 40
34.11356
  0
SEQEND
  0
POLYLINE
  8
Unknown_Area_Type
  70
1
  66
1
  0
VERTEX
  8
Unknown_Area_Type
  10
306862.583
  20
4633584.923
  0
VERTEX
  8
Unknown_Area_Type
  10
304098.614
  20
4633584.923
  0
VERTEX
  8
Unknown_Area_Type
  10
304119.718
  20
4633962.045
  0
VERTEX
  8
Unknown_Area_Type
  10
304519.421
  20
4633950.988
  0
VERTEX
  8
Unknown_Area_Type
  10
306875.943
  20
4633886.945
  0
VERTEX
  8
Unknown_Area_Type
  10
306862.583
  20
4633584.923
  0
SEQEND
  8
Unknown_Area_Type
  0
INSERT
  8
FeatureAttribs
  2
FEATURE
  41
1
  42
1
  43
1
  50
0
  10
305578.622
  20
4635571.996
 66
1
  0
ATTRIB
  8
FeatureAttribs
 70
0
  1
PNOA-H_AMS_1956-57_33k_ES_PAN_2
  2
NAME
  10
305578.622
  20
4635571.996
 40
34.11356
  0
SEQEND
  0
POLYLINE
  8
Unknown_Area_Type
  70
1
  66
1
  0
VERTEX
  8
Unknown_Area_Type
  10
306875.943
  20
4633886.945
  0
VERTEX
  8
Unknown_Area_Type
  10
304519.421
  20
4633950.988
  0
VERTEX
  8
Unknown_Area_Type
  10
304119.718
  20
4633962.045
  0
VERTEX
  8
Unknown_Area_Type
  10
304305.000
  20
4637273.000
  0
VERTEX
  8
Unknown_Area_Type
  10
304305.000
  20
4637277.000
  0
VERTEX
  8
Unknown_Area_Type
  10
307021.500
  20
4637177.500
  0
VERTEX
  8
Unknown_Area_Type
  10
306875.943
  20
4633886.945
  0
SEQEND
  8
Unknown_Area_Type
  0
INSERT
  8
FeatureAttribs
  2
FEATURE
  41
1
  42
1
  43
1
  50
0
  10
305578.622
  20
4635571.996
 66
1
  0
ATTRIB
  8
FeatureAttribs
 70
0
  1
PNOA-H_AMS_1956-57_33k_ES_PAN_2
  2
NAME
  10
305578.622
  20
4635571.996
 40
34.11356
  0
SEQEND
  0
POLYLINE
  8
Unknown_Area_Type
  70
1
  66
1
  0
VERTEX
  8
Unknown_Area_Type
  10
306875.943
  20
4633886.945
  0
VERTEX
  8
Unknown_Area_Type
  10
307021.500
  20
4637177.500
  0
VERTEX
  8
Unknown_Area_Type
  10
304305.000
  20
4637277.000
  0
VERTEX
  8
Unknown_Area_Type
  10
304305.000
  20
4637273.000
  0
VERTEX
  8
Unknown_Area_Type
  10
304119.718
  20
4633962.045
  0
VERTEX
  8
Unknown_Area_Type
  10
304519.421
  20
4633950.988
  0
VERTEX
  8
Unknown_Area_Type
  10
306875.943
  20
4633886.945
  0
SEQEND
  8
Unknown_Area_Type
  0
INSERT
  8
FeatureAttribs
  2
FEATURE
  41
1
  42
1
  43
1
  50
0
  10
316909.551
  20
4638927.710
 66
1
  0
ATTRIB
  8
FeatureAttribs
 70
0
  1
PNOA-H_AMS_1956-57_33k_ES_PAN_2
  2
NAME
  10
316909.551
  20
4638927.710
 40
34.11356
  0
SEQEND
  0
POLYLINE
  8
Unknown_Area_Type
  70
1
  66
1
  0
VERTEX
  8
Unknown_Area_Type
  10
315519.500
  20
4640779.000
  0
VERTEX
  8
Unknown_Area_Type
  10
317205.500
  20
4641210.000
  0
VERTEX
  8
Unknown_Area_Type
  10
317207.500
  20
4641210.500
  0
VERTEX
  8
Unknown_Area_Type
  10
317210.500
  20
4641210.000
  0
VERTEX
  8
Unknown_Area_Type
  10
318277.000
  20
4640725.000
  0
VERTEX
  8
Unknown_Area_Type
  10
318290.000
  20
4636993.500
  0
VERTEX
  8
Unknown_Area_Type
  10
317726.000
  20
4636729.000
  0
VERTEX
  8
Unknown_Area_Type
  10
315493.000
  20
4637038.500
  0
VERTEX
  8
Unknown_Area_Type
  10
315519.500
  20
4640779.000
  0
SEQEND
  8
Unknown_Area_Type
  0
INSERT
  8
FeatureAttribs
  2
FEATURE
  41
1
  42
1
  43
1
  50
0
  10
316909.551
  20
4638927.710
 66
1
  0
ATTRIB
  8
FeatureAttribs
 70
0
  1
PNOA-H_AMS_1956-57_33k_ES_PAN_2
  2
NAME
  10
316909.551
  20
4638927.710
 40
34.11356
  0
SEQEND
  0
POLYLINE
  8
Unknown_Area_Type
  70
1
  66
1
  0
VERTEX
  8
Unknown_Area_Type
  10
315519.500
  20
4640779.000
  0
VERTEX
  8
Unknown_Area_Type
  10
315493.000
  20
4637038.500
  0
VERTEX
  8
Unknown_Area_Type
  10
317726.000
  20
4636729.000
  0
VERTEX
  8
Unknown_Area_Type
  10
318290.000
  20
4636993.500
  0
VERTEX
  8
Unknown_Area_Type
  10
318277.000
  20
4640725.000
  0
VERTEX
  8
Unknown_Area_Type
  10
317210.500
  20
4641210.000
  0
VERTEX
  8
Unknown_Area_Type
  10
317207.500
  20
4641210.500
  0
VERTEX
  8
Unknown_Area_Type
  10
317205.500
  20
4641210.000
  0
VERTEX
  8
Unknown_Area_Type
  10
315519.500
  20
4640779.000
  0
SEQEND
  8
Unknown_Area_Type
  0
INSERT
  8
FeatureAttribs
  2
FEATURE
  41
1
  42
1
  43
1
  50
0
  10
311336.203
  20
4639131.641
 66
1
  0
ATTRIB
  8
FeatureAttribs
 70
0
  1
PNOA-H_AMS_1956-57_33k_ES_PAN_2
  2
NAME
  10
311336.203
  20
4639131.641
 40
34.11356
  0
SEQEND
  0
POLYLINE
  8
Unknown_Area_Type
  70
1
  66
1
  0
VERTEX
  8
Unknown_Area_Type
  10
311542.500
  20
4641438.000
  0
VERTEX
  8
Unknown_Area_Type
  10
311549.000
  20
4641436.500
  0
VERTEX
  8
Unknown_Area_Type
  10
312794.000
  20
4640887.500
  0
VERTEX
  8
Unknown_Area_Type
  10
312645.000
  20
4637059.000
  0
VERTEX
  8
Unknown_Area_Type
  10
312644.500
  20
4637056.000
  0
VERTEX
  8
Unknown_Area_Type
  10
312635.000
  20
4637051.000
  0
VERTEX
  8
Unknown_Area_Type
  10
312330.500
  20
4636895.000
  0
VERTEX
  8
Unknown_Area_Type
  10
309925.000
  20
4637169.500
  0
VERTEX
  8
Unknown_Area_Type
  10
309929.000
  20
4641002.000
  0
VERTEX
  8
Unknown_Area_Type
  10
311540.500
  20
4641437.500
  0
VERTEX
  8
Unknown_Area_Type
  10
311542.500
  20
4641438.000
  0
SEQEND
  8
Unknown_Area_Type
  0
INSERT
  8
FeatureAttribs
  2
FEATURE
  41
1
  42
1
  43
1
  50
0
  10
311336.203
  20
4639131.641
 66
1
  0
ATTRIB
  8
FeatureAttribs
 70
0
  1
PNOA-H_AMS_1956-57_33k_ES_PAN_2
  2
NAME
  10
311336.203
  20
4639131.641
 40
34.11356
  0
SEQEND
  0
POLYLINE
  8
Unknown_Area_Type
  70
1
  66
1
  0
VERTEX
  8
Unknown_Area_Type
  10
311542.500
  20
4641438.000
  0
VERTEX
  8
Unknown_Area_Type
  10
311540.500
  20
4641437.500
  0
VERTEX
  8
Unknown_Area_Type
  10
309929.000
  20
4641002.000
  0
VERTEX
  8
Unknown_Area_Type
  10
309925.000
  20
4637169.500
  0
VERTEX
  8
Unknown_Area_Type
  10
312330.500
  20
4636895.000
  0
VERTEX
  8
Unknown_Area_Type
  10
312635.000
  20
4637051.000
  0
VERTEX
  8
Unknown_Area_Type
  10
312644.500
  20
4637056.000
  0
VERTEX
  8
Unknown_Area_Type
  10
312645.000
  20
4637059.000
  0
VERTEX
  8
Unknown_Area_Type
  10
312794.000
  20
4640887.500
  0
VERTEX
  8
Unknown_Area_Type
  10
311549.000
  20
4641436.500
  0
VERTEX
  8
Unknown_Area_Type
  10
311542.500
  20
4641438.000
  0
SEQEND
  8
Unknown_Area_Type
  0
INSERT
  8
FeatureAttribs
  2
FEATURE
  41
1
  42
1
  43
1
  50
0
  10
308518.863
  20
4639201.381
 66
1
  0
ATTRIB
  8
FeatureAttribs
 70
0
  1
PNOA-H_AMS_1956-57_33k_ES_PAN_2
  2
NAME
  10
308518.863
  20
4639201.381
 40
34.11356
  0
SEQEND
  0
POLYLINE
  8
Unknown_Area_Type
  70
1
  66
1
  0
VERTEX
  8
Unknown_Area_Type
  10
308882.000
  20
4641447.500
  0
VERTEX
  8
Unknown_Area_Type
  10
309929.000
  20
4641002.000
  0
VERTEX
  8
Unknown_Area_Type
  10
309925.000
  20
4637169.000
  0
VERTEX
  8
Unknown_Area_Type
  10
309744.500
  20
4637070.500
  0
VERTEX
  8
Unknown_Area_Type
  10
309735.000
  20
4637070.000
  0
VERTEX
  8
Unknown_Area_Type
  10
307054.000
  20
4637197.000
  0
VERTEX
  8
Unknown_Area_Type
  10
307053.500
  20
4637207.500
  0
VERTEX
  8
Unknown_Area_Type
  10
307149.500
  20
4641112.000
  0
VERTEX
  8
Unknown_Area_Type
  10
308719.000
  20
4641516.000
  0
VERTEX
  8
Unknown_Area_Type
  10
308727.000
  20
4641514.000
  0
VERTEX
  8
Unknown_Area_Type
  10
308880.500
  20
4641448.000
  0
VERTEX
  8
Unknown_Area_Type
  10
308882.000
  20
4641447.500
  0
SEQEND
  8
Unknown_Area_Type
  0
INSERT
  8
FeatureAttribs
  2
FEATURE
  41
1
  42
1
  43
1
  50
0
  10
308518.863
  20
4639201.381
 66
1
  0
ATTRIB
  8
FeatureAttribs
 70
0
  1
PNOA-H_AMS_1956-57_33k_ES_PAN_2
  2
NAME
  10
308518.863
  20
4639201.381
 40
34.11356
  0
SEQEND
  0
POLYLINE
  8
Unknown_Area_Type
  70
1
  66
1
  0
VERTEX
  8
Unknown_Area_Type
  10
308882.000
  20
4641447.500
  0
VERTEX
  8
Unknown_Area_Type
  10
308880.500
  20
4641448.000
  0
VERTEX
  8
Unknown_Area_Type
  10
308727.000
  20
4641514.000
  0
VERTEX
  8
Unknown_Area_Type
  10
308719.000
  20
4641516.000
  0
VERTEX
  8
Unknown_Area_Type
  10
307149.500
  20
4641112.000
  0
VERTEX
  8
Unknown_Area_Type
  10
307053.500
  20
4637207.500
  0
VERTEX
  8
Unknown_Area_Type
  10
307054.000
  20
4637197.000
  0
VERTEX
  8
Unknown_Area_Type
  10
309735.000
  20
4637070.000
  0
VERTEX
  8
Unknown_Area_Type
  10
309744.500
  20
4637070.500
  0
VERTEX
  8
Unknown_Area_Type
  10
309925.000
  20
4637169.000
  0
VERTEX
  8
Unknown_Area_Type
  10
309929.000
  20
4641002.000
  0
VERTEX
  8
Unknown_Area_Type
  10
308882.000
  20
4641447.500
  0
SEQEND
  8
Unknown_Area_Type
  0
INSERT
  8
FeatureAttribs
  2
FEATURE
  41
1
  42
1
  43
1
  50
0
  10
302865.711
  20
4639449.975
 66
1
  0
ATTRIB
  8
FeatureAttribs
 70
0
  1
PNOA-H_AMS_1956-57_33k_ES_PAN_2
  2
NAME
  10
302865.711
  20
4639449.975
 40
34.11356
  0
SEQEND
  0
POLYLINE
  8
Unknown_Area_Type
  70
1
  66
1
  0
VERTEX
  8
Unknown_Area_Type
  10
303128.500
  20
4641747.000
  0
VERTEX
  8
Unknown_Area_Type
  10
303137.000
  20
4641744.500
  0
VERTEX
  8
Unknown_Area_Type
  10
304336.000
  20
4641239.000
  0
VERTEX
  8
Unknown_Area_Type
  10
304234.500
  20
4637328.500
  0
VERTEX
  8
Unknown_Area_Type
  10
301577.000
  20
4637353.000
  0
VERTEX
  8
Unknown_Area_Type
  10
301451.500
  20
4637445.500
  0
VERTEX
  8
Unknown_Area_Type
  10
301428.000
  20
4641330.500
  0
VERTEX
  8
Unknown_Area_Type
  10
303126.500
  20
4641746.500
  0
VERTEX
  8
Unknown_Area_Type
  10
303128.500
  20
4641747.000
  0
SEQEND
  8
Unknown_Area_Type
  0
INSERT
  8
FeatureAttribs
  2
FEATURE
  41
1
  42
1
  43
1
  50
0
  10
302865.711
  20
4639449.975
 66
1
  0
ATTRIB
  8
FeatureAttribs
 70
0
  1
PNOA-H_AMS_1956-57_33k_ES_PAN_2
  2
NAME
  10
302865.711
  20
4639449.975
 40
34.11356
  0
SEQEND
  0
POLYLINE
  8
Unknown_Area_Type
  70
1
  66
1
  0
VERTEX
  8
Unknown_Area_Type
  10
303128.500
  20
4641747.000
  0
VERTEX
  8
Unknown_Area_Type
  10
303126.500
  20
4641746.500
  0
VERTEX
  8
Unknown_Area_Type
  10
301428.000
  20
4641330.500
  0
VERTEX
  8
Unknown_Area_Type
  10
301451.500
  20
4637445.500
  0
VERTEX
  8
Unknown_Area_Type
  10
301577.000
  20
4637353.000
  0
VERTEX
  8
Unknown_Area_Type
  10
304234.500
  20
4637328.500
  0
VERTEX
  8
Unknown_Area_Type
  10
304336.000
  20
4641239.000
  0
VERTEX
  8
Unknown_Area_Type
  10
303137.000
  20
4641744.500
  0
VERTEX
  8
Unknown_Area_Type
  10
303128.500
  20
4641747.000
  0
SEQEND
  8
Unknown_Area_Type
  0
INSERT
  8
FeatureAttribs
  2
FEATURE
  41
1
  42
1
  43
1
  50
0
  10
314122.557
  20
4638983.609
 66
1
  0
ATTRIB
  8
FeatureAttribs
 70
0
  1
PNOA-H_AMS_1956-57_33k_ES_PAN_2
  2
NAME
  10
314122.557
  20
4638983.609
 40
34.11356
  0
SEQEND
  0
POLYLINE
  8
Unknown_Area_Type
  70
1
  66
1
  0
VERTEX
  8
Unknown_Area_Type
  10
312977.000
  20
4640935.000
  0
VERTEX
  8
Unknown_Area_Type
  10
314395.000
  20
4641299.500
  0
VERTEX
  8
Unknown_Area_Type
  10
314408.000
  20
4641302.000
  0
VERTEX
  8
Unknown_Area_Type
  10
315519.500
  20
4640779.500
  0
VERTEX
  8
Unknown_Area_Type
  10
315493.000
  20
4637038.500
  0
VERTEX
  8
Unknown_Area_Type
  10
315008.000
  20
4636794.000
  0
VERTEX
  8
Unknown_Area_Type
  10
312644.500
  20
4637056.500
  0
VERTEX
  8
Unknown_Area_Type
  10
312793.500
  20
4640883.500
  0
VERTEX
  8
Unknown_Area_Type
  10
312794.000
  20
4640887.500
  0
VERTEX
  8
Unknown_Area_Type
  10
312798.000
  20
4640889.000
  0
VERTEX
  8
Unknown_Area_Type
  10
312975.000
  20
4640934.500
  0
VERTEX
  8
Unknown_Area_Type
  10
312977.000
  20
4640935.000
  0
SEQEND
  8
Unknown_Area_Type
  0
INSERT
  8
FeatureAttribs
  2
FEATURE
  41
1
  42
1
  43
1
  50
0
  10
314122.557
  20
4638983.609
 66
1
  0
ATTRIB
  8
FeatureAttribs
 70
0
  1
PNOA-H_AMS_1956-57_33k_ES_PAN_2
  2
NAME
  10
314122.557
  20
4638983.609
 40
34.11356
  0
SEQEND
  0
POLYLINE
  8
Unknown_Area_Type
  70
1
  66
1
  0
VERTEX
  8
Unknown_Area_Type
  10
312977.000
  20
4640935.000
  0
VERTEX
  8
Unknown_Area_Type
  10
312975.000
  20
4640934.500
  0
VERTEX
  8
Unknown_Area_Type
  10
312798.000
  20
4640889.000
  0
VERTEX
  8
Unknown_Area_Type
  10
312794.000
  20
4640887.500
  0
VERTEX
  8
Unknown_Area_Type
  10
312793.500
  20
4640883.500
  0
VERTEX
  8
Unknown_Area_Type
  10
312644.500
  20
4637056.500
  0
VERTEX
  8
Unknown_Area_Type
  10
315008.000
  20
4636794.000
  0
VERTEX
  8
Unknown_Area_Type
  10
315493.000
  20
4637038.500
  0
VERTEX
  8
Unknown_Area_Type
  10
315519.500
  20
4640779.500
  0
VERTEX
  8
Unknown_Area_Type
  10
314408.000
  20
4641302.000
  0
VERTEX
  8
Unknown_Area_Type
  10
314395.000
  20
4641299.500
  0
VERTEX
  8
Unknown_Area_Type
  10
312977.000
  20
4640935.000
  0
SEQEND
  8
Unknown_Area_Type
  0
INSERT
  8
FeatureAttribs
  2
FEATURE
  41
1
  42
1
  43
1
  50
0
  10
300039.738
  20
4639516.583
 66
1
  0
ATTRIB
  8
FeatureAttribs
 70
0
  1
PNOA-H_AMS_1956-57_33k_ES_PAN_2
  2
NAME
  10
300039.738
  20
4639516.583
 40
34.11356
  0
SEQEND
  0
POLYLINE
  8
Unknown_Area_Type
  70
1
  66
1
  0
VERTEX
  8
Unknown_Area_Type
  10
298640.000
  20
4641413.500
  0
VERTEX
  8
Unknown_Area_Type
  10
300220.000
  20
4641800.000
  0
VERTEX
  8
Unknown_Area_Type
  10
300242.000
  20
4641804.500
  0
VERTEX
  8
Unknown_Area_Type
  10
301428.000
  20
4641330.500
  0
VERTEX
  8
Unknown_Area_Type
  10
301451.500
  20
4637445.500
  0
VERTEX
  8
Unknown_Area_Type
  10
298763.000
  20
4637403.500
  0
VERTEX
  8
Unknown_Area_Type
  10
298688.000
  20
4637458.500
  0
VERTEX
  8
Unknown_Area_Type
  10
298606.000
  20
4641387.000
  0
VERTEX
  8
Unknown_Area_Type
  10
298606.000
  20
4641405.000
  0
VERTEX
  8
Unknown_Area_Type
  10
298638.000
  20
4641413.000
  0
VERTEX
  8
Unknown_Area_Type
  10
298640.000
  20
4641413.500
  0
SEQEND
  8
Unknown_Area_Type
  0
INSERT
  8
FeatureAttribs
  2
FEATURE
  41
1
  42
1
  43
1
  50
0
  10
300039.738
  20
4639516.583
 66
1
  0
ATTRIB
  8
FeatureAttribs
 70
0
  1
PNOA-H_AMS_1956-57_33k_ES_PAN_2
  2
NAME
  10
300039.738
  20
4639516.583
 40
34.11356
  0
SEQEND
  0
POLYLINE
  8
Unknown_Area_Type
  70
1
  66
1
  0
VERTEX
  8
Unknown_Area_Type
  10
298640.000
  20
4641413.500
  0
VERTEX
  8
Unknown_Area_Type
  10
298638.000
  20
4641413.000
  0
VERTEX
  8
Unknown_Area_Type
  10
298606.000
  20
4641405.000
  0
VERTEX
  8
Unknown_Area_Type
  10
298606.000
  20
4641387.000
  0
VERTEX
  8
Unknown_Area_Type
  10
298688.000
  20
4637458.500
  0
VERTEX
  8
Unknown_Area_Type
  10
298763.000
  20
4637403.500
  0
VERTEX
  8
Unknown_Area_Type
  10
301451.500
  20
4637445.500
  0
VERTEX
  8
Unknown_Area_Type
  10
301428.000
  20
4641330.500
  0
VERTEX
  8
Unknown_Area_Type
  10
300242.000
  20
4641804.500
  0
VERTEX
  8
Unknown_Area_Type
  10
300220.000
  20
4641800.000
  0
VERTEX
  8
Unknown_Area_Type
  10
298640.000
  20
4641413.500
  0
SEQEND
  8
Unknown_Area_Type
  0
INSERT
  8
FeatureAttribs
  2
FEATURE
  41
1
  42
1
  43
1
  50
0
  10
305697.631
  20
4639314.755
 66
1
  0
ATTRIB
  8
FeatureAttribs
 70
0
  1
PNOA-H_AMS_1956-57_33k_ES_PAN_2
  2
NAME
  10
305697.631
  20
4639314.755
 40
34.11356
  0
SEQEND
  0
POLYLINE
  8
Unknown_Area_Type
  70
1
  66
1
  0
VERTEX
  8
Unknown_Area_Type
  10
304785.000
  20
4641345.500
  0
VERTEX
  8
Unknown_Area_Type
  10
305923.000
  20
4641614.000
  0
VERTEX
  8
Unknown_Area_Type
  10
307149.500
  20
4641112.000
  0
VERTEX
  8
Unknown_Area_Type
  10
307054.000
  20
4637207.500
  0
VERTEX
  8
Unknown_Area_Type
  10
307053.500
  20
4637197.000
  0
VERTEX
  8
Unknown_Area_Type
  10
307022.000
  20
4637177.500
  0
VERTEX
  8
Unknown_Area_Type
  10
304309.000
  20
4637276.500
  0
VERTEX
  8
Unknown_Area_Type
  10
304303.000
  20
4637278.000
  0
VERTEX
  8
Unknown_Area_Type
  10
304234.500
  20
4637328.500
  0
VERTEX
  8
Unknown_Area_Type
  10
304336.000
  20
4641239.000
  0
VERTEX
  8
Unknown_Area_Type
  10
304782.500
  20
4641345.000
  0
VERTEX
  8
Unknown_Area_Type
  10
304785.000
  20
4641345.500
  0
SEQEND
  8
Unknown_Area_Type
  0
INSERT
  8
FeatureAttribs
  2
FEATURE
  41
1
  42
1
  43
1
  50
0
  10
305697.631
  20
4639314.755
 66
1
  0
ATTRIB
  8
FeatureAttribs
 70
0
  1
PNOA-H_AMS_1956-57_33k_ES_PAN_2
  2
NAME
  10
305697.631
  20
4639314.755
 40
34.11356
  0
SEQEND
  0
POLYLINE
  8
Unknown_Area_Type
  70
1
  66
1
  0
VERTEX
  8
Unknown_Area_Type
  10
304785.000
  20
4641345.500
  0
VERTEX
  8
Unknown_Area_Type
  10
304782.500
  20
4641345.000
  0
VERTEX
  8
Unknown_Area_Type
  10
304336.000
  20
4641239.000
  0
VERTEX
  8
Unknown_Area_Type
  10
304234.500
  20
4637328.500
  0
VERTEX
  8
Unknown_Area_Type
  10
304303.000
  20
4637278.000
  0
VERTEX
  8
Unknown_Area_Type
  10
304309.000
  20
4637276.500
  0
VERTEX
  8
Unknown_Area_Type
  10
307022.000
  20
4637177.500
  0
VERTEX
  8
Unknown_Area_Type
  10
307053.500
  20
4637197.000
  0
VERTEX
  8
Unknown_Area_Type
  10
307054.000
  20
4637207.500
  0
VERTEX
  8
Unknown_Area_Type
  10
307149.500
  20
4641112.000
  0
VERTEX
  8
Unknown_Area_Type
  10
305923.000
  20
4641614.000
  0
VERTEX
  8
Unknown_Area_Type
  10
304785.000
  20
4641345.500
  0
SEQEND
  8
Unknown_Area_Type
  0
INSERT
  8
FeatureAttribs
  2
FEATURE
  41
1
  42
1
  43
1
  50
0
  10
294543.317
  20
4639514.843
 66
1
  0
ATTRIB
  8
FeatureAttribs
 70
0
  1
PNOA-H_AMS_1956-57_33k_ES_PAN_2
  2
NAME
  10
294543.317
  20
4639514.843
 40
34.11356
  0
SEQEND
  0
POLYLINE
  8
Unknown_Area_Type
  70
1
  66
1
  0
VERTEX
  8
Unknown_Area_Type
  10
294546.000
  20
4641813.000
  0
VERTEX
  8
Unknown_Area_Type
  10
295865.000
  20
4641422.000
  0
VERTEX
  8
Unknown_Area_Type
  10
295978.000
  20
4637447.500
  0
VERTEX
  8
Unknown_Area_Type
  10
295977.500
  20
4637441.500
  0
VERTEX
  8
Unknown_Area_Type
  10
295900.000
  20
4637381.500
  0
VERTEX
  8
Unknown_Area_Type
  10
293223.000
  20
4637428.000
  0
VERTEX
  8
Unknown_Area_Type
  10
293105.000
  20
4641426.500
  0
VERTEX
  8
Unknown_Area_Type
  10
294532.000
  20
4641816.500
  0
VERTEX
  8
Unknown_Area_Type
  10
294544.500
  20
4641813.000
  0
VERTEX
  8
Unknown_Area_Type
  10
294546.000
  20
4641813.000
  0
SEQEND
  8
Unknown_Area_Type
  0
INSERT
  8
FeatureAttribs
  2
FEATURE
  41
1
  42
1
  43
1
  50
0
  10
294543.317
  20
4639514.843
 66
1
  0
ATTRIB
  8
FeatureAttribs
 70
0
  1
PNOA-H_AMS_1956-57_33k_ES_PAN_2
  2
NAME
  10
294543.317
  20
4639514.843
 40
34.11356
  0
SEQEND
  0
POLYLINE
  8
Unknown_Area_Type
  70
1
  66
1
  0
VERTEX
  8
Unknown_Area_Type
  10
294546.000
  20
4641813.000
  0
VERTEX
  8
Unknown_Area_Type
  10
294544.500
  20
4641813.000
  0
VERTEX
  8
Unknown_Area_Type
  10
294532.000
  20
4641816.500
  0
VERTEX
  8
Unknown_Area_Type
  10
293105.000
  20
4641426.500
  0
VERTEX
  8
Unknown_Area_Type
  10
293223.000
  20
4637428.000
  0
VERTEX
  8
Unknown_Area_Type
  10
295900.000
  20
4637381.500
  0
VERTEX
  8
Unknown_Area_Type
  10
295977.500
  20
4637441.500
  0
VERTEX
  8
Unknown_Area_Type
  10
295978.000
  20
4637447.500
  0
VERTEX
  8
Unknown_Area_Type
  10
295865.000
  20
4641422.000
  0
VERTEX
  8
Unknown_Area_Type
  10
294546.000
  20
4641813.000
  0
SEQEND
  8
Unknown_Area_Type
  0
INSERT
  8
FeatureAttribs
  2
FEATURE
  41
1
  42
1
  43
1
  50
0
  10
297282.058
  20
4639542.668
 66
1
  0
ATTRIB
  8
FeatureAttribs
 70
0
  1
PNOA-H_AMS_1956-57_33k_ES_PAN_2
  2
NAME
  10
297282.058
  20
4639542.668
 40
34.11356
  0
SEQEND
  0
POLYLINE
  8
Unknown_Area_Type
  70
1
  66
1
  0
VERTEX
  8
Unknown_Area_Type
  10
296593.000
  20
4641621.000
  0
VERTEX
  8
Unknown_Area_Type
  10
297367.500
  20
4641832.000
  0
VERTEX
  8
Unknown_Area_Type
  10
298606.000
  20
4641405.000
  0
VERTEX
  8
Unknown_Area_Type
  10
298688.000
  20
4637459.000
  0
VERTEX
  8
Unknown_Area_Type
  10
295978.000
  20
4637442.000
  0
VERTEX
  8
Unknown_Area_Type
  10
295865.000
  20
4641422.000
  0
VERTEX
  8
Unknown_Area_Type
  10
296591.000
  20
4641620.500
  0
VERTEX
  8
Unknown_Area_Type
  10
296593.000
  20
4641621.000
  0
SEQEND
  8
Unknown_Area_Type
  0
INSERT
  8
FeatureAttribs
  2
FEATURE
  41
1
  42
1
  43
1
  50
0
  10
297282.058
  20
4639542.668
 66
1
  0
ATTRIB
  8
FeatureAttribs
 70
0
  1
PNOA-H_AMS_1956-57_33k_ES_PAN_2
  2
NAME
  10
297282.058
  20
4639542.668
 40
34.11356
  0
SEQEND
  0
POLYLINE
  8
Unknown_Area_Type
  70
1
  66
1
  0
VERTEX
  8
Unknown_Area_Type
  10
296593.000
  20
4641621.000
  0
VERTEX
  8
Unknown_Area_Type
  10
296591.000
  20
4641620.500
  0
VERTEX
  8
Unknown_Area_Type
  10
295865.000
  20
4641422.000
  0
VERTEX
  8
Unknown_Area_Type
  10
295978.000
  20
4637442.000
  0
VERTEX
  8
Unknown_Area_Type
  10
298688.000
  20
4637459.000
  0
VERTEX
  8
Unknown_Area_Type
  10
298606.000
  20
4641405.000
  0
VERTEX
  8
Unknown_Area_Type
  10
297367.500
  20
4641832.000
  0
VERTEX
  8
Unknown_Area_Type
  10
296593.000
  20
4641621.000
  0
SEQEND
  8
Unknown_Area_Type
  0
INSERT
  8
FeatureAttribs
  2
FEATURE
  41
1
  42
1
  43
1
  50
0
  10
290754.530
  20
4639478.710
 66
1
  0
ATTRIB
  8
FeatureAttribs
 70
0
  1
PNOA-H_AMS_1956-57_33k_ES_PAN_2
  2
NAME
  10
290754.530
  20
4639478.710
 40
34.11356
  0
SEQEND
  0
POLYLINE
  8
Unknown_Area_Type
  70
1
  66
1
  0
VERTEX
  8
Unknown_Area_Type
  10
290767.782
  20
4637362.436
  0
VERTEX
  8
Unknown_Area_Type
  10
290679.094
  20
4637360.489
  0
VERTEX
  8
Unknown_Area_Type
  10
290679.094
  20
4641535.962
  0
VERTEX
  8
Unknown_Area_Type
  10
290892.232
  20
4641596.932
  0
VERTEX
  8
Unknown_Area_Type
  10
290883.025
  20
4641283.820
  0
VERTEX
  8
Unknown_Area_Type
  10
290815.030
  20
4638970.519
  0
VERTEX
  8
Unknown_Area_Type
  10
290767.782
  20
4637362.436
  0
SEQEND
  8
Unknown_Area_Type
  0
INSERT
  8
FeatureAttribs
  2
FEATURE
  41
1
  42
1
  43
1
  50
0
  10
291983.438
  20
4639487.705
 66
1
  0
ATTRIB
  8
FeatureAttribs
 70
0
  1
PNOA-H_AMS_1956-57_33k_ES_PAN_2
  2
NAME
  10
291983.438
  20
4639487.705
 40
34.11356
  0
SEQEND
  0
POLYLINE
  8
Unknown_Area_Type
  70
1
  66
1
  0
VERTEX
  8
Unknown_Area_Type
  10
290892.232
  20
4641596.932
  0
VERTEX
  8
Unknown_Area_Type
  10
291707.000
  20
4641830.000
  0
VERTEX
  8
Unknown_Area_Type
  10
291710.000
  20
4641830.000
  0
VERTEX
  8
Unknown_Area_Type
  10
293105.000
  20
4641426.500
  0
VERTEX
  8
Unknown_Area_Type
  10
293223.000
  20
4637433.500
  0
VERTEX
  8
Unknown_Area_Type
  10
293223.000
  20
4637428.000
  0
VERTEX
  8
Unknown_Area_Type
  10
293207.500
  20
4637416.000
  0
VERTEX
  8
Unknown_Area_Type
  10
290767.782
  20
4637362.436
  0
VERTEX
  8
Unknown_Area_Type
  10
290815.030
  20
4638970.519
  0
VERTEX
  8
Unknown_Area_Type
  10
290883.025
  20
4641283.820
  0
VERTEX
  8
Unknown_Area_Type
  10
290892.232
  20
4641596.932
  0
SEQEND
  8
Unknown_Area_Type
  0
INSERT
  8
FeatureAttribs
  2
FEATURE
  41
1
  42
1
  43
1
  50
0
  10
291983.438
  20
4639487.705
 66
1
  0
ATTRIB
  8
FeatureAttribs
 70
0
  1
PNOA-H_AMS_1956-57_33k_ES_PAN_2
  2
NAME
  10
291983.438
  20
4639487.705
 40
34.11356
  0
SEQEND
  0
POLYLINE
  8
Unknown_Area_Type
  70
1
  66
1
  0
VERTEX
  8
Unknown_Area_Type
  10
290892.232
  20
4641596.932
  0
VERTEX
  8
Unknown_Area_Type
  10
290883.025
  20
4641283.820
  0
VERTEX
  8
Unknown_Area_Type
  10
290815.030
  20
4638970.519
  0
VERTEX
  8
Unknown_Area_Type
  10
290767.782
  20
4637362.436
  0
VERTEX
  8
Unknown_Area_Type
  10
293207.500
  20
4637416.000
  0
VERTEX
  8
Unknown_Area_Type
  10
293223.000
  20
4637428.000
  0
VERTEX
  8
Unknown_Area_Type
  10
293223.000
  20
4637433.500
  0
VERTEX
  8
Unknown_Area_Type
  10
293105.000
  20
4641426.500
  0
VERTEX
  8
Unknown_Area_Type
  10
291710.000
  20
4641830.000
  0
VERTEX
  8
Unknown_Area_Type
  10
291707.000
  20
4641830.000
  0
VERTEX
  8
Unknown_Area_Type
  10
290892.232
  20
4641596.932
  0
SEQEND
  8
Unknown_Area_Type
  0
INSERT
  8
FeatureAttribs
  2
FEATURE
  41
1
  42
1
  43
1
  50
0
  10
318617.236
  20
4635277.794
 66
1
  0
ATTRIB
  8
FeatureAttribs
 70
0
  1
PNOA-H_AMS_1956-57_33k_ES_PAN_2
  2
NAME
  10
318617.236
  20
4635277.794
 40
34.11356
  0
SEQEND
  0
POLYLINE
  8
Unknown_Area_Type
  70
1
  66
1
  0
VERTEX
  8
Unknown_Area_Type
  10
318831.799
  20
4636914.464
  0
VERTEX
  8
Unknown_Area_Type
  10
318831.799
  20
4633584.923
  0
VERTEX
  8
Unknown_Area_Type
  10
318360.299
  20
4633584.923
  0
VERTEX
  8
Unknown_Area_Type
  10
318359.536
  20
4633584.942
  0
VERTEX
  8
Unknown_Area_Type
  10
318418.481
  20
4635898.169
  0
VERTEX
  8
Unknown_Area_Type
  10
318445.821
  20
4636970.666
  0
VERTEX
  8
Unknown_Area_Type
  10
318831.799
  20
4636914.464
  0
SEQEND
  8
Unknown_Area_Type
  0
INSERT
  8
FeatureAttribs
  2
FEATURE
  41
1
  42
1
  43
1
  50
0
  10
317804.304
  20
4633594.453
 66
1
  0
ATTRIB
  8
FeatureAttribs
 70
0
  1
PNOA-H_AMS_1956-57_33k_ES_PAN_2
  2
NAME
  10
317804.304
  20
4633594.453
 40
34.11356
  0
SEQEND
  0
POLYLINE
  8
Unknown_Area_Type
  70
1
  66
1
  0
VERTEX
  8
Unknown_Area_Type
  10
317619.194
  20
4633603.984
  0
VERTEX
  8
Unknown_Area_Type
  10
318359.536
  20
4633584.942
  0
VERTEX
  8
Unknown_Area_Type
  10
318359.535
  20
4633584.923
  0
VERTEX
  8
Unknown_Area_Type
  10
317618.543
  20
4633584.923
  0
VERTEX
  8
Unknown_Area_Type
  10
317619.194
  20
4633603.984
  0
SEQEND
  8
Unknown_Area_Type
  0
INSERT
  8
FeatureAttribs
  2
FEATURE
  41
1
  42
1
  43
1
  50
0
  10
318359.726
  20
4633584.933
 66
1
  0
ATTRIB
  8
FeatureAttribs
 70
0
  1
PNOA-H_AMS_1956-57_33k_ES_PAN_2
  2
NAME
  10
318359.726
  20
4633584.933
 40
34.11356
  0
SEQEND
  0
POLYLINE
  8
Unknown_Area_Type
  70
1
  66
1
  0
VERTEX
  8
Unknown_Area_Type
  10
318359.536
  20
4633584.942
  0
VERTEX
  8
Unknown_Area_Type
  10
318360.299
  20
4633584.923
  0
VERTEX
  8
Unknown_Area_Type
  10
318359.535
  20
4633584.923
  0
VERTEX
  8
Unknown_Area_Type
  10
318359.536
  20
4633584.942
  0
SEQEND
  8
Unknown_Area_Type
  0
INSERT
  8
FeatureAttribs
  2
FEATURE
  41
1
  42
1
  43
1
  50
0
  10
318043.528
  20
4635231.587
 66
1
  0
ATTRIB
  8
FeatureAttribs
 70
0
  1
PNOA-H_AMS_1956-57_33k_ES_PAN_2
  2
NAME
  10
318043.528
  20
4635231.587
 40
34.11356
  0
SEQEND
  0
POLYLINE
  8
Unknown_Area_Type
  70
1
  66
1
  0
VERTEX
  8
Unknown_Area_Type
  10
318445.821
  20
4636970.666
  0
VERTEX
  8
Unknown_Area_Type
  10
318418.481
  20
4635898.169
  0
VERTEX
  8
Unknown_Area_Type
  10
318359.536
  20
4633584.942
  0
VERTEX
  8
Unknown_Area_Type
  10
317619.194
  20
4633603.984
  0
VERTEX
  8
Unknown_Area_Type
  10
317726.000
  20
4636729.500
  0
VERTEX
  8
Unknown_Area_Type
  10
318289.000
  20
4636993.500
  0
VERTEX
  8
Unknown_Area_Type
  10
318445.821
  20
4636970.666
  0
SEQEND
  8
Unknown_Area_Type
  0
INSERT
  8
FeatureAttribs
  2
FEATURE
  41
1
  42
1
  43
1
  50
0
  10
318043.528
  20
4635231.587
 66
1
  0
ATTRIB
  8
FeatureAttribs
 70
0
  1
PNOA-H_AMS_1956-57_33k_ES_PAN_2
  2
NAME
  10
318043.528
  20
4635231.587
 40
34.11356
  0
SEQEND
  0
POLYLINE
  8
Unknown_Area_Type
  70
1
  66
1
  0
VERTEX
  8
Unknown_Area_Type
  10
318445.821
  20
4636970.666
  0
VERTEX
  8
Unknown_Area_Type
  10
318289.000
  20
4636993.500
  0
VERTEX
  8
Unknown_Area_Type
  10
317726.000
  20
4636729.500
  0
VERTEX
  8
Unknown_Area_Type
  10
317619.194
  20
4633603.984
  0
VERTEX
  8
Unknown_Area_Type
  10
318359.536
  20
4633584.942
  0
VERTEX
  8
Unknown_Area_Type
  10
318418.481
  20
4635898.169
  0
VERTEX
  8
Unknown_Area_Type
  10
318445.821
  20
4636970.666
  0
SEQEND
  8
Unknown_Area_Type
  0
INSERT
  8
FeatureAttribs
  2
FEATURE
  41
1
  42
1
  43
1
  50
0
  10
318389.008
  20
4638883.998
 66
1
  0
ATTRIB
  8
FeatureAttribs
 70
0
  1
PNOA-H_AMS_1956-57_33k_ES_PAN_2
  2
NAME
  10
318389.008
  20
4638883.998
 40
34.11356
  0
SEQEND
  0
POLYLINE
  8
Unknown_Area_Type
  70
1
  66
1
  0
VERTEX
  8
Unknown_Area_Type
  10
318445.824
  20
4636970.791
  0
VERTEX
  8
Unknown_Area_Type
  10
318290.000
  20
4636993.500
  0
VERTEX
  8
Unknown_Area_Type
  10
318277.000
  20
4640725.000
  0
VERTEX
  8
Unknown_Area_Type
  10
318543.397
  20
4640797.206
  0
VERTEX
  8
Unknown_Area_Type
  10
318536.443
  20
4640524.643
  0
VERTEX
  8
Unknown_Area_Type
  10
318477.450
  20
4638211.402
  0
VERTEX
  8
Unknown_Area_Type
  10
318445.824
  20
4636970.791
  0
SEQEND
  8
Unknown_Area_Type
  0
INSERT
  8
FeatureAttribs
  2
FEATURE
  41
1
  42
1
  43
1
  50
0
  10
318389.008
  20
4638883.998
 66
1
  0
ATTRIB
  8
FeatureAttribs
 70
0
  1
PNOA-H_AMS_1956-57_33k_ES_PAN_2
  2
NAME
  10
318389.008
  20
4638883.998
 40
34.11356
  0
SEQEND
  0
POLYLINE
  8
Unknown_Area_Type
  70
1
  66
1
  0
VERTEX
  8
Unknown_Area_Type
  10
318445.824
  20
4636970.791
  0
VERTEX
  8
Unknown_Area_Type
  10
318290.000
  20
4636993.500
  0
VERTEX
  8
Unknown_Area_Type
  10
318277.000
  20
4640725.000
  0
VERTEX
  8
Unknown_Area_Type
  10
318543.397
  20
4640797.206
  0
VERTEX
  8
Unknown_Area_Type
  10
318536.443
  20
4640524.643
  0
VERTEX
  8
Unknown_Area_Type
  10
318477.450
  20
4638211.402
  0
VERTEX
  8
Unknown_Area_Type
  10
318445.824
  20
4636970.791
  0
SEQEND
  8
Unknown_Area_Type
  0
INSERT
  8
FeatureAttribs
  2
FEATURE
  41
1
  42
1
  43
1
  50
0
  10
318663.341
  20
4638894.958
 66
1
  0
ATTRIB
  8
FeatureAttribs
 70
0
  1
PNOA-H_AMS_1956-57_33k_ES_PAN_2
  2
NAME
  10
318663.341
  20
4638894.958
 40
34.11356
  0
SEQEND
  0
POLYLINE
  8
Unknown_Area_Type
  70
1
  66
1
  0
VERTEX
  8
Unknown_Area_Type
  10
318831.799
  20
4636914.541
  0
VERTEX
  8
Unknown_Area_Type
  10
318445.824
  20
4636970.791
  0
VERTEX
  8
Unknown_Area_Type
  10
318477.450
  20
4638211.402
  0
VERTEX
  8
Unknown_Area_Type
  10
318536.443
  20
4640524.643
  0
VERTEX
  8
Unknown_Area_Type
  10
318543.397
  20
4640797.206
  0
VERTEX
  8
Unknown_Area_Type
  10
318831.799
  20
4640875.376
  0
VERTEX
  8
Unknown_Area_Type
  10
318831.799
  20
4636914.541
  0
SEQEND
  8
Unknown_Area_Type
  0
INSERT
  8
FeatureAttribs
  2
FEATURE
  41
1
  42
1
  43
1
  50
0
  10
290822.888
  20
4644128.572
 66
1
  0
ATTRIB
  8
FeatureAttribs
 70
0
  1
PNOA-H_AMS_1956-57_33k_ES_PAN_2
  2
NAME
  10
290822.888
  20
4644128.572
 40
34.11356
  0
SEQEND
  0
POLYLINE
  8
Unknown_Area_Type
  70
1
  66
1
  0
VERTEX
  8
Unknown_Area_Type
  10
291040.521
  20
4646638.341
  0
VERTEX
  8
Unknown_Area_Type
  10
291019.099
  20
4645910.443
  0
VERTEX
  8
Unknown_Area_Type
  10
290951.048
  20
4643597.128
  0
VERTEX
  8
Unknown_Area_Type
  10
290892.216
  20
4641596.390
  0
VERTEX
  8
Unknown_Area_Type
  10
290679.094
  20
4641535.396
  0
VERTEX
  8
Unknown_Area_Type
  10
290679.094
  20
4646721.748
  0
VERTEX
  8
Unknown_Area_Type
  10
291040.521
  20
4646638.341
  0
SEQEND
  8
Unknown_Area_Type
  0
INSERT
  8
FeatureAttribs
  2
FEATURE
  41
1
  42
1
  43
1
  50
0
  10
291364.800
  20
4644127.825
 66
1
  0
ATTRIB
  8
FeatureAttribs
 70
0
  1
PNOA-H_AMS_1956-57_33k_ES_PAN_2
  2
NAME
  10
291364.800
  20
4644127.825
 40
34.11356
  0
SEQEND
  0
POLYLINE
  8
Unknown_Area_Type
  70
1
  66
1
  0
VERTEX
  8
Unknown_Area_Type
  10
291040.521
  20
4646638.341
  0
VERTEX
  8
Unknown_Area_Type
  10
291841.500
  20
4646453.500
  0
VERTEX
  8
Unknown_Area_Type
  10
291708.500
  20
4641830.000
  0
VERTEX
  8
Unknown_Area_Type
  10
290892.216
  20
4641596.390
  0
VERTEX
  8
Unknown_Area_Type
  10
290951.048
  20
4643597.128
  0
VERTEX
  8
Unknown_Area_Type
  10
291019.099
  20
4645910.443
  0
VERTEX
  8
Unknown_Area_Type
  10
291040.521
  20
4646638.341
  0
SEQEND
  8
Unknown_Area_Type
  0
INSERT
  8
FeatureAttribs
  2
FEATURE
  41
1
  42
1
  43
1
  50
0
  10
291364.800
  20
4644127.825
 66
1
  0
ATTRIB
  8
FeatureAttribs
 70
0
  1
PNOA-H_AMS_1956-57_33k_ES_PAN_2
  2
NAME
  10
291364.800
  20
4644127.825
 40
34.11356
  0
SEQEND
  0
POLYLINE
  8
Unknown_Area_Type
  70
1
  66
1
  0
VERTEX
  8
Unknown_Area_Type
  10
291040.521
  20
4646638.341
  0
VERTEX
  8
Unknown_Area_Type
  10
291019.099
  20
4645910.443
  0
VERTEX
  8
Unknown_Area_Type
  10
290951.048
  20
4643597.128
  0
VERTEX
  8
Unknown_Area_Type
  10
290892.216
  20
4641596.390
  0
VERTEX
  8
Unknown_Area_Type
  10
291708.500
  20
4641830.000
  0
VERTEX
  8
Unknown_Area_Type
  10
291841.500
  20
4646453.500
  0
VERTEX
  8
Unknown_Area_Type
  10
291040.521
  20
4646638.341
  0
SEQEND
  8
Unknown_Area_Type
  0
INSERT
  8
FeatureAttribs
  2
FEATURE
  41
1
  42
1
  43
1
  50
0
  10
304640.942
  20
4643740.056
 66
1
  0
ATTRIB
  8
FeatureAttribs
 70
0
  1
PNOA-H_AMS_1956-57_33k_ES_PAN_2
  2
NAME
  10
304640.942
  20
4643740.056
 40
34.11356
  0
SEQEND
  0
POLYLINE
  8
Unknown_Area_Type
  70
1
  66
1
  0
VERTEX
  8
Unknown_Area_Type
  10
304784.500
  20
4646224.500
  0
VERTEX
  8
Unknown_Area_Type
  10
304826.000
  20
4646234.500
  0
VERTEX
  8
Unknown_Area_Type
  10
306179.000
  20
4645713.000
  0
VERTEX
  8
Unknown_Area_Type
  10
305927.500
  20
4641692.500
  0
VERTEX
  8
Unknown_Area_Type
  10
305922.500
  20
4641614.000
  0
VERTEX
  8
Unknown_Area_Type
  10
305921.000
  20
4641613.500
  0
VERTEX
  8
Unknown_Area_Type
  10
304335.500
  20
4641239.000
  0
VERTEX
  8
Unknown_Area_Type
  10
303130.000
  20
4641747.000
  0
VERTEX
  8
Unknown_Area_Type
  10
303339.500
  20
4645853.500
  0
VERTEX
  8
Unknown_Area_Type
  10
304782.500
  20
4646224.000
  0
VERTEX
  8
Unknown_Area_Type
  10
304784.500
  20
4646224.500
  0
SEQEND
  8
Unknown_Area_Type
  0
INSERT
  8
FeatureAttribs
  2
FEATURE
  41
1
  42
1
  43
1
  50
0
  10
304640.942
  20
4643740.056
 66
1
  0
ATTRIB
  8
FeatureAttribs
 70
0
  1
PNOA-H_AMS_1956-57_33k_ES_PAN_2
  2
NAME
  10
304640.942
  20
4643740.056
 40
34.11356
  0
SEQEND
  0
POLYLINE
  8
Unknown_Area_Type
  70
1
  66
1
  0
VERTEX
  8
Unknown_Area_Type
  10
304784.500
  20
4646224.500
  0
VERTEX
  8
Unknown_Area_Type
  10
304782.500
  20
4646224.000
  0
VERTEX
  8
Unknown_Area_Type
  10
303339.500
  20
4645853.500
  0
VERTEX
  8
Unknown_Area_Type
  10
303130.000
  20
4641747.000
  0
VERTEX
  8
Unknown_Area_Type
  10
304335.500
  20
4641239.000
  0
VERTEX
  8
Unknown_Area_Type
  10
305921.000
  20
4641613.500
  0
VERTEX
  8
Unknown_Area_Type
  10
305922.500
  20
4641614.000
  0
VERTEX
  8
Unknown_Area_Type
  10
305927.500
  20
4641692.500
  0
VERTEX
  8
Unknown_Area_Type
  10
306179.000
  20
4645713.000
  0
VERTEX
  8
Unknown_Area_Type
  10
304826.000
  20
4646234.500
  0
VERTEX
  8
Unknown_Area_Type
  10
304784.500
  20
4646224.500
  0
SEQEND
  8
Unknown_Area_Type
  0
INSERT
  8
FeatureAttribs
  2
FEATURE
  41
1
  42
1
  43
1
  50
0
  10
298883.303
  20
4643962.367
 66
1
  0
ATTRIB
  8
FeatureAttribs
 70
0
  1
PNOA-H_AMS_1956-57_33k_ES_PAN_2
  2
NAME
  10
298883.303
  20
4643962.367
 40
34.11356
  0
SEQEND
  0
POLYLINE
  8
Unknown_Area_Type
  70
1
  66
1
  0
VERTEX
  8
Unknown_Area_Type
  10
298640.500
  20
4646438.000
  0
VERTEX
  8
Unknown_Area_Type
  10
298965.000
  20
4646522.500
  0
VERTEX
  8
Unknown_Area_Type
  10
300441.000
  20
4646003.000
  0
VERTEX
  8
Unknown_Area_Type
  10
300240.500
  20
4641804.500
  0
VERTEX
  8
Unknown_Area_Type
  10
298605.000
  20
4641405.000
  0
VERTEX
  8
Unknown_Area_Type
  10
297366.500
  20
4641832.000
  0
VERTEX
  8
Unknown_Area_Type
  10
297518.500
  20
4646144.500
  0
VERTEX
  8
Unknown_Area_Type
  10
298638.500
  20
4646437.500
  0
VERTEX
  8
Unknown_Area_Type
  10
298640.500
  20
4646438.000
  0
SEQEND
  8
Unknown_Area_Type
  0
INSERT
  8
FeatureAttribs
  2
FEATURE
  41
1
  42
1
  43
1
  50
0
  10
298883.303
  20
4643962.367
 66
1
  0
ATTRIB
  8
FeatureAttribs
 70
0
  1
PNOA-H_AMS_1956-57_33k_ES_PAN_2
  2
NAME
  10
298883.303
  20
4643962.367
 40
34.11356
  0
SEQEND
  0
POLYLINE
  8
Unknown_Area_Type
  70
1
  66
1
  0
VERTEX
  8
Unknown_Area_Type
  10
298640.500
  20
4646438.000
  0
VERTEX
  8
Unknown_Area_Type
  10
298638.500
  20
4646437.500
  0
VERTEX
  8
Unknown_Area_Type
  10
297518.500
  20
4646144.500
  0
VERTEX
  8
Unknown_Area_Type
  10
297366.500
  20
4641832.000
  0
VERTEX
  8
Unknown_Area_Type
  10
298605.000
  20
4641405.000
  0
VERTEX
  8
Unknown_Area_Type
  10
300240.500
  20
4641804.500
  0
VERTEX
  8
Unknown_Area_Type
  10
300441.000
  20
4646003.000
  0
VERTEX
  8
Unknown_Area_Type
  10
298965.000
  20
4646522.500
  0
VERTEX
  8
Unknown_Area_Type
  10
298640.500
  20
4646438.000
  0
SEQEND
  8
Unknown_Area_Type
  0
INSERT
  8
FeatureAttribs
  2
FEATURE
  41
1
  42
1
  43
1
  50
0
  10
296013.884
  20
4644036.805
 66
1
  0
ATTRIB
  8
FeatureAttribs
 70
0
  1
PNOA-H_AMS_1956-57_33k_ES_PAN_2
  2
NAME
  10
296013.884
  20
4644036.805
 40
34.11356
  0
SEQEND
  0
POLYLINE
  8
Unknown_Area_Type
  70
1
  66
1
  0
VERTEX
  8
Unknown_Area_Type
  10
295951.000
  20
4646677.500
  0
VERTEX
  8
Unknown_Area_Type
  10
295955.500
  20
4646677.000
  0
VERTEX
  8
Unknown_Area_Type
  10
297507.500
  20
4646148.500
  0
VERTEX
  8
Unknown_Area_Type
  10
297518.500
  20
4646144.500
  0
VERTEX
  8
Unknown_Area_Type
  10
297518.500
  20
4646135.500
  0
VERTEX
  8
Unknown_Area_Type
  10
297366.500
  20
4641832.000
  0
VERTEX
  8
Unknown_Area_Type
  10
295868.500
  20
4641422.500
  0
VERTEX
  8
Unknown_Area_Type
  10
295864.000
  20
4641422.000
  0
VERTEX
  8
Unknown_Area_Type
  10
295857.000
  20
4641424.000
  0
VERTEX
  8
Unknown_Area_Type
  10
294536.000
  20
4641815.500
  0
VERTEX
  8
Unknown_Area_Type
  10
294533.500
  20
4641816.500
  0
VERTEX
  8
Unknown_Area_Type
  10
294533.500
  20
4641827.500
  0
VERTEX
  8
Unknown_Area_Type
  10
294684.000
  20
4646305.500
  0
VERTEX
  8
Unknown_Area_Type
  10
295949.000
  20
4646677.000
  0
VERTEX
  8
Unknown_Area_Type
  10
295951.000
  20
4646677.500
  0
SEQEND
  8
Unknown_Area_Type
  0
INSERT
  8
FeatureAttribs
  2
FEATURE
  41
1
  42
1
  43
1
  50
0
  10
296013.884
  20
4644036.805
 66
1
  0
ATTRIB
  8
FeatureAttribs
 70
0
  1
PNOA-H_AMS_1956-57_33k_ES_PAN_2
  2
NAME
  10
296013.884
  20
4644036.805
 40
34.11356
  0
SEQEND
  0
POLYLINE
  8
Unknown_Area_Type
  70
1
  66
1
  0
VERTEX
  8
Unknown_Area_Type
  10
295951.000
  20
4646677.500
  0
VERTEX
  8
Unknown_Area_Type
  10
295949.000
  20
4646677.000
  0
VERTEX
  8
Unknown_Area_Type
  10
294684.000
  20
4646305.500
  0
VERTEX
  8
Unknown_Area_Type
  10
294533.500
  20
4641827.500
  0
VERTEX
  8
Unknown_Area_Type
  10
294533.500
  20
4641816.500
  0
VERTEX
  8
Unknown_Area_Type
  10
294536.000
  20
4641815.500
  0
VERTEX
  8
Unknown_Area_Type
  10
295857.000
  20
4641424.000
  0
VERTEX
  8
Unknown_Area_Type
  10
295864.000
  20
4641422.000
  0
VERTEX
  8
Unknown_Area_Type
  10
295868.500
  20
4641422.500
  0
VERTEX
  8
Unknown_Area_Type
  10
297366.500
  20
4641832.000
  0
VERTEX
  8
Unknown_Area_Type
  10
297518.500
  20
4646135.500
  0
VERTEX
  8
Unknown_Area_Type
  10
297518.500
  20
4646144.500
  0
VERTEX
  8
Unknown_Area_Type
  10
297507.500
  20
4646148.500
  0
VERTEX
  8
Unknown_Area_Type
  10
295955.500
  20
4646677.000
  0
VERTEX
  8
Unknown_Area_Type
  10
295951.000
  20
4646677.500
  0
SEQEND
  8
Unknown_Area_Type
  0
INSERT
  8
FeatureAttribs
  2
FEATURE
  41
1
  42
1
  43
1
  50
0
  10
318714.976
  20
4642943.359
 66
1
  0
ATTRIB
  8
FeatureAttribs
 70
0
  1
PNOA-H_AMS_1956-57_33k_ES_PAN_2
  2
NAME
  10
318714.976
  20
4642943.359
 40
34.11356
  0
SEQEND
  0
POLYLINE
  8
Unknown_Area_Type
  70
1
  66
1
  0
VERTEX
  8
Unknown_Area_Type
  10
318831.799
  20
4640875.091
  0
VERTEX
  8
Unknown_Area_Type
  10
318543.390
  20
4640796.926
  0
VERTEX
  8
Unknown_Area_Type
  10
318595.461
  20
4642837.891
  0
VERTEX
  8
Unknown_Area_Type
  10
318652.822
  20
4645085.315
  0
VERTEX
  8
Unknown_Area_Type
  10
318831.799
  20
4645089.792
  0
VERTEX
  8
Unknown_Area_Type
  10
318831.799
  20
4640875.091
  0
SEQEND
  8
Unknown_Area_Type
  0
INSERT
  8
FeatureAttribs
  2
FEATURE
  41
1
  42
1
  43
1
  50
0
  10
317953.804
  20
4642980.084
 66
1
  0
ATTRIB
  8
FeatureAttribs
 70
0
  1
PNOA-H_AMS_1956-57_33k_ES_PAN_2
  2
NAME
  10
317953.804
  20
4642980.084
 40
34.11356
  0
SEQEND
  0
POLYLINE
  8
Unknown_Area_Type
  70
1
  66
1
  0
VERTEX
  8
Unknown_Area_Type
  10
318543.390
  20
4640796.926
  0
VERTEX
  8
Unknown_Area_Type
  10
318278.000
  20
4640725.000
  0
VERTEX
  8
Unknown_Area_Type
  10
318272.500
  20
4640726.500
  0
VERTEX
  8
Unknown_Area_Type
  10
317208.500
  20
4641210.500
  0
VERTEX
  8
Unknown_Area_Type
  10
317361.000
  20
4645053.000
  0
VERTEX
  8
Unknown_Area_Type
  10
318652.822
  20
4645085.315
  0
VERTEX
  8
Unknown_Area_Type
  10
318595.461
  20
4642837.891
  0
VERTEX
  8
Unknown_Area_Type
  10
318543.390
  20
4640796.926
  0
SEQEND
  8
Unknown_Area_Type
  0
INSERT
  8
FeatureAttribs
  2
FEATURE
  41
1
  42
1
  43
1
  50
0
  10
317953.804
  20
4642980.084
 66
1
  0
ATTRIB
  8
FeatureAttribs
 70
0
  1
PNOA-H_AMS_1956-57_33k_ES_PAN_2
  2
NAME
  10
317953.804
  20
4642980.084
 40
34.11356
  0
SEQEND
  0
POLYLINE
  8
Unknown_Area_Type
  70
1
  66
1
  0
VERTEX
  8
Unknown_Area_Type
  10
318543.390
  20
4640796.926
  0
VERTEX
  8
Unknown_Area_Type
  10
318595.461
  20
4642837.891
  0
VERTEX
  8
Unknown_Area_Type
  10
318652.822
  20
4645085.315
  0
VERTEX
  8
Unknown_Area_Type
  10
317361.000
  20
4645053.000
  0
VERTEX
  8
Unknown_Area_Type
  10
317208.500
  20
4641210.500
  0
VERTEX
  8
Unknown_Area_Type
  10
318272.500
  20
4640726.500
  0
VERTEX
  8
Unknown_Area_Type
  10
318278.000
  20
4640725.000
  0
VERTEX
  8
Unknown_Area_Type
  10
318543.390
  20
4640796.926
  0
SEQEND
  8
Unknown_Area_Type
  0
INSERT
  8
FeatureAttribs
  2
FEATURE
  41
1
  42
1
  43
1
  50
0
  10
307438.917
  20
4643579.989
 66
1
  0
ATTRIB
  8
FeatureAttribs
 70
0
  1
PNOA-H_AMS_1956-57_33k_ES_PAN_2
  2
NAME
  10
307438.917
  20
4643579.989
 40
34.11356
  0
SEQEND
  0
POLYLINE
  8
Unknown_Area_Type
  70
1
  66
1
  0
VERTEX
  8
Unknown_Area_Type
  10
308882.000
  20
4645544.500
  0
VERTEX
  8
Unknown_Area_Type
  10
308950.500
  20
4645514.000
  0
VERTEX
  8
Unknown_Area_Type
  10
308953.500
  20
4645512.500
  0
VERTEX
  8
Unknown_Area_Type
  10
308953.500
  20
4645510.500
  0
VERTEX
  8
Unknown_Area_Type
  10
308721.000
  20
4641516.000
  0
VERTEX
  8
Unknown_Area_Type
  10
307149.000
  20
4641112.000
  0
VERTEX
  8
Unknown_Area_Type
  10
305922.500
  20
4641614.000
  0
VERTEX
  8
Unknown_Area_Type
  10
306178.500
  20
4645712.000
  0
VERTEX
  8
Unknown_Area_Type
  10
306182.500
  20
4645714.000
  0
VERTEX
  8
Unknown_Area_Type
  10
307804.000
  20
4646030.500
  0
VERTEX
  8
Unknown_Area_Type
  10
308880.500
  20
4645545.000
  0
VERTEX
  8
Unknown_Area_Type
  10
308882.000
  20
4645544.500
  0
SEQEND
  8
Unknown_Area_Type
  0
INSERT
  8
FeatureAttribs
  2
FEATURE
  41
1
  42
1
  43
1
  50
0
  10
307438.917
  20
4643579.989
 66
1
  0
ATTRIB
  8
FeatureAttribs
 70
0
  1
PNOA-H_AMS_1956-57_33k_ES_PAN_2
  2
NAME
  10
307438.917
  20
4643579.989
 40
34.11356
  0
SEQEND
  0
POLYLINE
  8
Unknown_Area_Type
  70
1
  66
1
  0
VERTEX
  8
Unknown_Area_Type
  10
308882.000
  20
4645544.500
  0
VERTEX
  8
Unknown_Area_Type
  10
308880.500
  20
4645545.000
  0
VERTEX
  8
Unknown_Area_Type
  10
307804.000
  20
4646030.500
  0
VERTEX
  8
Unknown_Area_Type
  10
306182.500
  20
4645714.000
  0
VERTEX
  8
Unknown_Area_Type
  10
306178.500
  20
4645712.000
  0
VERTEX
  8
Unknown_Area_Type
  10
305922.500
  20
4641614.000
  0
VERTEX
  8
Unknown_Area_Type
  10
307149.000
  20
4641112.000
  0
VERTEX
  8
Unknown_Area_Type
  10
308721.000
  20
4641516.000
  0
VERTEX
  8
Unknown_Area_Type
  10
308953.500
  20
4645510.500
  0
VERTEX
  8
Unknown_Area_Type
  10
308953.500
  20
4645512.500
  0
VERTEX
  8
Unknown_Area_Type
  10
308950.500
  20
4645514.000
  0
VERTEX
  8
Unknown_Area_Type
  10
308882.000
  20
4645544.500
  0
SEQEND
  8
Unknown_Area_Type
  0
INSERT
  8
FeatureAttribs
  2
FEATURE
  41
1
  42
1
  43
1
  50
0
  10
310250.647
  20
4643436.261
 66
1
  0
ATTRIB
  8
FeatureAttribs
 70
0
  1
PNOA-H_AMS_1956-57_33k_ES_PAN_2
  2
NAME
  10
310250.647
  20
4643436.261
 40
34.11356
  0
SEQEND
  0
POLYLINE
  8
Unknown_Area_Type
  70
1
  66
1
  0
VERTEX
  8
Unknown_Area_Type
  10
308881.500
  20
4644281.000
  0
VERTEX
  8
Unknown_Area_Type
  10
308953.500
  20
4645512.500
  0
VERTEX
  8
Unknown_Area_Type
  10
310823.500
  20
4645813.000
  0
VERTEX
  8
Unknown_Area_Type
  10
311795.500
  20
4645322.000
  0
VERTEX
  8
Unknown_Area_Type
  10
311544.500
  20
4641438.000
  0
VERTEX
  8
Unknown_Area_Type
  10
309928.500
  20
4641002.000
  0
VERTEX
  8
Unknown_Area_Type
  10
308721.000
  20
4641516.000
  0
VERTEX
  8
Unknown_Area_Type
  10
308881.500
  20
4644272.500
  0
VERTEX
  8
Unknown_Area_Type
  10
308881.500
  20
4644281.000
  0
SEQEND
  8
Unknown_Area_Type
  0
INSERT
  8
FeatureAttribs
  2
FEATURE
  41
1
  42
1
  43
1
  50
0
  10
310250.647
  20
4643436.261
 66
1
  0
ATTRIB
  8
FeatureAttribs
 70
0
  1
PNOA-H_AMS_1956-57_33k_ES_PAN_2
  2
NAME
  10
310250.647
  20
4643436.261
 40
34.11356
  0
SEQEND
  0
POLYLINE
  8
Unknown_Area_Type
  70
1
  66
1
  0
VERTEX
  8
Unknown_Area_Type
  10
308881.500
  20
4644281.000
  0
VERTEX
  8
Unknown_Area_Type
  10
308881.500
  20
4644272.500
  0
VERTEX
  8
Unknown_Area_Type
  10
308721.000
  20
4641516.000
  0
VERTEX
  8
Unknown_Area_Type
  10
309928.500
  20
4641002.000
  0
VERTEX
  8
Unknown_Area_Type
  10
311544.500
  20
4641438.000
  0
VERTEX
  8
Unknown_Area_Type
  10
311795.500
  20
4645322.000
  0
VERTEX
  8
Unknown_Area_Type
  10
310823.500
  20
4645813.000
  0
VERTEX
  8
Unknown_Area_Type
  10
308953.500
  20
4645512.500
  0
VERTEX
  8
Unknown_Area_Type
  10
308881.500
  20
4644281.000
  0
SEQEND
  8
Unknown_Area_Type
  0
INSERT
  8
FeatureAttribs
  2
FEATURE
  41
1
  42
1
  43
1
  50
0
  10
315895.075
  20
4643117.229
 66
1
  0
ATTRIB
  8
FeatureAttribs
 70
0
  1
PNOA-H_AMS_1956-57_33k_ES_PAN_2
  2
NAME
  10
315895.075
  20
4643117.229
 40
34.11356
  0
SEQEND
  0
POLYLINE
  8
Unknown_Area_Type
  70
1
  66
1
  0
VERTEX
  8
Unknown_Area_Type
  10
315021.000
  20
4645195.000
  0
VERTEX
  8
Unknown_Area_Type
  10
316899.000
  20
4645328.000
  0
VERTEX
  8
Unknown_Area_Type
  10
317361.000
  20
4645053.000
  0
VERTEX
  8
Unknown_Area_Type
  10
317208.500
  20
4641210.500
  0
VERTEX
  8
Unknown_Area_Type
  10
315520.000
  20
4640779.000
  0
VERTEX
  8
Unknown_Area_Type
  10
314407.000
  20
4641302.000
  0
VERTEX
  8
Unknown_Area_Type
  10
314605.000
  20
4645165.500
  0
VERTEX
  8
Unknown_Area_Type
  10
315014.000
  20
4645194.500
  0
VERTEX
  8
Unknown_Area_Type
  10
315021.000
  20
4645195.000
  0
SEQEND
  8
Unknown_Area_Type
  0
INSERT
  8
FeatureAttribs
  2
FEATURE
  41
1
  42
1
  43
1
  50
0
  10
315895.075
  20
4643117.229
 66
1
  0
ATTRIB
  8
FeatureAttribs
 70
0
  1
PNOA-H_AMS_1956-57_33k_ES_PAN_2
  2
NAME
  10
315895.075
  20
4643117.229
 40
34.11356
  0
SEQEND
  0
POLYLINE
  8
Unknown_Area_Type
  70
1
  66
1
  0
VERTEX
  8
Unknown_Area_Type
  10
315021.000
  20
4645195.000
  0
VERTEX
  8
Unknown_Area_Type
  10
315014.000
  20
4645194.500
  0
VERTEX
  8
Unknown_Area_Type
  10
314605.000
  20
4645165.500
  0
VERTEX
  8
Unknown_Area_Type
  10
314407.000
  20
4641302.000
  0
VERTEX
  8
Unknown_Area_Type
  10
315520.000
  20
4640779.000
  0
VERTEX
  8
Unknown_Area_Type
  10
317208.500
  20
4641210.500
  0
VERTEX
  8
Unknown_Area_Type
  10
317361.000
  20
4645053.000
  0
VERTEX
  8
Unknown_Area_Type
  10
316899.000
  20
4645328.000
  0
VERTEX
  8
Unknown_Area_Type
  10
315021.000
  20
4645195.000
  0
SEQEND
  8
Unknown_Area_Type
  0
INSERT
  8
FeatureAttribs
  2
FEATURE
  41
1
  42
1
  43
1
  50
0
  10
313090.868
  20
4643266.817
 66
1
  0
ATTRIB
  8
FeatureAttribs
 70
0
  1
PNOA-H_AMS_1956-57_33k_ES_PAN_2
  2
NAME
  10
313090.868
  20
4643266.817
 40
34.11356
  0
SEQEND
  0
POLYLINE
  8
Unknown_Area_Type
  70
1
  66
1
  0
VERTEX
  8
Unknown_Area_Type
  10
313892.500
  20
4645570.000
  0
VERTEX
  8
Unknown_Area_Type
  10
314605.000
  20
4645165.500
  0
VERTEX
  8
Unknown_Area_Type
  10
314407.000
  20
4641302.000
  0
VERTEX
  8
Unknown_Area_Type
  10
312794.500
  20
4640887.500
  0
VERTEX
  8
Unknown_Area_Type
  10
311544.500
  20
4641438.000
  0
VERTEX
  8
Unknown_Area_Type
  10
311795.500
  20
4645322.000
  0
VERTEX
  8
Unknown_Area_Type
  10
313888.000
  20
4645569.500
  0
VERTEX
  8
Unknown_Area_Type
  10
313892.500
  20
4645570.000
  0
SEQEND
  8
Unknown_Area_Type
  0
INSERT
  8
FeatureAttribs
  2
FEATURE
  41
1
  42
1
  43
1
  50
0
  10
313090.868
  20
4643266.817
 66
1
  0
ATTRIB
  8
FeatureAttribs
 70
0
  1
PNOA-H_AMS_1956-57_33k_ES_PAN_2
  2
NAME
  10
313090.868
  20
4643266.817
 40
34.11356
  0
SEQEND
  0
POLYLINE
  8
Unknown_Area_Type
  70
1
  66
1
  0
VERTEX
  8
Unknown_Area_Type
  10
313892.500
  20
4645570.000
  0
VERTEX
  8
Unknown_Area_Type
  10
313888.000
  20
4645569.500
  0
VERTEX
  8
Unknown_Area_Type
  10
311795.500
  20
4645322.000
  0
VERTEX
  8
Unknown_Area_Type
  10
311544.500
  20
4641438.000
  0
VERTEX
  8
Unknown_Area_Type
  10
312794.500
  20
4640887.500
  0
VERTEX
  8
Unknown_Area_Type
  10
314407.000
  20
4641302.000
  0
VERTEX
  8
Unknown_Area_Type
  10
314605.000
  20
4645165.500
  0
VERTEX
  8
Unknown_Area_Type
  10
313892.500
  20
4645570.000
  0
SEQEND
  8
Unknown_Area_Type
  0
INSERT
  8
FeatureAttribs
  2
FEATURE
  41
1
  42
1
  43
1
  50
0
  10
293179.858
  20
4644106.367
 66
1
  0
ATTRIB
  8
FeatureAttribs
 70
0
  1
PNOA-H_AMS_1956-57_33k_ES_PAN_2
  2
NAME
  10
293179.858
  20
4644106.367
 40
34.11356
  0
SEQEND
  0
POLYLINE
  8
Unknown_Area_Type
  70
1
  66
1
  0
VERTEX
  8
Unknown_Area_Type
  10
291841.500
  20
4646453.500
  0
VERTEX
  8
Unknown_Area_Type
  10
292851.000
  20
4646802.500
  0
VERTEX
  8
Unknown_Area_Type
  10
292852.500
  20
4646803.000
  0
VERTEX
  8
Unknown_Area_Type
  10
294684.000
  20
4646305.500
  0
VERTEX
  8
Unknown_Area_Type
  10
294533.500
  20
4641816.500
  0
VERTEX
  8
Unknown_Area_Type
  10
293141.500
  20
4641436.000
  0
VERTEX
  8
Unknown_Area_Type
  10
293103.500
  20
4641426.500
  0
VERTEX
  8
Unknown_Area_Type
  10
291708.500
  20
4641830.000
  0
VERTEX
  8
Unknown_Area_Type
  10
291841.500
  20
4646453.500
  0
SEQEND
  8
Unknown_Area_Type
  0
INSERT
  8
FeatureAttribs
  2
FEATURE
  41
1
  42
1
  43
1
  50
0
  10
293179.858
  20
4644106.367
 66
1
  0
ATTRIB
  8
FeatureAttribs
 70
0
  1
PNOA-H_AMS_1956-57_33k_ES_PAN_2
  2
NAME
  10
293179.858
  20
4644106.367
 40
34.11356
  0
SEQEND
  0
POLYLINE
  8
Unknown_Area_Type
  70
1
  66
1
  0
VERTEX
  8
Unknown_Area_Type
  10
291841.500
  20
4646453.500
  0
VERTEX
  8
Unknown_Area_Type
  10
291708.500
  20
4641830.000
  0
VERTEX
  8
Unknown_Area_Type
  10
293103.500
  20
4641426.500
  0
VERTEX
  8
Unknown_Area_Type
  10
293141.500
  20
4641436.000
  0
VERTEX
  8
Unknown_Area_Type
  10
294533.500
  20
4641816.500
  0
VERTEX
  8
Unknown_Area_Type
  10
294684.000
  20
4646305.500
  0
VERTEX
  8
Unknown_Area_Type
  10
292852.500
  20
4646803.000
  0
VERTEX
  8
Unknown_Area_Type
  10
292851.000
  20
4646802.500
  0
VERTEX
  8
Unknown_Area_Type
  10
291841.500
  20
4646453.500
  0
SEQEND
  8
Unknown_Area_Type
  0
INSERT
  8
FeatureAttribs
  2
FEATURE
  41
1
  42
1
  43
1
  50
0
  10
301778.384
  20
4643851.054
 66
1
  0
ATTRIB
  8
FeatureAttribs
 70
0
  1
PNOA-H_AMS_1956-57_33k_ES_PAN_2
  2
NAME
  10
301778.384
  20
4643851.054
 40
34.11356
  0
SEQEND
  0
POLYLINE
  8
Unknown_Area_Type
  70
1
  66
1
  0
VERTEX
  8
Unknown_Area_Type
  10
303146.000
  20
4642056.000
  0
VERTEX
  8
Unknown_Area_Type
  10
303130.000
  20
4641747.000
  0
VERTEX
  8
Unknown_Area_Type
  10
301429.000
  20
4641330.500
  0
VERTEX
  8
Unknown_Area_Type
  10
301425.500
  20
4641331.000
  0
VERTEX
  8
Unknown_Area_Type
  10
300240.500
  20
4641804.500
  0
VERTEX
  8
Unknown_Area_Type
  10
300441.000
  20
4646002.500
  0
VERTEX
  8
Unknown_Area_Type
  10
301870.500
  20
4646368.500
  0
VERTEX
  8
Unknown_Area_Type
  10
303339.500
  20
4645853.500
  0
VERTEX
  8
Unknown_Area_Type
  10
303146.000
  20
4642065.000
  0
VERTEX
  8
Unknown_Area_Type
  10
303146.000
  20
4642056.000
  0
SEQEND
  8
Unknown_Area_Type
  0
INSERT
  8
FeatureAttribs
  2
FEATURE
  41
1
  42
1
  43
1
  50
0
  10
301778.384
  20
4643851.054
 66
1
  0
ATTRIB
  8
FeatureAttribs
 70
0
  1
PNOA-H_AMS_1956-57_33k_ES_PAN_2
  2
NAME
  10
301778.384
  20
4643851.054
 40
34.11356
  0
SEQEND
  0
POLYLINE
  8
Unknown_Area_Type
  70
1
  66
1
  0
VERTEX
  8
Unknown_Area_Type
  10
303146.000
  20
4642056.000
  0
VERTEX
  8
Unknown_Area_Type
  10
303146.000
  20
4642065.000
  0
VERTEX
  8
Unknown_Area_Type
  10
303339.500
  20
4645853.500
  0
VERTEX
  8
Unknown_Area_Type
  10
301870.500
  20
4646368.500
  0
VERTEX
  8
Unknown_Area_Type
  10
300441.000
  20
4646002.500
  0
VERTEX
  8
Unknown_Area_Type
  10
300240.500
  20
4641804.500
  0
VERTEX
  8
Unknown_Area_Type
  10
301425.500
  20
4641331.000
  0
VERTEX
  8
Unknown_Area_Type
  10
301429.000
  20
4641330.500
  0
VERTEX
  8
Unknown_Area_Type
  10
303130.000
  20
4641747.000
  0
VERTEX
  8
Unknown_Area_Type
  10
303146.000
  20
4642056.000
  0
SEQEND
  8
Unknown_Area_Type
  0
ENDSEC
  0
EOF
