  0
SECTION
  2
HEADER
  9
$ACADVER
  1
AC1009
  9
$LUNITS
  70
2
  9
$LIMMIN
  10
262997.890
  20
4634343.917
  9
$LIMMAX
  10
291223.447
  20
4653717.631
  9
$EXTMIN
  10
262997.890
  20
4634343.917
  9
$EXTMAX
  10
291223.447
  20
4653717.631
  999
Created by Global Mapper
  999
Projection: UTM
  999
Datum: ETRS89
  999
Ground Units: meters
  999
ZONE: 30
  0
ENDSEC
  0
SECTION
  2
TABLES
  0
ENDSEC
  0
SECTION
  2
BLOCKS
  0
BLOCK
  8
FeatureAttribs
  70
0
  2
FEATURE
  3
FEATURE
  10
0.00000000
  20
0.00000000
  0
ATTDEF
  8
FeatureAttribs
  70
0
  1
 
  2
NAME
  3
NAME
  10
0.00000000
  20
0.00000000
  40
1.00000000
  0
ENDBLK
  0
ENDSEC
  0
SECTION
  2
ENTITIES
  0
INSERT
  8
FeatureAttribs
  2
FEATURE
  41
1
  42
1
  43
1
  50
0
  10
263283.302
  20
4652350.284
 66
1
  0
ATTRIB
  8
FeatureAttribs
 70
0
  1
PNOA-H_AMS_1956-57_33k_ES_PAN_2
  2
NAME
  10
263283.302
  20
4652350.284
 40
34.23482
  0
SEQEND
  0
POLYLINE
  8
Unknown_Area_Type
  70
1
  66
1
  0
VERTEX
  8
Unknown_Area_Type
  10
263528.407
  20
4651141.697
  0
VERTEX
  8
Unknown_Area_Type
  10
262997.890
  20
4650982.937
  0
VERTEX
  8
Unknown_Area_Type
  10
262997.890
  20
4653717.631
  0
VERTEX
  8
Unknown_Area_Type
  10
263613.743
  20
4653717.631
  0
VERTEX
  8
Unknown_Area_Type
  10
263614.320
  20
4653717.612
  0
VERTEX
  8
Unknown_Area_Type
  10
263537.160
  20
4651404.210
  0
VERTEX
  8
Unknown_Area_Type
  10
263528.407
  20
4651141.697
  0
SEQEND
  8
Unknown_Area_Type
  0
INSERT
  8
FeatureAttribs
  2
FEATURE
  41
1
  42
1
  43
1
  50
0
  10
264059.917
  20
4652483.958
 66
1
  0
ATTRIB
  8
FeatureAttribs
 70
0
  1
PNOA-H_AMS_1956-57_33k_ES_PAN_2
  2
NAME
  10
264059.917
  20
4652483.958
 40
34.23482
  0
SEQEND
  0
POLYLINE
  8
Unknown_Area_Type
  70
1
  66
1
  0
VERTEX
  8
Unknown_Area_Type
  10
264577.258
  20
4653685.723
  0
VERTEX
  8
Unknown_Area_Type
  10
264567.000
  20
4651452.500
  0
VERTEX
  8
Unknown_Area_Type
  10
263528.407
  20
4651141.697
  0
VERTEX
  8
Unknown_Area_Type
  10
263537.160
  20
4651404.210
  0
VERTEX
  8
Unknown_Area_Type
  10
263614.320
  20
4653717.612
  0
VERTEX
  8
Unknown_Area_Type
  10
264577.258
  20
4653685.723
  0
SEQEND
  8
Unknown_Area_Type
  0
INSERT
  8
FeatureAttribs
  2
FEATURE
  41
1
  42
1
  43
1
  50
0
  10
264059.917
  20
4652483.958
 66
1
  0
ATTRIB
  8
FeatureAttribs
 70
0
  1
PNOA-H_AMS_1956-57_33k_ES_PAN_2
  2
NAME
  10
264059.917
  20
4652483.958
 40
34.23482
  0
SEQEND
  0
POLYLINE
  8
Unknown_Area_Type
  70
1
  66
1
  0
VERTEX
  8
Unknown_Area_Type
  10
264577.258
  20
4653685.723
  0
VERTEX
  8
Unknown_Area_Type
  10
263614.320
  20
4653717.612
  0
VERTEX
  8
Unknown_Area_Type
  10
263537.160
  20
4651404.210
  0
VERTEX
  8
Unknown_Area_Type
  10
263528.407
  20
4651141.697
  0
VERTEX
  8
Unknown_Area_Type
  10
264567.000
  20
4651452.500
  0
VERTEX
  8
Unknown_Area_Type
  10
264577.258
  20
4653685.723
  0
SEQEND
  8
Unknown_Area_Type
  0
INSERT
  8
FeatureAttribs
  2
FEATURE
  41
1
  42
1
  43
1
  50
0
  10
291223.433
  20
4652850.668
 66
1
  0
ATTRIB
  8
FeatureAttribs
 70
0
  1
PNOA-H_AMS_1956-57_33k_ES_PAN_2
  2
NAME
  10
291223.433
  20
4652850.668
 40
34.23482
  0
SEQEND
  0
POLYLINE
  8
Unknown_Area_Type
  70
1
  66
1
  0
VERTEX
  8
Unknown_Area_Type
  10
291223.447
  20
4652851.387
  0
VERTEX
  8
Unknown_Area_Type
  10
291223.447
  20
4652850.428
  0
VERTEX
  8
Unknown_Area_Type
  10
291223.419
  20
4652850.429
  0
VERTEX
  8
Unknown_Area_Type
  10
291223.447
  20
4652851.387
  0
SEQEND
  8
Unknown_Area_Type
  0
INSERT
  8
FeatureAttribs
  2
FEATURE
  41
1
  42
1
  43
1
  50
0
  10
291214.492
  20
4652243.314
 66
1
  0
ATTRIB
  8
FeatureAttribs
 70
0
  1
PNOA-H_AMS_1956-57_33k_ES_PAN_2
  2
NAME
  10
291214.492
  20
4652243.314
 40
34.23482
  0
SEQEND
  0
POLYLINE
  8
Unknown_Area_Type
  70
1
  66
1
  0
VERTEX
  8
Unknown_Area_Type
  10
291223.447
  20
4651647.270
  0
VERTEX
  8
Unknown_Area_Type
  10
291187.656
  20
4651636.199
  0
VERTEX
  8
Unknown_Area_Type
  10
291223.419
  20
4652850.429
  0
VERTEX
  8
Unknown_Area_Type
  10
291223.447
  20
4652850.428
  0
VERTEX
  8
Unknown_Area_Type
  10
291223.447
  20
4651647.270
  0
SEQEND
  8
Unknown_Area_Type
  0
INSERT
  8
FeatureAttribs
  2
FEATURE
  41
1
  42
1
  43
1
  50
0
  10
289860.369
  20
4652188.063
 66
1
  0
ATTRIB
  8
FeatureAttribs
 70
0
  1
PNOA-H_AMS_1956-57_33k_ES_PAN_2
  2
NAME
  10
289860.369
  20
4652188.063
 40
34.23482
  0
SEQEND
  0
POLYLINE
  8
Unknown_Area_Type
  70
1
  66
1
  0
VERTEX
  8
Unknown_Area_Type
  10
291187.656
  20
4651636.199
  0
VERTEX
  8
Unknown_Area_Type
  10
290041.000
  20
4651281.500
  0
VERTEX
  8
Unknown_Area_Type
  10
290007.500
  20
4651272.000
  0
VERTEX
  8
Unknown_Area_Type
  10
288478.500
  20
4651780.000
  0
VERTEX
  8
Unknown_Area_Type
  10
288477.500
  20
4651780.500
  0
VERTEX
  8
Unknown_Area_Type
  10
288477.500
  20
4651888.500
  0
VERTEX
  8
Unknown_Area_Type
  10
288481.878
  20
4652931.859
  0
VERTEX
  8
Unknown_Area_Type
  10
291223.419
  20
4652850.429
  0
VERTEX
  8
Unknown_Area_Type
  10
291187.656
  20
4651636.199
  0
SEQEND
  8
Unknown_Area_Type
  0
INSERT
  8
FeatureAttribs
  2
FEATURE
  41
1
  42
1
  43
1
  50
0
  10
289860.369
  20
4652188.063
 66
1
  0
ATTRIB
  8
FeatureAttribs
 70
0
  1
PNOA-H_AMS_1956-57_33k_ES_PAN_2
  2
NAME
  10
289860.369
  20
4652188.063
 40
34.23482
  0
SEQEND
  0
POLYLINE
  8
Unknown_Area_Type
  70
1
  66
1
  0
VERTEX
  8
Unknown_Area_Type
  10
291187.656
  20
4651636.199
  0
VERTEX
  8
Unknown_Area_Type
  10
291223.419
  20
4652850.429
  0
VERTEX
  8
Unknown_Area_Type
  10
288481.878
  20
4652931.859
  0
VERTEX
  8
Unknown_Area_Type
  10
288477.500
  20
4651888.500
  0
VERTEX
  8
Unknown_Area_Type
  10
288477.500
  20
4651780.500
  0
VERTEX
  8
Unknown_Area_Type
  10
288478.500
  20
4651780.000
  0
VERTEX
  8
Unknown_Area_Type
  10
290007.500
  20
4651272.000
  0
VERTEX
  8
Unknown_Area_Type
  10
290041.000
  20
4651281.500
  0
VERTEX
  8
Unknown_Area_Type
  10
291187.656
  20
4651636.199
  0
SEQEND
  8
Unknown_Area_Type
  0
INSERT
  8
FeatureAttribs
  2
FEATURE
  41
1
  42
1
  43
1
  50
0
  10
283991.421
  20
4652263.435
 66
1
  0
ATTRIB
  8
FeatureAttribs
 70
0
  1
PNOA-H_AMS_1956-57_33k_ES_PAN_2
  2
NAME
  10
283991.421
  20
4652263.435
 40
34.23482
  0
SEQEND
  0
POLYLINE
  8
Unknown_Area_Type
  70
1
  66
1
  0
VERTEX
  8
Unknown_Area_Type
  10
285471.040
  20
4653022.411
  0
VERTEX
  8
Unknown_Area_Type
  10
285484.000
  20
4651738.000
  0
VERTEX
  8
Unknown_Area_Type
  10
284025.000
  20
4651232.000
  0
VERTEX
  8
Unknown_Area_Type
  10
282559.000
  20
4651680.500
  0
VERTEX
  8
Unknown_Area_Type
  10
282535.493
  20
4653111.906
  0
VERTEX
  8
Unknown_Area_Type
  10
284321.218
  20
4653057.124
  0
VERTEX
  8
Unknown_Area_Type
  10
285471.040
  20
4653022.411
  0
SEQEND
  8
Unknown_Area_Type
  0
INSERT
  8
FeatureAttribs
  2
FEATURE
  41
1
  42
1
  43
1
  50
0
  10
283991.421
  20
4652263.435
 66
1
  0
ATTRIB
  8
FeatureAttribs
 70
0
  1
PNOA-H_AMS_1956-57_33k_ES_PAN_2
  2
NAME
  10
283991.421
  20
4652263.435
 40
34.23482
  0
SEQEND
  0
POLYLINE
  8
Unknown_Area_Type
  70
1
  66
1
  0
VERTEX
  8
Unknown_Area_Type
  10
285471.040
  20
4653022.411
  0
VERTEX
  8
Unknown_Area_Type
  10
284321.218
  20
4653057.124
  0
VERTEX
  8
Unknown_Area_Type
  10
282535.493
  20
4653111.906
  0
VERTEX
  8
Unknown_Area_Type
  10
282559.000
  20
4651680.500
  0
VERTEX
  8
Unknown_Area_Type
  10
284025.000
  20
4651232.000
  0
VERTEX
  8
Unknown_Area_Type
  10
285484.000
  20
4651738.000
  0
VERTEX
  8
Unknown_Area_Type
  10
285471.040
  20
4653022.411
  0
SEQEND
  8
Unknown_Area_Type
  0
INSERT
  8
FeatureAttribs
  2
FEATURE
  41
1
  42
1
  43
1
  50
0
  10
278114.789
  20
4652284.717
 66
1
  0
ATTRIB
  8
FeatureAttribs
 70
0
  1
PNOA-H_AMS_1956-57_33k_ES_PAN_2
  2
NAME
  10
278114.789
  20
4652284.717
 40
34.23482
  0
SEQEND
  0
POLYLINE
  8
Unknown_Area_Type
  70
1
  66
1
  0
VERTEX
  8
Unknown_Area_Type
  10
279596.451
  20
4653202.691
  0
VERTEX
  8
Unknown_Area_Type
  10
279612.500
  20
4651589.500
  0
VERTEX
  8
Unknown_Area_Type
  10
277782.500
  20
4651103.500
  0
VERTEX
  8
Unknown_Area_Type
  10
276723.000
  20
4651481.000
  0
VERTEX
  8
Unknown_Area_Type
  10
276676.793
  20
4653294.045
  0
VERTEX
  8
Unknown_Area_Type
  10
277418.969
  20
4653270.553
  0
VERTEX
  8
Unknown_Area_Type
  10
279596.451
  20
4653202.691
  0
SEQEND
  8
Unknown_Area_Type
  0
INSERT
  8
FeatureAttribs
  2
FEATURE
  41
1
  42
1
  43
1
  50
0
  10
278114.789
  20
4652284.717
 66
1
  0
ATTRIB
  8
FeatureAttribs
 70
0
  1
PNOA-H_AMS_1956-57_33k_ES_PAN_2
  2
NAME
  10
278114.789
  20
4652284.717
 40
34.23482
  0
SEQEND
  0
POLYLINE
  8
Unknown_Area_Type
  70
1
  66
1
  0
VERTEX
  8
Unknown_Area_Type
  10
279596.451
  20
4653202.691
  0
VERTEX
  8
Unknown_Area_Type
  10
277418.969
  20
4653270.553
  0
VERTEX
  8
Unknown_Area_Type
  10
276676.793
  20
4653294.045
  0
VERTEX
  8
Unknown_Area_Type
  10
276723.000
  20
4651481.000
  0
VERTEX
  8
Unknown_Area_Type
  10
277782.500
  20
4651103.500
  0
VERTEX
  8
Unknown_Area_Type
  10
279612.500
  20
4651589.500
  0
VERTEX
  8
Unknown_Area_Type
  10
279596.451
  20
4653202.691
  0
SEQEND
  8
Unknown_Area_Type
  0
INSERT
  8
FeatureAttribs
  2
FEATURE
  41
1
  42
1
  43
1
  50
0
  10
286958.151
  20
4652247.397
 66
1
  0
ATTRIB
  8
FeatureAttribs
 70
0
  1
PNOA-H_AMS_1956-57_33k_ES_PAN_2
  2
NAME
  10
286958.151
  20
4652247.397
 40
34.23482
  0
SEQEND
  0
POLYLINE
  8
Unknown_Area_Type
  70
1
  66
1
  0
VERTEX
  8
Unknown_Area_Type
  10
288482.156
  20
4652931.851
  0
VERTEX
  8
Unknown_Area_Type
  10
288477.500
  20
4651780.500
  0
VERTEX
  8
Unknown_Area_Type
  10
287021.000
  20
4651297.500
  0
VERTEX
  8
Unknown_Area_Type
  10
285484.000
  20
4651738.000
  0
VERTEX
  8
Unknown_Area_Type
  10
285471.040
  20
4653022.411
  0
VERTEX
  8
Unknown_Area_Type
  10
287772.324
  20
4652952.935
  0
VERTEX
  8
Unknown_Area_Type
  10
288482.156
  20
4652931.851
  0
SEQEND
  8
Unknown_Area_Type
  0
INSERT
  8
FeatureAttribs
  2
FEATURE
  41
1
  42
1
  43
1
  50
0
  10
286958.151
  20
4652247.397
 66
1
  0
ATTRIB
  8
FeatureAttribs
 70
0
  1
PNOA-H_AMS_1956-57_33k_ES_PAN_2
  2
NAME
  10
286958.151
  20
4652247.397
 40
34.23482
  0
SEQEND
  0
POLYLINE
  8
Unknown_Area_Type
  70
1
  66
1
  0
VERTEX
  8
Unknown_Area_Type
  10
288482.156
  20
4652931.851
  0
VERTEX
  8
Unknown_Area_Type
  10
287772.324
  20
4652952.935
  0
VERTEX
  8
Unknown_Area_Type
  10
285471.040
  20
4653022.411
  0
VERTEX
  8
Unknown_Area_Type
  10
285484.000
  20
4651738.000
  0
VERTEX
  8
Unknown_Area_Type
  10
287021.000
  20
4651297.500
  0
VERTEX
  8
Unknown_Area_Type
  10
288477.500
  20
4651780.500
  0
VERTEX
  8
Unknown_Area_Type
  10
288482.156
  20
4652931.851
  0
SEQEND
  8
Unknown_Area_Type
  0
INSERT
  8
FeatureAttribs
  2
FEATURE
  41
1
  42
1
  43
1
  50
0
  10
281042.079
  20
4652269.985
 66
1
  0
ATTRIB
  8
FeatureAttribs
 70
0
  1
PNOA-H_AMS_1956-57_33k_ES_PAN_2
  2
NAME
  10
281042.079
  20
4652269.985
 40
34.23482
  0
SEQEND
  0
POLYLINE
  8
Unknown_Area_Type
  70
1
  66
1
  0
VERTEX
  8
Unknown_Area_Type
  10
282535.494
  20
4653111.906
  0
VERTEX
  8
Unknown_Area_Type
  10
282559.000
  20
4651681.000
  0
VERTEX
  8
Unknown_Area_Type
  10
280872.000
  20
4651149.000
  0
VERTEX
  8
Unknown_Area_Type
  10
279612.500
  20
4651589.000
  0
VERTEX
  8
Unknown_Area_Type
  10
279596.448
  20
4653202.691
  0
VERTEX
  8
Unknown_Area_Type
  10
280870.099
  20
4653162.997
  0
VERTEX
  8
Unknown_Area_Type
  10
282535.494
  20
4653111.906
  0
SEQEND
  8
Unknown_Area_Type
  0
INSERT
  8
FeatureAttribs
  2
FEATURE
  41
1
  42
1
  43
1
  50
0
  10
281042.079
  20
4652269.985
 66
1
  0
ATTRIB
  8
FeatureAttribs
 70
0
  1
PNOA-H_AMS_1956-57_33k_ES_PAN_2
  2
NAME
  10
281042.079
  20
4652269.985
 40
34.23482
  0
SEQEND
  0
POLYLINE
  8
Unknown_Area_Type
  70
1
  66
1
  0
VERTEX
  8
Unknown_Area_Type
  10
282535.494
  20
4653111.906
  0
VERTEX
  8
Unknown_Area_Type
  10
280870.099
  20
4653162.997
  0
VERTEX
  8
Unknown_Area_Type
  10
279596.448
  20
4653202.691
  0
VERTEX
  8
Unknown_Area_Type
  10
279612.500
  20
4651589.000
  0
VERTEX
  8
Unknown_Area_Type
  10
280872.000
  20
4651149.000
  0
VERTEX
  8
Unknown_Area_Type
  10
282559.000
  20
4651681.000
  0
VERTEX
  8
Unknown_Area_Type
  10
282535.494
  20
4653111.906
  0
SEQEND
  8
Unknown_Area_Type
  0
INSERT
  8
FeatureAttribs
  2
FEATURE
  41
1
  42
1
  43
1
  50
0
  10
272179.637
  20
4652303.533
 66
1
  0
ATTRIB
  8
FeatureAttribs
 70
0
  1
PNOA-H_AMS_1956-57_33k_ES_PAN_2
  2
NAME
  10
272179.637
  20
4652303.533
 40
34.23482
  0
SEQEND
  0
POLYLINE
  8
Unknown_Area_Type
  70
1
  66
1
  0
VERTEX
  8
Unknown_Area_Type
  10
273699.095
  20
4653388.429
  0
VERTEX
  8
Unknown_Area_Type
  10
273739.000
  20
4651415.500
  0
VERTEX
  8
Unknown_Area_Type
  10
271901.000
  20
4650952.000
  0
VERTEX
  8
Unknown_Area_Type
  10
271894.500
  20
4650953.000
  0
VERTEX
  8
Unknown_Area_Type
  10
270715.000
  20
4651374.000
  0
VERTEX
  8
Unknown_Area_Type
  10
270660.885
  20
4653486.080
  0
VERTEX
  8
Unknown_Area_Type
  10
273699.095
  20
4653388.429
  0
SEQEND
  8
Unknown_Area_Type
  0
INSERT
  8
FeatureAttribs
  2
FEATURE
  41
1
  42
1
  43
1
  50
0
  10
272179.637
  20
4652303.533
 66
1
  0
ATTRIB
  8
FeatureAttribs
 70
0
  1
PNOA-H_AMS_1956-57_33k_ES_PAN_2
  2
NAME
  10
272179.637
  20
4652303.533
 40
34.23482
  0
SEQEND
  0
POLYLINE
  8
Unknown_Area_Type
  70
1
  66
1
  0
VERTEX
  8
Unknown_Area_Type
  10
273699.095
  20
4653388.429
  0
VERTEX
  8
Unknown_Area_Type
  10
270660.885
  20
4653486.080
  0
VERTEX
  8
Unknown_Area_Type
  10
270715.000
  20
4651374.000
  0
VERTEX
  8
Unknown_Area_Type
  10
271894.500
  20
4650953.000
  0
VERTEX
  8
Unknown_Area_Type
  10
271901.000
  20
4650952.000
  0
VERTEX
  8
Unknown_Area_Type
  10
273739.000
  20
4651415.500
  0
VERTEX
  8
Unknown_Area_Type
  10
273699.095
  20
4653388.429
  0
SEQEND
  8
Unknown_Area_Type
  0
INSERT
  8
FeatureAttribs
  2
FEATURE
  41
1
  42
1
  43
1
  50
0
  10
275178.643
  20
4652286.552
 66
1
  0
ATTRIB
  8
FeatureAttribs
 70
0
  1
PNOA-H_AMS_1956-57_33k_ES_PAN_2
  2
NAME
  10
275178.643
  20
4652286.552
 40
34.23482
  0
SEQEND
  0
POLYLINE
  8
Unknown_Area_Type
  70
1
  66
1
  0
VERTEX
  8
Unknown_Area_Type
  10
276676.793
  20
4653294.045
  0
VERTEX
  8
Unknown_Area_Type
  10
276723.000
  20
4651481.000
  0
VERTEX
  8
Unknown_Area_Type
  10
274806.000
  20
4651023.500
  0
VERTEX
  8
Unknown_Area_Type
  10
274791.500
  20
4651028.000
  0
VERTEX
  8
Unknown_Area_Type
  10
273739.000
  20
4651415.500
  0
VERTEX
  8
Unknown_Area_Type
  10
273699.100
  20
4653388.429
  0
VERTEX
  8
Unknown_Area_Type
  10
273967.826
  20
4653379.792
  0
VERTEX
  8
Unknown_Area_Type
  10
276676.793
  20
4653294.045
  0
SEQEND
  8
Unknown_Area_Type
  0
INSERT
  8
FeatureAttribs
  2
FEATURE
  41
1
  42
1
  43
1
  50
0
  10
275178.643
  20
4652286.552
 66
1
  0
ATTRIB
  8
FeatureAttribs
 70
0
  1
PNOA-H_AMS_1956-57_33k_ES_PAN_2
  2
NAME
  10
275178.643
  20
4652286.552
 40
34.23482
  0
SEQEND
  0
POLYLINE
  8
Unknown_Area_Type
  70
1
  66
1
  0
VERTEX
  8
Unknown_Area_Type
  10
276676.793
  20
4653294.045
  0
VERTEX
  8
Unknown_Area_Type
  10
273967.826
  20
4653379.792
  0
VERTEX
  8
Unknown_Area_Type
  10
273699.100
  20
4653388.429
  0
VERTEX
  8
Unknown_Area_Type
  10
273739.000
  20
4651415.500
  0
VERTEX
  8
Unknown_Area_Type
  10
274791.500
  20
4651028.000
  0
VERTEX
  8
Unknown_Area_Type
  10
274806.000
  20
4651023.500
  0
VERTEX
  8
Unknown_Area_Type
  10
276723.000
  20
4651481.000
  0
VERTEX
  8
Unknown_Area_Type
  10
276676.793
  20
4653294.045
  0
SEQEND
  8
Unknown_Area_Type
  0
INSERT
  8
FeatureAttribs
  2
FEATURE
  41
1
  42
1
  43
1
  50
0
  10
266101.004
  20
4652397.308
 66
1
  0
ATTRIB
  8
FeatureAttribs
 70
0
  1
PNOA-H_AMS_1956-57_33k_ES_PAN_2
  2
NAME
  10
266101.004
  20
4652397.308
 40
34.23482
  0
SEQEND
  0
POLYLINE
  8
Unknown_Area_Type
  70
1
  66
1
  0
VERTEX
  8
Unknown_Area_Type
  10
267642.489
  20
4653584.495
  0
VERTEX
  8
Unknown_Area_Type
  10
267646.000
  20
4651386.500
  0
VERTEX
  8
Unknown_Area_Type
  10
266009.000
  20
4650922.000
  0
VERTEX
  8
Unknown_Area_Type
  10
264567.000
  20
4651452.500
  0
VERTEX
  8
Unknown_Area_Type
  10
264577.258
  20
4653685.723
  0
VERTEX
  8
Unknown_Area_Type
  10
267065.501
  20
4653603.322
  0
VERTEX
  8
Unknown_Area_Type
  10
267642.489
  20
4653584.495
  0
SEQEND
  8
Unknown_Area_Type
  0
INSERT
  8
FeatureAttribs
  2
FEATURE
  41
1
  42
1
  43
1
  50
0
  10
266101.004
  20
4652397.308
 66
1
  0
ATTRIB
  8
FeatureAttribs
 70
0
  1
PNOA-H_AMS_1956-57_33k_ES_PAN_2
  2
NAME
  10
266101.004
  20
4652397.308
 40
34.23482
  0
SEQEND
  0
POLYLINE
  8
Unknown_Area_Type
  70
1
  66
1
  0
VERTEX
  8
Unknown_Area_Type
  10
267642.489
  20
4653584.495
  0
VERTEX
  8
Unknown_Area_Type
  10
267065.501
  20
4653603.322
  0
VERTEX
  8
Unknown_Area_Type
  10
264577.258
  20
4653685.723
  0
VERTEX
  8
Unknown_Area_Type
  10
264567.000
  20
4651452.500
  0
VERTEX
  8
Unknown_Area_Type
  10
266009.000
  20
4650922.000
  0
VERTEX
  8
Unknown_Area_Type
  10
267646.000
  20
4651386.500
  0
VERTEX
  8
Unknown_Area_Type
  10
267642.489
  20
4653584.495
  0
SEQEND
  8
Unknown_Area_Type
  0
INSERT
  8
FeatureAttribs
  2
FEATURE
  41
1
  42
1
  43
1
  50
0
  10
269152.495
  20
4652334.458
 66
1
  0
ATTRIB
  8
FeatureAttribs
 70
0
  1
PNOA-H_AMS_1956-57_33k_ES_PAN_2
  2
NAME
  10
269152.495
  20
4652334.458
 40
34.23482
  0
SEQEND
  0
POLYLINE
  8
Unknown_Area_Type
  70
1
  66
1
  0
VERTEX
  8
Unknown_Area_Type
  10
270661.074
  20
4653486.074
  0
VERTEX
  8
Unknown_Area_Type
  10
270715.000
  20
4651389.500
  0
VERTEX
  8
Unknown_Area_Type
  10
270714.500
  20
4651373.500
  0
VERTEX
  8
Unknown_Area_Type
  10
268997.000
  20
4650917.000
  0
VERTEX
  8
Unknown_Area_Type
  10
267646.000
  20
4651386.500
  0
VERTEX
  8
Unknown_Area_Type
  10
267642.489
  20
4653584.495
  0
VERTEX
  8
Unknown_Area_Type
  10
270516.670
  20
4653490.715
  0
VERTEX
  8
Unknown_Area_Type
  10
270661.074
  20
4653486.074
  0
SEQEND
  8
Unknown_Area_Type
  0
INSERT
  8
FeatureAttribs
  2
FEATURE
  41
1
  42
1
  43
1
  50
0
  10
269152.495
  20
4652334.458
 66
1
  0
ATTRIB
  8
FeatureAttribs
 70
0
  1
PNOA-H_AMS_1956-57_33k_ES_PAN_2
  2
NAME
  10
269152.495
  20
4652334.458
 40
34.23482
  0
SEQEND
  0
POLYLINE
  8
Unknown_Area_Type
  70
1
  66
1
  0
VERTEX
  8
Unknown_Area_Type
  10
270661.074
  20
4653486.074
  0
VERTEX
  8
Unknown_Area_Type
  10
270516.670
  20
4653490.715
  0
VERTEX
  8
Unknown_Area_Type
  10
267642.489
  20
4653584.495
  0
VERTEX
  8
Unknown_Area_Type
  10
267646.000
  20
4651386.500
  0
VERTEX
  8
Unknown_Area_Type
  10
268997.000
  20
4650917.000
  0
VERTEX
  8
Unknown_Area_Type
  10
270714.500
  20
4651373.500
  0
VERTEX
  8
Unknown_Area_Type
  10
270715.000
  20
4651389.500
  0
VERTEX
  8
Unknown_Area_Type
  10
270661.074
  20
4653486.074
  0
SEQEND
  8
Unknown_Area_Type
  0
INSERT
  8
FeatureAttribs
  2
FEATURE
  41
1
  42
1
  43
1
  50
0
  10
270434.951
  20
4648992.607
 66
1
  0
ATTRIB
  8
FeatureAttribs
 70
0
  1
PNOA-H_AMS_1956-57_33k_ES_PAN_2
  2
NAME
  10
270434.951
  20
4648992.607
 40
34.23482
  0
SEQEND
  0
POLYLINE
  8
Unknown_Area_Type
  70
1
  66
1
  0
VERTEX
  8
Unknown_Area_Type
  10
270714.500
  20
4651374.000
  0
VERTEX
  8
Unknown_Area_Type
  10
271899.000
  20
4650952.000
  0
VERTEX
  8
Unknown_Area_Type
  10
271925.000
  20
4646950.000
  0
VERTEX
  8
Unknown_Area_Type
  10
269235.000
  20
4646758.500
  0
VERTEX
  8
Unknown_Area_Type
  10
268927.000
  20
4646958.000
  0
VERTEX
  8
Unknown_Area_Type
  10
268997.500
  20
4650917.000
  0
VERTEX
  8
Unknown_Area_Type
  10
270712.500
  20
4651373.500
  0
VERTEX
  8
Unknown_Area_Type
  10
270714.500
  20
4651374.000
  0
SEQEND
  8
Unknown_Area_Type
  0
INSERT
  8
FeatureAttribs
  2
FEATURE
  41
1
  42
1
  43
1
  50
0
  10
270434.951
  20
4648992.607
 66
1
  0
ATTRIB
  8
FeatureAttribs
 70
0
  1
PNOA-H_AMS_1956-57_33k_ES_PAN_2
  2
NAME
  10
270434.951
  20
4648992.607
 40
34.23482
  0
SEQEND
  0
POLYLINE
  8
Unknown_Area_Type
  70
1
  66
1
  0
VERTEX
  8
Unknown_Area_Type
  10
270714.500
  20
4651374.000
  0
VERTEX
  8
Unknown_Area_Type
  10
270712.500
  20
4651373.500
  0
VERTEX
  8
Unknown_Area_Type
  10
268997.500
  20
4650917.000
  0
VERTEX
  8
Unknown_Area_Type
  10
268927.000
  20
4646958.000
  0
VERTEX
  8
Unknown_Area_Type
  10
269235.000
  20
4646758.500
  0
VERTEX
  8
Unknown_Area_Type
  10
271925.000
  20
4646950.000
  0
VERTEX
  8
Unknown_Area_Type
  10
271899.000
  20
4650952.000
  0
VERTEX
  8
Unknown_Area_Type
  10
270714.500
  20
4651374.000
  0
SEQEND
  8
Unknown_Area_Type
  0
INSERT
  8
FeatureAttribs
  2
FEATURE
  41
1
  42
1
  43
1
  50
0
  10
267453.347
  20
4648983.785
 66
1
  0
ATTRIB
  8
FeatureAttribs
 70
0
  1
PNOA-H_AMS_1956-57_33k_ES_PAN_2
  2
NAME
  10
267453.347
  20
4648983.785
 40
34.23482
  0
SEQEND
  0
POLYLINE
  8
Unknown_Area_Type
  70
1
  66
1
  0
VERTEX
  8
Unknown_Area_Type
  10
267922.000
  20
4651290.500
  0
VERTEX
  8
Unknown_Area_Type
  10
268997.500
  20
4650917.000
  0
VERTEX
  8
Unknown_Area_Type
  10
268927.000
  20
4646958.500
  0
VERTEX
  8
Unknown_Area_Type
  10
266442.500
  20
4646677.000
  0
VERTEX
  8
Unknown_Area_Type
  10
265907.000
  20
4646986.500
  0
VERTEX
  8
Unknown_Area_Type
  10
266009.500
  20
4650922.000
  0
VERTEX
  8
Unknown_Area_Type
  10
267644.500
  20
4651386.500
  0
VERTEX
  8
Unknown_Area_Type
  10
267667.000
  20
4651379.500
  0
VERTEX
  8
Unknown_Area_Type
  10
267920.000
  20
4651291.000
  0
VERTEX
  8
Unknown_Area_Type
  10
267922.000
  20
4651290.500
  0
SEQEND
  8
Unknown_Area_Type
  0
INSERT
  8
FeatureAttribs
  2
FEATURE
  41
1
  42
1
  43
1
  50
0
  10
267453.347
  20
4648983.785
 66
1
  0
ATTRIB
  8
FeatureAttribs
 70
0
  1
PNOA-H_AMS_1956-57_33k_ES_PAN_2
  2
NAME
  10
267453.347
  20
4648983.785
 40
34.23482
  0
SEQEND
  0
POLYLINE
  8
Unknown_Area_Type
  70
1
  66
1
  0
VERTEX
  8
Unknown_Area_Type
  10
267922.000
  20
4651290.500
  0
VERTEX
  8
Unknown_Area_Type
  10
267920.000
  20
4651291.000
  0
VERTEX
  8
Unknown_Area_Type
  10
267667.000
  20
4651379.500
  0
VERTEX
  8
Unknown_Area_Type
  10
267644.500
  20
4651386.500
  0
VERTEX
  8
Unknown_Area_Type
  10
266009.500
  20
4650922.000
  0
VERTEX
  8
Unknown_Area_Type
  10
265907.000
  20
4646986.500
  0
VERTEX
  8
Unknown_Area_Type
  10
266442.500
  20
4646677.000
  0
VERTEX
  8
Unknown_Area_Type
  10
268927.000
  20
4646958.500
  0
VERTEX
  8
Unknown_Area_Type
  10
268997.500
  20
4650917.000
  0
VERTEX
  8
Unknown_Area_Type
  10
267922.000
  20
4651290.500
  0
SEQEND
  8
Unknown_Area_Type
  0
INSERT
  8
FeatureAttribs
  2
FEATURE
  41
1
  42
1
  43
1
  50
0
  10
276386.288
  20
4649078.054
 66
1
  0
ATTRIB
  8
FeatureAttribs
 70
0
  1
PNOA-H_AMS_1956-57_33k_ES_PAN_2
  2
NAME
  10
276386.288
  20
4649078.054
 40
34.23482
  0
SEQEND
  0
POLYLINE
  8
Unknown_Area_Type
  70
1
  66
1
  0
VERTEX
  8
Unknown_Area_Type
  10
276722.000
  20
4651481.000
  0
VERTEX
  8
Unknown_Area_Type
  10
277782.000
  20
4651103.500
  0
VERTEX
  8
Unknown_Area_Type
  10
277958.500
  20
4646986.000
  0
VERTEX
  8
Unknown_Area_Type
  10
277761.500
  20
4646852.000
  0
VERTEX
  8
Unknown_Area_Type
  10
274950.500
  20
4646932.500
  0
VERTEX
  8
Unknown_Area_Type
  10
274805.000
  20
4651023.500
  0
VERTEX
  8
Unknown_Area_Type
  10
276719.500
  20
4651480.500
  0
VERTEX
  8
Unknown_Area_Type
  10
276722.000
  20
4651481.000
  0
SEQEND
  8
Unknown_Area_Type
  0
INSERT
  8
FeatureAttribs
  2
FEATURE
  41
1
  42
1
  43
1
  50
0
  10
276386.288
  20
4649078.054
 66
1
  0
ATTRIB
  8
FeatureAttribs
 70
0
  1
PNOA-H_AMS_1956-57_33k_ES_PAN_2
  2
NAME
  10
276386.288
  20
4649078.054
 40
34.23482
  0
SEQEND
  0
POLYLINE
  8
Unknown_Area_Type
  70
1
  66
1
  0
VERTEX
  8
Unknown_Area_Type
  10
276722.000
  20
4651481.000
  0
VERTEX
  8
Unknown_Area_Type
  10
276719.500
  20
4651480.500
  0
VERTEX
  8
Unknown_Area_Type
  10
274805.000
  20
4651023.500
  0
VERTEX
  8
Unknown_Area_Type
  10
274950.500
  20
4646932.500
  0
VERTEX
  8
Unknown_Area_Type
  10
277761.500
  20
4646852.000
  0
VERTEX
  8
Unknown_Area_Type
  10
277958.500
  20
4646986.000
  0
VERTEX
  8
Unknown_Area_Type
  10
277782.000
  20
4651103.500
  0
VERTEX
  8
Unknown_Area_Type
  10
276722.000
  20
4651481.000
  0
SEQEND
  8
Unknown_Area_Type
  0
INSERT
  8
FeatureAttribs
  2
FEATURE
  41
1
  42
1
  43
1
  50
0
  10
263226.244
  20
4648927.764
 66
1
  0
ATTRIB
  8
FeatureAttribs
 70
0
  1
PNOA-H_AMS_1956-57_33k_ES_PAN_2
  2
NAME
  10
263226.244
  20
4648927.764
 40
34.23482
  0
SEQEND
  0
POLYLINE
  8
Unknown_Area_Type
  70
1
  66
1
  0
VERTEX
  8
Unknown_Area_Type
  10
263528.420
  20
4651142.083
  0
VERTEX
  8
Unknown_Area_Type
  10
263460.031
  20
4649090.814
  0
VERTEX
  8
Unknown_Area_Type
  10
263382.934
  20
4646777.424
  0
VERTEX
  8
Unknown_Area_Type
  10
263380.802
  20
4646713.444
  0
VERTEX
  8
Unknown_Area_Type
  10
262997.890
  20
4646900.854
  0
VERTEX
  8
Unknown_Area_Type
  10
262997.890
  20
4650983.385
  0
VERTEX
  8
Unknown_Area_Type
  10
263528.420
  20
4651142.083
  0
SEQEND
  8
Unknown_Area_Type
  0
INSERT
  8
FeatureAttribs
  2
FEATURE
  41
1
  42
1
  43
1
  50
0
  10
264676.106
  20
4648997.581
 66
1
  0
ATTRIB
  8
FeatureAttribs
 70
0
  1
PNOA-H_AMS_1956-57_33k_ES_PAN_2
  2
NAME
  10
264676.106
  20
4648997.581
 40
34.23482
  0
SEQEND
  0
POLYLINE
  8
Unknown_Area_Type
  70
1
  66
1
  0
VERTEX
  8
Unknown_Area_Type
  10
263528.420
  20
4651142.083
  0
VERTEX
  8
Unknown_Area_Type
  10
263824.000
  20
4651230.500
  0
VERTEX
  8
Unknown_Area_Type
  10
263825.500
  20
4651231.000
  0
VERTEX
  8
Unknown_Area_Type
  10
264568.000
  20
4651452.500
  0
VERTEX
  8
Unknown_Area_Type
  10
266009.500
  20
4650922.000
  0
VERTEX
  8
Unknown_Area_Type
  10
265908.500
  20
4647027.500
  0
VERTEX
  8
Unknown_Area_Type
  10
265907.500
  20
4646989.500
  0
VERTEX
  8
Unknown_Area_Type
  10
265906.000
  20
4646986.000
  0
VERTEX
  8
Unknown_Area_Type
  10
263647.000
  20
4646584.500
  0
VERTEX
  8
Unknown_Area_Type
  10
263644.500
  20
4646584.500
  0
VERTEX
  8
Unknown_Area_Type
  10
263632.000
  20
4646590.500
  0
VERTEX
  8
Unknown_Area_Type
  10
263380.802
  20
4646713.444
  0
VERTEX
  8
Unknown_Area_Type
  10
263382.934
  20
4646777.424
  0
VERTEX
  8
Unknown_Area_Type
  10
263460.031
  20
4649090.814
  0
VERTEX
  8
Unknown_Area_Type
  10
263528.420
  20
4651142.083
  0
SEQEND
  8
Unknown_Area_Type
  0
INSERT
  8
FeatureAttribs
  2
FEATURE
  41
1
  42
1
  43
1
  50
0
  10
264676.106
  20
4648997.581
 66
1
  0
ATTRIB
  8
FeatureAttribs
 70
0
  1
PNOA-H_AMS_1956-57_33k_ES_PAN_2
  2
NAME
  10
264676.106
  20
4648997.581
 40
34.23482
  0
SEQEND
  0
POLYLINE
  8
Unknown_Area_Type
  70
1
  66
1
  0
VERTEX
  8
Unknown_Area_Type
  10
263528.420
  20
4651142.083
  0
VERTEX
  8
Unknown_Area_Type
  10
263460.031
  20
4649090.814
  0
VERTEX
  8
Unknown_Area_Type
  10
263382.934
  20
4646777.424
  0
VERTEX
  8
Unknown_Area_Type
  10
263380.802
  20
4646713.444
  0
VERTEX
  8
Unknown_Area_Type
  10
263632.000
  20
4646590.500
  0
VERTEX
  8
Unknown_Area_Type
  10
263644.500
  20
4646584.500
  0
VERTEX
  8
Unknown_Area_Type
  10
263647.000
  20
4646584.500
  0
VERTEX
  8
Unknown_Area_Type
  10
265906.000
  20
4646986.000
  0
VERTEX
  8
Unknown_Area_Type
  10
265907.500
  20
4646989.500
  0
VERTEX
  8
Unknown_Area_Type
  10
265908.500
  20
4647027.500
  0
VERTEX
  8
Unknown_Area_Type
  10
266009.500
  20
4650922.000
  0
VERTEX
  8
Unknown_Area_Type
  10
264568.000
  20
4651452.500
  0
VERTEX
  8
Unknown_Area_Type
  10
263825.500
  20
4651231.000
  0
VERTEX
  8
Unknown_Area_Type
  10
263824.000
  20
4651230.500
  0
VERTEX
  8
Unknown_Area_Type
  10
263528.420
  20
4651142.083
  0
SEQEND
  8
Unknown_Area_Type
  0
INSERT
  8
FeatureAttribs
  2
FEATURE
  41
1
  42
1
  43
1
  50
0
  10
282528.419
  20
4649176.800
 66
1
  0
ATTRIB
  8
FeatureAttribs
 70
0
  1
PNOA-H_AMS_1956-57_33k_ES_PAN_2
  2
NAME
  10
282528.419
  20
4649176.800
 40
34.23482
  0
SEQEND
  0
POLYLINE
  8
Unknown_Area_Type
  70
1
  66
1
  0
VERTEX
  8
Unknown_Area_Type
  10
282558.500
  20
4651681.000
  0
VERTEX
  8
Unknown_Area_Type
  10
284024.000
  20
4651232.000
  0
VERTEX
  8
Unknown_Area_Type
  10
284110.500
  20
4647031.500
  0
VERTEX
  8
Unknown_Area_Type
  10
283467.500
  20
4646736.500
  0
VERTEX
  8
Unknown_Area_Type
  10
281044.500
  20
4647054.000
  0
VERTEX
  8
Unknown_Area_Type
  10
280871.000
  20
4651149.000
  0
VERTEX
  8
Unknown_Area_Type
  10
282557.000
  20
4651680.500
  0
VERTEX
  8
Unknown_Area_Type
  10
282558.500
  20
4651681.000
  0
SEQEND
  8
Unknown_Area_Type
  0
INSERT
  8
FeatureAttribs
  2
FEATURE
  41
1
  42
1
  43
1
  50
0
  10
282528.419
  20
4649176.800
 66
1
  0
ATTRIB
  8
FeatureAttribs
 70
0
  1
PNOA-H_AMS_1956-57_33k_ES_PAN_2
  2
NAME
  10
282528.419
  20
4649176.800
 40
34.23482
  0
SEQEND
  0
POLYLINE
  8
Unknown_Area_Type
  70
1
  66
1
  0
VERTEX
  8
Unknown_Area_Type
  10
282558.500
  20
4651681.000
  0
VERTEX
  8
Unknown_Area_Type
  10
282557.000
  20
4651680.500
  0
VERTEX
  8
Unknown_Area_Type
  10
280871.000
  20
4651149.000
  0
VERTEX
  8
Unknown_Area_Type
  10
281044.500
  20
4647054.000
  0
VERTEX
  8
Unknown_Area_Type
  10
283467.500
  20
4646736.500
  0
VERTEX
  8
Unknown_Area_Type
  10
284110.500
  20
4647031.500
  0
VERTEX
  8
Unknown_Area_Type
  10
284024.000
  20
4651232.000
  0
VERTEX
  8
Unknown_Area_Type
  10
282558.500
  20
4651681.000
  0
SEQEND
  8
Unknown_Area_Type
  0
INSERT
  8
FeatureAttribs
  2
FEATURE
  41
1
  42
1
  43
1
  50
0
  10
273401.813
  20
4649024.035
 66
1
  0
ATTRIB
  8
FeatureAttribs
 70
0
  1
PNOA-H_AMS_1956-57_33k_ES_PAN_2
  2
NAME
  10
273401.813
  20
4649024.035
 40
34.23482
  0
SEQEND
  0
POLYLINE
  8
Unknown_Area_Type
  70
1
  66
1
  0
VERTEX
  8
Unknown_Area_Type
  10
272016.000
  20
4650981.500
  0
VERTEX
  8
Unknown_Area_Type
  10
273738.500
  20
4651415.500
  0
VERTEX
  8
Unknown_Area_Type
  10
274805.000
  20
4651023.500
  0
VERTEX
  8
Unknown_Area_Type
  10
274950.500
  20
4646938.000
  0
VERTEX
  8
Unknown_Area_Type
  10
274950.500
  20
4646932.500
  0
VERTEX
  8
Unknown_Area_Type
  10
274949.500
  20
4646931.500
  0
VERTEX
  8
Unknown_Area_Type
  10
274906.000
  20
4646899.000
  0
VERTEX
  8
Unknown_Area_Type
  10
272058.500
  20
4646853.500
  0
VERTEX
  8
Unknown_Area_Type
  10
271925.000
  20
4646950.000
  0
VERTEX
  8
Unknown_Area_Type
  10
271899.000
  20
4650952.000
  0
VERTEX
  8
Unknown_Area_Type
  10
272014.000
  20
4650981.000
  0
VERTEX
  8
Unknown_Area_Type
  10
272016.000
  20
4650981.500
  0
SEQEND
  8
Unknown_Area_Type
  0
INSERT
  8
FeatureAttribs
  2
FEATURE
  41
1
  42
1
  43
1
  50
0
  10
273401.813
  20
4649024.035
 66
1
  0
ATTRIB
  8
FeatureAttribs
 70
0
  1
PNOA-H_AMS_1956-57_33k_ES_PAN_2
  2
NAME
  10
273401.813
  20
4649024.035
 40
34.23482
  0
SEQEND
  0
POLYLINE
  8
Unknown_Area_Type
  70
1
  66
1
  0
VERTEX
  8
Unknown_Area_Type
  10
272016.000
  20
4650981.500
  0
VERTEX
  8
Unknown_Area_Type
  10
272014.000
  20
4650981.000
  0
VERTEX
  8
Unknown_Area_Type
  10
271899.000
  20
4650952.000
  0
VERTEX
  8
Unknown_Area_Type
  10
271925.000
  20
4646950.000
  0
VERTEX
  8
Unknown_Area_Type
  10
272058.500
  20
4646853.500
  0
VERTEX
  8
Unknown_Area_Type
  10
274906.000
  20
4646899.000
  0
VERTEX
  8
Unknown_Area_Type
  10
274949.500
  20
4646931.500
  0
VERTEX
  8
Unknown_Area_Type
  10
274950.500
  20
4646932.500
  0
VERTEX
  8
Unknown_Area_Type
  10
274950.500
  20
4646938.000
  0
VERTEX
  8
Unknown_Area_Type
  10
274805.000
  20
4651023.500
  0
VERTEX
  8
Unknown_Area_Type
  10
273738.500
  20
4651415.500
  0
VERTEX
  8
Unknown_Area_Type
  10
272016.000
  20
4650981.500
  0
SEQEND
  8
Unknown_Area_Type
  0
INSERT
  8
FeatureAttribs
  2
FEATURE
  41
1
  42
1
  43
1
  50
0
  10
279425.599
  20
4649129.538
 66
1
  0
ATTRIB
  8
FeatureAttribs
 70
0
  1
PNOA-H_AMS_1956-57_33k_ES_PAN_2
  2
NAME
  10
279425.599
  20
4649129.538
 40
34.23482
  0
SEQEND
  0
POLYLINE
  8
Unknown_Area_Type
  70
1
  66
1
  0
VERTEX
  8
Unknown_Area_Type
  10
278161.500
  20
4651204.500
  0
VERTEX
  8
Unknown_Area_Type
  10
279612.500
  20
4651589.500
  0
VERTEX
  8
Unknown_Area_Type
  10
280871.000
  20
4651149.000
  0
VERTEX
  8
Unknown_Area_Type
  10
281044.500
  20
4647054.000
  0
VERTEX
  8
Unknown_Area_Type
  10
280628.000
  20
4646803.500
  0
VERTEX
  8
Unknown_Area_Type
  10
277958.500
  20
4646986.000
  0
VERTEX
  8
Unknown_Area_Type
  10
277782.000
  20
4651103.500
  0
VERTEX
  8
Unknown_Area_Type
  10
278159.500
  20
4651204.000
  0
VERTEX
  8
Unknown_Area_Type
  10
278161.500
  20
4651204.500
  0
SEQEND
  8
Unknown_Area_Type
  0
INSERT
  8
FeatureAttribs
  2
FEATURE
  41
1
  42
1
  43
1
  50
0
  10
279425.599
  20
4649129.538
 66
1
  0
ATTRIB
  8
FeatureAttribs
 70
0
  1
PNOA-H_AMS_1956-57_33k_ES_PAN_2
  2
NAME
  10
279425.599
  20
4649129.538
 40
34.23482
  0
SEQEND
  0
POLYLINE
  8
Unknown_Area_Type
  70
1
  66
1
  0
VERTEX
  8
Unknown_Area_Type
  10
278161.500
  20
4651204.500
  0
VERTEX
  8
Unknown_Area_Type
  10
278159.500
  20
4651204.000
  0
VERTEX
  8
Unknown_Area_Type
  10
277782.000
  20
4651103.500
  0
VERTEX
  8
Unknown_Area_Type
  10
277958.500
  20
4646986.000
  0
VERTEX
  8
Unknown_Area_Type
  10
280628.000
  20
4646803.500
  0
VERTEX
  8
Unknown_Area_Type
  10
281044.500
  20
4647054.000
  0
VERTEX
  8
Unknown_Area_Type
  10
280871.000
  20
4651149.000
  0
VERTEX
  8
Unknown_Area_Type
  10
279612.500
  20
4651589.500
  0
VERTEX
  8
Unknown_Area_Type
  10
278161.500
  20
4651204.500
  0
SEQEND
  8
Unknown_Area_Type
  0
INSERT
  8
FeatureAttribs
  2
FEATURE
  41
1
  42
1
  43
1
  50
0
  10
288518.406
  20
4649147.840
 66
1
  0
ATTRIB
  8
FeatureAttribs
 70
0
  1
PNOA-H_AMS_1956-57_33k_ES_PAN_2
  2
NAME
  10
288518.406
  20
4649147.840
 40
34.23482
  0
SEQEND
  0
POLYLINE
  8
Unknown_Area_Type
  70
1
  66
1
  0
VERTEX
  8
Unknown_Area_Type
  10
288474.500
  20
4651780.000
  0
VERTEX
  8
Unknown_Area_Type
  10
288476.000
  20
4651780.500
  0
VERTEX
  8
Unknown_Area_Type
  10
288478.500
  20
4651780.500
  0
VERTEX
  8
Unknown_Area_Type
  10
290008.500
  20
4651272.000
  0
VERTEX
  8
Unknown_Area_Type
  10
289951.000
  20
4646890.000
  0
VERTEX
  8
Unknown_Area_Type
  10
288978.000
  20
4646533.000
  0
VERTEX
  8
Unknown_Area_Type
  10
288969.000
  20
4646534.000
  0
VERTEX
  8
Unknown_Area_Type
  10
287065.000
  20
4646950.000
  0
VERTEX
  8
Unknown_Area_Type
  10
287020.000
  20
4651297.500
  0
VERTEX
  8
Unknown_Area_Type
  10
288474.500
  20
4651780.000
  0
SEQEND
  8
Unknown_Area_Type
  0
INSERT
  8
FeatureAttribs
  2
FEATURE
  41
1
  42
1
  43
1
  50
0
  10
288518.406
  20
4649147.840
 66
1
  0
ATTRIB
  8
FeatureAttribs
 70
0
  1
PNOA-H_AMS_1956-57_33k_ES_PAN_2
  2
NAME
  10
288518.406
  20
4649147.840
 40
34.23482
  0
SEQEND
  0
POLYLINE
  8
Unknown_Area_Type
  70
1
  66
1
  0
VERTEX
  8
Unknown_Area_Type
  10
288474.500
  20
4651780.000
  0
VERTEX
  8
Unknown_Area_Type
  10
287020.000
  20
4651297.500
  0
VERTEX
  8
Unknown_Area_Type
  10
287065.000
  20
4646950.000
  0
VERTEX
  8
Unknown_Area_Type
  10
288969.000
  20
4646534.000
  0
VERTEX
  8
Unknown_Area_Type
  10
288978.000
  20
4646533.000
  0
VERTEX
  8
Unknown_Area_Type
  10
289951.000
  20
4646890.000
  0
VERTEX
  8
Unknown_Area_Type
  10
290008.500
  20
4651272.000
  0
VERTEX
  8
Unknown_Area_Type
  10
288478.500
  20
4651780.500
  0
VERTEX
  8
Unknown_Area_Type
  10
288476.000
  20
4651780.500
  0
VERTEX
  8
Unknown_Area_Type
  10
288474.500
  20
4651780.000
  0
SEQEND
  8
Unknown_Area_Type
  0
INSERT
  8
FeatureAttribs
  2
FEATURE
  41
1
  42
1
  43
1
  50
0
  10
285568.969
  20
4649163.959
 66
1
  0
ATTRIB
  8
FeatureAttribs
 70
0
  1
PNOA-H_AMS_1956-57_33k_ES_PAN_2
  2
NAME
  10
285568.969
  20
4649163.959
 40
34.23482
  0
SEQEND
  0
POLYLINE
  8
Unknown_Area_Type
  70
1
  66
1
  0
VERTEX
  8
Unknown_Area_Type
  10
284304.500
  20
4651329.500
  0
VERTEX
  8
Unknown_Area_Type
  10
285479.500
  20
4651737.000
  0
VERTEX
  8
Unknown_Area_Type
  10
285486.000
  20
4651738.000
  0
VERTEX
  8
Unknown_Area_Type
  10
287020.000
  20
4651297.500
  0
VERTEX
  8
Unknown_Area_Type
  10
287065.000
  20
4646950.000
  0
VERTEX
  8
Unknown_Area_Type
  10
286178.000
  20
4646617.000
  0
VERTEX
  8
Unknown_Area_Type
  10
284110.500
  20
4647032.000
  0
VERTEX
  8
Unknown_Area_Type
  10
284024.000
  20
4651232.000
  0
VERTEX
  8
Unknown_Area_Type
  10
284303.000
  20
4651329.000
  0
VERTEX
  8
Unknown_Area_Type
  10
284304.500
  20
4651329.500
  0
SEQEND
  8
Unknown_Area_Type
  0
INSERT
  8
FeatureAttribs
  2
FEATURE
  41
1
  42
1
  43
1
  50
0
  10
285568.969
  20
4649163.959
 66
1
  0
ATTRIB
  8
FeatureAttribs
 70
0
  1
PNOA-H_AMS_1956-57_33k_ES_PAN_2
  2
NAME
  10
285568.969
  20
4649163.959
 40
34.23482
  0
SEQEND
  0
POLYLINE
  8
Unknown_Area_Type
  70
1
  66
1
  0
VERTEX
  8
Unknown_Area_Type
  10
284304.500
  20
4651329.500
  0
VERTEX
  8
Unknown_Area_Type
  10
284303.000
  20
4651329.000
  0
VERTEX
  8
Unknown_Area_Type
  10
284024.000
  20
4651232.000
  0
VERTEX
  8
Unknown_Area_Type
  10
284110.500
  20
4647032.000
  0
VERTEX
  8
Unknown_Area_Type
  10
286178.000
  20
4646617.000
  0
VERTEX
  8
Unknown_Area_Type
  10
287065.000
  20
4646950.000
  0
VERTEX
  8
Unknown_Area_Type
  10
287020.000
  20
4651297.500
  0
VERTEX
  8
Unknown_Area_Type
  10
285486.000
  20
4651738.000
  0
VERTEX
  8
Unknown_Area_Type
  10
285479.500
  20
4651737.000
  0
VERTEX
  8
Unknown_Area_Type
  10
284304.500
  20
4651329.500
  0
SEQEND
  8
Unknown_Area_Type
  0
INSERT
  8
FeatureAttribs
  2
FEATURE
  41
1
  42
1
  43
1
  50
0
  10
291168.529
  20
4649121.586
 66
1
  0
ATTRIB
  8
FeatureAttribs
 70
0
  1
PNOA-H_AMS_1956-57_33k_ES_PAN_2
  2
NAME
  10
291168.529
  20
4649121.586
 40
34.23482
  0
SEQEND
  0
POLYLINE
  8
Unknown_Area_Type
  70
1
  66
1
  0
VERTEX
  8
Unknown_Area_Type
  10
291223.447
  20
4646596.281
  0
VERTEX
  8
Unknown_Area_Type
  10
291040.526
  20
4646638.505
  0
VERTEX
  8
Unknown_Area_Type
  10
291087.178
  20
4648223.765
  0
VERTEX
  8
Unknown_Area_Type
  10
291155.285
  20
4650537.093
  0
VERTEX
  8
Unknown_Area_Type
  10
291187.646
  20
4651635.848
  0
VERTEX
  8
Unknown_Area_Type
  10
291223.447
  20
4651646.891
  0
VERTEX
  8
Unknown_Area_Type
  10
291223.447
  20
4646596.281
  0
SEQEND
  8
Unknown_Area_Type
  0
INSERT
  8
FeatureAttribs
  2
FEATURE
  41
1
  42
1
  43
1
  50
0
  10
290559.811
  20
4649136.008
 66
1
  0
ATTRIB
  8
FeatureAttribs
 70
0
  1
PNOA-H_AMS_1956-57_33k_ES_PAN_2
  2
NAME
  10
290559.811
  20
4649136.008
 40
34.23482
  0
SEQEND
  0
POLYLINE
  8
Unknown_Area_Type
  70
1
  66
1
  0
VERTEX
  8
Unknown_Area_Type
  10
291040.526
  20
4646638.505
  0
VERTEX
  8
Unknown_Area_Type
  10
289951.000
  20
4646890.000
  0
VERTEX
  8
Unknown_Area_Type
  10
290008.500
  20
4651272.000
  0
VERTEX
  8
Unknown_Area_Type
  10
290447.000
  20
4651407.500
  0
VERTEX
  8
Unknown_Area_Type
  10
290449.000
  20
4651408.000
  0
VERTEX
  8
Unknown_Area_Type
  10
291187.646
  20
4651635.848
  0
VERTEX
  8
Unknown_Area_Type
  10
291155.285
  20
4650537.093
  0
VERTEX
  8
Unknown_Area_Type
  10
291087.178
  20
4648223.765
  0
VERTEX
  8
Unknown_Area_Type
  10
291040.526
  20
4646638.505
  0
SEQEND
  8
Unknown_Area_Type
  0
INSERT
  8
FeatureAttribs
  2
FEATURE
  41
1
  42
1
  43
1
  50
0
  10
290559.811
  20
4649136.008
 66
1
  0
ATTRIB
  8
FeatureAttribs
 70
0
  1
PNOA-H_AMS_1956-57_33k_ES_PAN_2
  2
NAME
  10
290559.811
  20
4649136.008
 40
34.23482
  0
SEQEND
  0
POLYLINE
  8
Unknown_Area_Type
  70
1
  66
1
  0
VERTEX
  8
Unknown_Area_Type
  10
291040.526
  20
4646638.505
  0
VERTEX
  8
Unknown_Area_Type
  10
291087.178
  20
4648223.765
  0
VERTEX
  8
Unknown_Area_Type
  10
291155.285
  20
4650537.093
  0
VERTEX
  8
Unknown_Area_Type
  10
291187.646
  20
4651635.848
  0
VERTEX
  8
Unknown_Area_Type
  10
290449.000
  20
4651408.000
  0
VERTEX
  8
Unknown_Area_Type
  10
290447.000
  20
4651407.500
  0
VERTEX
  8
Unknown_Area_Type
  10
290008.500
  20
4651272.000
  0
VERTEX
  8
Unknown_Area_Type
  10
289951.000
  20
4646890.000
  0
VERTEX
  8
Unknown_Area_Type
  10
291040.526
  20
4646638.505
  0
SEQEND
  8
Unknown_Area_Type
  0
INSERT
  8
FeatureAttribs
  2
FEATURE
  41
1
  42
1
  43
1
  50
0
  10
263021.885
  20
4636652.648
 66
1
  0
ATTRIB
  8
FeatureAttribs
 70
0
  1
PNOA-H_AMS_1956-57_33k_ES_PAN_2
  2
NAME
  10
263021.885
  20
4636652.648
 40
34.23482
  0
SEQEND
  0
POLYLINE
  8
Unknown_Area_Type
  70
1
  66
1
  0
VERTEX
  8
Unknown_Area_Type
  10
263092.851
  20
4638064.679
  0
VERTEX
  8
Unknown_Area_Type
  10
263074.859
  20
4637523.930
  0
VERTEX
  8
Unknown_Area_Type
  10
262997.918
  20
4635210.572
  0
VERTEX
  8
Unknown_Area_Type
  10
262997.890
  20
4635210.573
  0
VERTEX
  8
Unknown_Area_Type
  10
262997.890
  20
4638094.724
  0
VERTEX
  8
Unknown_Area_Type
  10
263092.851
  20
4638064.679
  0
SEQEND
  8
Unknown_Area_Type
  0
INSERT
  8
FeatureAttribs
  2
FEATURE
  41
1
  42
1
  43
1
  50
0
  10
262997.904
  20
4635210.360
 66
1
  0
ATTRIB
  8
FeatureAttribs
 70
0
  1
PNOA-H_AMS_1956-57_33k_ES_PAN_2
  2
NAME
  10
262997.904
  20
4635210.360
 40
34.23482
  0
SEQEND
  0
POLYLINE
  8
Unknown_Area_Type
  70
1
  66
1
  0
VERTEX
  8
Unknown_Area_Type
  10
262997.890
  20
4635210.573
  0
VERTEX
  8
Unknown_Area_Type
  10
262997.918
  20
4635210.572
  0
VERTEX
  8
Unknown_Area_Type
  10
262997.890
  20
4635209.723
  0
VERTEX
  8
Unknown_Area_Type
  10
262997.890
  20
4635210.573
  0
SEQEND
  8
Unknown_Area_Type
  0
INSERT
  8
FeatureAttribs
  2
FEATURE
  41
1
  42
1
  43
1
  50
0
  10
263432.812
  20
4634777.244
 66
1
  0
ATTRIB
  8
FeatureAttribs
 70
0
  1
PNOA-H_AMS_1956-57_33k_ES_PAN_2
  2
NAME
  10
263432.812
  20
4634777.244
 40
34.23482
  0
SEQEND
  0
POLYLINE
  8
Unknown_Area_Type
  70
1
  66
1
  0
VERTEX
  8
Unknown_Area_Type
  10
263867.055
  20
4634343.917
  0
VERTEX
  8
Unknown_Area_Type
  10
262997.890
  20
4634343.917
  0
VERTEX
  8
Unknown_Area_Type
  10
262997.890
  20
4635209.723
  0
VERTEX
  8
Unknown_Area_Type
  10
262997.918
  20
4635210.572
  0
VERTEX
  8
Unknown_Area_Type
  10
263868.368
  20
4635181.839
  0
VERTEX
  8
Unknown_Area_Type
  10
263867.055
  20
4634343.917
  0
SEQEND
  8
Unknown_Area_Type
  0
INSERT
  8
FeatureAttribs
  2
FEATURE
  41
1
  42
1
  43
1
  50
0
  10
263451.654
  20
4636545.732
 66
1
  0
ATTRIB
  8
FeatureAttribs
 70
0
  1
PNOA-H_AMS_1956-57_33k_ES_PAN_2
  2
NAME
  10
263451.654
  20
4636545.732
 40
34.23482
  0
SEQEND
  0
POLYLINE
  8
Unknown_Area_Type
  70
1
  66
1
  0
VERTEX
  8
Unknown_Area_Type
  10
263868.368
  20
4635181.839
  0
VERTEX
  8
Unknown_Area_Type
  10
262997.918
  20
4635210.572
  0
VERTEX
  8
Unknown_Area_Type
  10
263074.859
  20
4637523.930
  0
VERTEX
  8
Unknown_Area_Type
  10
263092.851
  20
4638064.679
  0
VERTEX
  8
Unknown_Area_Type
  10
263872.500
  20
4637818.000
  0
VERTEX
  8
Unknown_Area_Type
  10
263868.368
  20
4635181.839
  0
SEQEND
  8
Unknown_Area_Type
  0
INSERT
  8
FeatureAttribs
  2
FEATURE
  41
1
  42
1
  43
1
  50
0
  10
263451.654
  20
4636545.732
 66
1
  0
ATTRIB
  8
FeatureAttribs
 70
0
  1
PNOA-H_AMS_1956-57_33k_ES_PAN_2
  2
NAME
  10
263451.654
  20
4636545.732
 40
34.23482
  0
SEQEND
  0
POLYLINE
  8
Unknown_Area_Type
  70
1
  66
1
  0
VERTEX
  8
Unknown_Area_Type
  10
263868.368
  20
4635181.839
  0
VERTEX
  8
Unknown_Area_Type
  10
263872.500
  20
4637818.000
  0
VERTEX
  8
Unknown_Area_Type
  10
263092.851
  20
4638064.679
  0
VERTEX
  8
Unknown_Area_Type
  10
263074.859
  20
4637523.930
  0
VERTEX
  8
Unknown_Area_Type
  10
262997.918
  20
4635210.572
  0
VERTEX
  8
Unknown_Area_Type
  10
263868.368
  20
4635181.839
  0
SEQEND
  8
Unknown_Area_Type
  0
INSERT
  8
FeatureAttribs
  2
FEATURE
  41
1
  42
1
  43
1
  50
0
  10
286465.464
  20
4634426.294
 66
1
  0
ATTRIB
  8
FeatureAttribs
 70
0
  1
PNOA-H_AMS_1956-57_33k_ES_PAN_2
  2
NAME
  10
286465.464
  20
4634426.294
 40
34.23482
  0
SEQEND
  0
POLYLINE
  8
Unknown_Area_Type
  70
1
  66
1
  0
VERTEX
  8
Unknown_Area_Type
  10
287783.807
  20
4634429.656
  0
VERTEX
  8
Unknown_Area_Type
  10
287780.764
  20
4634343.917
  0
VERTEX
  8
Unknown_Area_Type
  10
285145.553
  20
4634343.917
  0
VERTEX
  8
Unknown_Area_Type
  10
285148.928
  20
4634508.672
  0
VERTEX
  8
Unknown_Area_Type
  10
287219.017
  20
4634446.378
  0
VERTEX
  8
Unknown_Area_Type
  10
287783.807
  20
4634429.656
  0
SEQEND
  8
Unknown_Area_Type
  0
INSERT
  8
FeatureAttribs
  2
FEATURE
  41
1
  42
1
  43
1
  50
0
  10
286526.949
  20
4635981.776
 66
1
  0
ATTRIB
  8
FeatureAttribs
 70
0
  1
PNOA-H_AMS_1956-57_33k_ES_PAN_2
  2
NAME
  10
286526.949
  20
4635981.776
 40
34.23482
  0
SEQEND
  0
POLYLINE
  8
Unknown_Area_Type
  70
1
  66
1
  0
VERTEX
  8
Unknown_Area_Type
  10
287783.807
  20
4634429.656
  0
VERTEX
  8
Unknown_Area_Type
  10
287219.017
  20
4634446.378
  0
VERTEX
  8
Unknown_Area_Type
  10
285148.928
  20
4634508.672
  0
VERTEX
  8
Unknown_Area_Type
  10
285207.500
  20
4637367.500
  0
VERTEX
  8
Unknown_Area_Type
  10
287533.000
  20
4637605.000
  0
VERTEX
  8
Unknown_Area_Type
  10
287538.000
  20
4637605.500
  0
VERTEX
  8
Unknown_Area_Type
  10
287539.500
  20
4637605.500
  0
VERTEX
  8
Unknown_Area_Type
  10
287546.000
  20
4637600.500
  0
VERTEX
  8
Unknown_Area_Type
  10
287887.000
  20
4637336.500
  0
VERTEX
  8
Unknown_Area_Type
  10
287783.807
  20
4634429.656
  0
SEQEND
  8
Unknown_Area_Type
  0
INSERT
  8
FeatureAttribs
  2
FEATURE
  41
1
  42
1
  43
1
  50
0
  10
286526.949
  20
4635981.776
 66
1
  0
ATTRIB
  8
FeatureAttribs
 70
0
  1
PNOA-H_AMS_1956-57_33k_ES_PAN_2
  2
NAME
  10
286526.949
  20
4635981.776
 40
34.23482
  0
SEQEND
  0
POLYLINE
  8
Unknown_Area_Type
  70
1
  66
1
  0
VERTEX
  8
Unknown_Area_Type
  10
287783.807
  20
4634429.656
  0
VERTEX
  8
Unknown_Area_Type
  10
287887.000
  20
4637336.500
  0
VERTEX
  8
Unknown_Area_Type
  10
287546.000
  20
4637600.500
  0
VERTEX
  8
Unknown_Area_Type
  10
287539.500
  20
4637605.500
  0
VERTEX
  8
Unknown_Area_Type
  10
287538.000
  20
4637605.500
  0
VERTEX
  8
Unknown_Area_Type
  10
287533.000
  20
4637605.000
  0
VERTEX
  8
Unknown_Area_Type
  10
285207.500
  20
4637367.500
  0
VERTEX
  8
Unknown_Area_Type
  10
285148.928
  20
4634508.672
  0
VERTEX
  8
Unknown_Area_Type
  10
287219.017
  20
4634446.378
  0
VERTEX
  8
Unknown_Area_Type
  10
287783.807
  20
4634429.656
  0
SEQEND
  8
Unknown_Area_Type
  0
INSERT
  8
FeatureAttribs
  2
FEATURE
  41
1
  42
1
  43
1
  50
0
  10
283844.963
  20
4634465.830
 66
1
  0
ATTRIB
  8
FeatureAttribs
 70
0
  1
PNOA-H_AMS_1956-57_33k_ES_PAN_2
  2
NAME
  10
283844.963
  20
4634465.830
 40
34.23482
  0
SEQEND
  0
POLYLINE
  8
Unknown_Area_Type
  70
1
  66
1
  0
VERTEX
  8
Unknown_Area_Type
  10
285145.553
  20
4634343.917
  0
VERTEX
  8
Unknown_Area_Type
  10
282542.789
  20
4634343.917
  0
VERTEX
  8
Unknown_Area_Type
  10
282540.964
  20
4634587.744
  0
VERTEX
  8
Unknown_Area_Type
  10
283758.899
  20
4634550.501
  0
VERTEX
  8
Unknown_Area_Type
  10
285148.928
  20
4634508.672
  0
VERTEX
  8
Unknown_Area_Type
  10
285145.553
  20
4634343.917
  0
SEQEND
  8
Unknown_Area_Type
  0
INSERT
  8
FeatureAttribs
  2
FEATURE
  41
1
  42
1
  43
1
  50
0
  10
283882.100
  20
4636052.623
 66
1
  0
ATTRIB
  8
FeatureAttribs
 70
0
  1
PNOA-H_AMS_1956-57_33k_ES_PAN_2
  2
NAME
  10
283882.100
  20
4636052.623
 40
34.23482
  0
SEQEND
  0
POLYLINE
  8
Unknown_Area_Type
  70
1
  66
1
  0
VERTEX
  8
Unknown_Area_Type
  10
285148.928
  20
4634508.672
  0
VERTEX
  8
Unknown_Area_Type
  10
283758.899
  20
4634550.501
  0
VERTEX
  8
Unknown_Area_Type
  10
282540.964
  20
4634587.744
  0
VERTEX
  8
Unknown_Area_Type
  10
282520.500
  20
4637321.500
  0
VERTEX
  8
Unknown_Area_Type
  10
284673.000
  20
4637742.500
  0
VERTEX
  8
Unknown_Area_Type
  10
284675.500
  20
4637743.000
  0
VERTEX
  8
Unknown_Area_Type
  10
284678.000
  20
4637743.000
  0
VERTEX
  8
Unknown_Area_Type
  10
285207.500
  20
4637367.500
  0
VERTEX
  8
Unknown_Area_Type
  10
285148.928
  20
4634508.672
  0
SEQEND
  8
Unknown_Area_Type
  0
INSERT
  8
FeatureAttribs
  2
FEATURE
  41
1
  42
1
  43
1
  50
0
  10
283882.100
  20
4636052.623
 66
1
  0
ATTRIB
  8
FeatureAttribs
 70
0
  1
PNOA-H_AMS_1956-57_33k_ES_PAN_2
  2
NAME
  10
283882.100
  20
4636052.623
 40
34.23482
  0
SEQEND
  0
POLYLINE
  8
Unknown_Area_Type
  70
1
  66
1
  0
VERTEX
  8
Unknown_Area_Type
  10
285148.928
  20
4634508.672
  0
VERTEX
  8
Unknown_Area_Type
  10
285207.500
  20
4637367.500
  0
VERTEX
  8
Unknown_Area_Type
  10
284678.000
  20
4637743.000
  0
VERTEX
  8
Unknown_Area_Type
  10
284675.500
  20
4637743.000
  0
VERTEX
  8
Unknown_Area_Type
  10
284673.000
  20
4637742.500
  0
VERTEX
  8
Unknown_Area_Type
  10
282520.500
  20
4637321.500
  0
VERTEX
  8
Unknown_Area_Type
  10
282540.964
  20
4634587.744
  0
VERTEX
  8
Unknown_Area_Type
  10
283758.899
  20
4634550.501
  0
VERTEX
  8
Unknown_Area_Type
  10
285148.928
  20
4634508.672
  0
SEQEND
  8
Unknown_Area_Type
  0
INSERT
  8
FeatureAttribs
  2
FEATURE
  41
1
  42
1
  43
1
  50
0
  10
278487.855
  20
4634548.705
 66
1
  0
ATTRIB
  8
FeatureAttribs
 70
0
  1
PNOA-H_AMS_1956-57_33k_ES_PAN_2
  2
NAME
  10
278487.855
  20
4634548.705
 40
34.23482
  0
SEQEND
  0
POLYLINE
  8
Unknown_Area_Type
  70
1
  66
1
  0
VERTEX
  8
Unknown_Area_Type
  10
279804.066
  20
4634343.917
  0
VERTEX
  8
Unknown_Area_Type
  10
277168.878
  20
4634343.917
  0
VERTEX
  8
Unknown_Area_Type
  10
277170.222
  20
4634753.494
  0
VERTEX
  8
Unknown_Area_Type
  10
279807.415
  20
4634671.571
  0
VERTEX
  8
Unknown_Area_Type
  10
279804.066
  20
4634343.917
  0
SEQEND
  8
Unknown_Area_Type
  0
INSERT
  8
FeatureAttribs
  2
FEATURE
  41
1
  42
1
  43
1
  50
0
  10
278515.725
  20
4636173.133
 66
1
  0
ATTRIB
  8
FeatureAttribs
 70
0
  1
PNOA-H_AMS_1956-57_33k_ES_PAN_2
  2
NAME
  10
278515.725
  20
4636173.133
 40
34.23482
  0
SEQEND
  0
POLYLINE
  8
Unknown_Area_Type
  70
1
  66
1
  0
VERTEX
  8
Unknown_Area_Type
  10
279807.415
  20
4634671.571
  0
VERTEX
  8
Unknown_Area_Type
  10
277170.222
  20
4634753.494
  0
VERTEX
  8
Unknown_Area_Type
  10
277179.000
  20
4637427.500
  0
VERTEX
  8
Unknown_Area_Type
  10
279087.000
  20
4637837.500
  0
VERTEX
  8
Unknown_Area_Type
  10
279089.500
  20
4637838.000
  0
VERTEX
  8
Unknown_Area_Type
  10
279094.000
  20
4637836.500
  0
VERTEX
  8
Unknown_Area_Type
  10
279835.000
  20
4637371.000
  0
VERTEX
  8
Unknown_Area_Type
  10
279807.415
  20
4634671.571
  0
SEQEND
  8
Unknown_Area_Type
  0
INSERT
  8
FeatureAttribs
  2
FEATURE
  41
1
  42
1
  43
1
  50
0
  10
278515.725
  20
4636173.133
 66
1
  0
ATTRIB
  8
FeatureAttribs
 70
0
  1
PNOA-H_AMS_1956-57_33k_ES_PAN_2
  2
NAME
  10
278515.725
  20
4636173.133
 40
34.23482
  0
SEQEND
  0
POLYLINE
  8
Unknown_Area_Type
  70
1
  66
1
  0
VERTEX
  8
Unknown_Area_Type
  10
279807.415
  20
4634671.571
  0
VERTEX
  8
Unknown_Area_Type
  10
279835.000
  20
4637371.000
  0
VERTEX
  8
Unknown_Area_Type
  10
279094.000
  20
4637836.500
  0
VERTEX
  8
Unknown_Area_Type
  10
279089.500
  20
4637838.000
  0
VERTEX
  8
Unknown_Area_Type
  10
279087.000
  20
4637837.500
  0
VERTEX
  8
Unknown_Area_Type
  10
277179.000
  20
4637427.500
  0
VERTEX
  8
Unknown_Area_Type
  10
277170.222
  20
4634753.494
  0
VERTEX
  8
Unknown_Area_Type
  10
279807.415
  20
4634671.571
  0
SEQEND
  8
Unknown_Area_Type
  0
INSERT
  8
FeatureAttribs
  2
FEATURE
  41
1
  42
1
  43
1
  50
0
  10
288506.960
  20
4634386.788
 66
1
  0
ATTRIB
  8
FeatureAttribs
 70
0
  1
PNOA-H_AMS_1956-57_33k_ES_PAN_2
  2
NAME
  10
288506.960
  20
4634386.788
 40
34.23482
  0
SEQEND
  0
POLYLINE
  8
Unknown_Area_Type
  70
1
  66
1
  0
VERTEX
  8
Unknown_Area_Type
  10
290474.884
  20
4634349.983
  0
VERTEX
  8
Unknown_Area_Type
  10
290474.654
  20
4634343.917
  0
VERTEX
  8
Unknown_Area_Type
  10
287780.666
  20
4634343.917
  0
VERTEX
  8
Unknown_Area_Type
  10
287783.700
  20
4634429.659
  0
VERTEX
  8
Unknown_Area_Type
  10
290474.884
  20
4634349.983
  0
SEQEND
  8
Unknown_Area_Type
  0
INSERT
  8
FeatureAttribs
  2
FEATURE
  41
1
  42
1
  43
1
  50
0
  10
289202.822
  20
4635910.883
 66
1
  0
ATTRIB
  8
FeatureAttribs
 70
0
  1
PNOA-H_AMS_1956-57_33k_ES_PAN_2
  2
NAME
  10
289202.822
  20
4635910.883
 40
34.23482
  0
SEQEND
  0
POLYLINE
  8
Unknown_Area_Type
  70
1
  66
1
  0
VERTEX
  8
Unknown_Area_Type
  10
290474.884
  20
4634349.983
  0
VERTEX
  8
Unknown_Area_Type
  10
287783.700
  20
4634429.659
  0
VERTEX
  8
Unknown_Area_Type
  10
287886.500
  20
4637335.000
  0
VERTEX
  8
Unknown_Area_Type
  10
287887.000
  20
4637336.500
  0
VERTEX
  8
Unknown_Area_Type
  10
287890.000
  20
4637337.000
  0
VERTEX
  8
Unknown_Area_Type
  10
288390.500
  20
4637374.000
  0
VERTEX
  8
Unknown_Area_Type
  10
288397.000
  20
4637374.500
  0
VERTEX
  8
Unknown_Area_Type
  10
290379.000
  20
4637521.000
  0
VERTEX
  8
Unknown_Area_Type
  10
290589.000
  20
4637358.500
  0
VERTEX
  8
Unknown_Area_Type
  10
290474.884
  20
4634349.983
  0
SEQEND
  8
Unknown_Area_Type
  0
INSERT
  8
FeatureAttribs
  2
FEATURE
  41
1
  42
1
  43
1
  50
0
  10
289202.822
  20
4635910.883
 66
1
  0
ATTRIB
  8
FeatureAttribs
 70
0
  1
PNOA-H_AMS_1956-57_33k_ES_PAN_2
  2
NAME
  10
289202.822
  20
4635910.883
 40
34.23482
  0
SEQEND
  0
POLYLINE
  8
Unknown_Area_Type
  70
1
  66
1
  0
VERTEX
  8
Unknown_Area_Type
  10
290474.884
  20
4634349.983
  0
VERTEX
  8
Unknown_Area_Type
  10
290589.000
  20
4637358.500
  0
VERTEX
  8
Unknown_Area_Type
  10
290379.000
  20
4637521.000
  0
VERTEX
  8
Unknown_Area_Type
  10
288397.000
  20
4637374.500
  0
VERTEX
  8
Unknown_Area_Type
  10
288390.500
  20
4637374.000
  0
VERTEX
  8
Unknown_Area_Type
  10
287890.000
  20
4637337.000
  0
VERTEX
  8
Unknown_Area_Type
  10
287887.000
  20
4637336.500
  0
VERTEX
  8
Unknown_Area_Type
  10
287886.500
  20
4637335.000
  0
VERTEX
  8
Unknown_Area_Type
  10
287783.700
  20
4634429.659
  0
VERTEX
  8
Unknown_Area_Type
  10
290474.884
  20
4634349.983
  0
SEQEND
  8
Unknown_Area_Type
  0
INSERT
  8
FeatureAttribs
  2
FEATURE
  41
1
  42
1
  43
1
  50
0
  10
275866.104
  20
4634589.883
 66
1
  0
ATTRIB
  8
FeatureAttribs
 70
0
  1
PNOA-H_AMS_1956-57_33k_ES_PAN_2
  2
NAME
  10
275866.104
  20
4634589.883
 40
34.23482
  0
SEQEND
  0
POLYLINE
  8
Unknown_Area_Type
  70
1
  66
1
  0
VERTEX
  8
Unknown_Area_Type
  10
277168.878
  20
4634343.917
  0
VERTEX
  8
Unknown_Area_Type
  10
274570.164
  20
4634343.917
  0
VERTEX
  8
Unknown_Area_Type
  10
274554.882
  20
4634835.848
  0
VERTEX
  8
Unknown_Area_Type
  10
276838.625
  20
4634763.795
  0
VERTEX
  8
Unknown_Area_Type
  10
277170.223
  20
4634753.494
  0
VERTEX
  8
Unknown_Area_Type
  10
277168.878
  20
4634343.917
  0
SEQEND
  8
Unknown_Area_Type
  0
INSERT
  8
FeatureAttribs
  2
FEATURE
  41
1
  42
1
  43
1
  50
0
  10
275862.036
  20
4636241.735
 66
1
  0
ATTRIB
  8
FeatureAttribs
 70
0
  1
PNOA-H_AMS_1956-57_33k_ES_PAN_2
  2
NAME
  10
275862.036
  20
4636241.735
 40
34.23482
  0
SEQEND
  0
POLYLINE
  8
Unknown_Area_Type
  70
1
  66
1
  0
VERTEX
  8
Unknown_Area_Type
  10
277170.223
  20
4634753.494
  0
VERTEX
  8
Unknown_Area_Type
  10
276838.625
  20
4634763.795
  0
VERTEX
  8
Unknown_Area_Type
  10
274554.882
  20
4634835.848
  0
VERTEX
  8
Unknown_Area_Type
  10
274474.000
  20
4637439.500
  0
VERTEX
  8
Unknown_Area_Type
  10
276318.500
  20
4637894.500
  0
VERTEX
  8
Unknown_Area_Type
  10
276320.500
  20
4637895.000
  0
VERTEX
  8
Unknown_Area_Type
  10
276322.500
  20
4637895.000
  0
VERTEX
  8
Unknown_Area_Type
  10
277179.000
  20
4637427.000
  0
VERTEX
  8
Unknown_Area_Type
  10
277170.223
  20
4634753.494
  0
SEQEND
  8
Unknown_Area_Type
  0
INSERT
  8
FeatureAttribs
  2
FEATURE
  41
1
  42
1
  43
1
  50
0
  10
275862.036
  20
4636241.735
 66
1
  0
ATTRIB
  8
FeatureAttribs
 70
0
  1
PNOA-H_AMS_1956-57_33k_ES_PAN_2
  2
NAME
  10
275862.036
  20
4636241.735
 40
34.23482
  0
SEQEND
  0
POLYLINE
  8
Unknown_Area_Type
  70
1
  66
1
  0
VERTEX
  8
Unknown_Area_Type
  10
277170.223
  20
4634753.494
  0
VERTEX
  8
Unknown_Area_Type
  10
277179.000
  20
4637427.000
  0
VERTEX
  8
Unknown_Area_Type
  10
276322.500
  20
4637895.000
  0
VERTEX
  8
Unknown_Area_Type
  10
276320.500
  20
4637895.000
  0
VERTEX
  8
Unknown_Area_Type
  10
276318.500
  20
4637894.500
  0
VERTEX
  8
Unknown_Area_Type
  10
274474.000
  20
4637439.500
  0
VERTEX
  8
Unknown_Area_Type
  10
274554.882
  20
4634835.848
  0
VERTEX
  8
Unknown_Area_Type
  10
276838.625
  20
4634763.795
  0
VERTEX
  8
Unknown_Area_Type
  10
277170.223
  20
4634753.494
  0
SEQEND
  8
Unknown_Area_Type
  0
INSERT
  8
FeatureAttribs
  2
FEATURE
  41
1
  42
1
  43
1
  50
0
  10
267891.755
  20
4634718.309
 66
1
  0
ATTRIB
  8
FeatureAttribs
 70
0
  1
PNOA-H_AMS_1956-57_33k_ES_PAN_2
  2
NAME
  10
267891.755
  20
4634718.309
 40
34.23482
  0
SEQEND
  0
POLYLINE
  8
Unknown_Area_Type
  70
1
  66
1
  0
VERTEX
  8
Unknown_Area_Type
  10
269213.411
  20
4634343.917
  0
VERTEX
  8
Unknown_Area_Type
  10
266553.400
  20
4634343.917
  0
VERTEX
  8
Unknown_Area_Type
  10
266570.434
  20
4635092.701
  0
VERTEX
  8
Unknown_Area_Type
  10
269227.886
  20
4635006.272
  0
VERTEX
  8
Unknown_Area_Type
  10
269213.411
  20
4634343.917
  0
SEQEND
  8
Unknown_Area_Type
  0
INSERT
  8
FeatureAttribs
  2
FEATURE
  41
1
  42
1
  43
1
  50
0
  10
267928.588
  20
4636493.414
 66
1
  0
ATTRIB
  8
FeatureAttribs
 70
0
  1
PNOA-H_AMS_1956-57_33k_ES_PAN_2
  2
NAME
  10
267928.588
  20
4636493.414
 40
34.23482
  0
SEQEND
  0
POLYLINE
  8
Unknown_Area_Type
  70
1
  66
1
  0
VERTEX
  8
Unknown_Area_Type
  10
269227.886
  20
4635006.272
  0
VERTEX
  8
Unknown_Area_Type
  10
266570.434
  20
4635092.701
  0
VERTEX
  8
Unknown_Area_Type
  10
266631.000
  20
4637755.000
  0
VERTEX
  8
Unknown_Area_Type
  10
267919.000
  20
4638158.500
  0
VERTEX
  8
Unknown_Area_Type
  10
267920.500
  20
4638159.000
  0
VERTEX
  8
Unknown_Area_Type
  10
267939.500
  20
4638165.000
  0
VERTEX
  8
Unknown_Area_Type
  10
267943.000
  20
4638164.000
  0
VERTEX
  8
Unknown_Area_Type
  10
269285.500
  20
4637642.500
  0
VERTEX
  8
Unknown_Area_Type
  10
269227.886
  20
4635006.272
  0
SEQEND
  8
Unknown_Area_Type
  0
INSERT
  8
FeatureAttribs
  2
FEATURE
  41
1
  42
1
  43
1
  50
0
  10
267928.588
  20
4636493.414
 66
1
  0
ATTRIB
  8
FeatureAttribs
 70
0
  1
PNOA-H_AMS_1956-57_33k_ES_PAN_2
  2
NAME
  10
267928.588
  20
4636493.414
 40
34.23482
  0
SEQEND
  0
POLYLINE
  8
Unknown_Area_Type
  70
1
  66
1
  0
VERTEX
  8
Unknown_Area_Type
  10
269227.886
  20
4635006.272
  0
VERTEX
  8
Unknown_Area_Type
  10
269285.500
  20
4637642.500
  0
VERTEX
  8
Unknown_Area_Type
  10
267943.000
  20
4638164.000
  0
VERTEX
  8
Unknown_Area_Type
  10
267939.500
  20
4638165.000
  0
VERTEX
  8
Unknown_Area_Type
  10
267920.500
  20
4638159.000
  0
VERTEX
  8
Unknown_Area_Type
  10
267919.000
  20
4638158.500
  0
VERTEX
  8
Unknown_Area_Type
  10
266631.000
  20
4637755.000
  0
VERTEX
  8
Unknown_Area_Type
  10
266570.434
  20
4635092.701
  0
VERTEX
  8
Unknown_Area_Type
  10
269227.886
  20
4635006.272
  0
SEQEND
  8
Unknown_Area_Type
  0
INSERT
  8
FeatureAttribs
  2
FEATURE
  41
1
  42
1
  43
1
  50
0
  10
270540.353
  20
4634675.095
 66
1
  0
ATTRIB
  8
FeatureAttribs
 70
0
  1
PNOA-H_AMS_1956-57_33k_ES_PAN_2
  2
NAME
  10
270540.353
  20
4634675.095
 40
34.23482
  0
SEQEND
  0
POLYLINE
  8
Unknown_Area_Type
  70
1
  66
1
  0
VERTEX
  8
Unknown_Area_Type
  10
271861.051
  20
4634343.917
  0
VERTEX
  8
Unknown_Area_Type
  10
269213.411
  20
4634343.917
  0
VERTEX
  8
Unknown_Area_Type
  10
269227.886
  20
4635006.272
  0
VERTEX
  8
Unknown_Area_Type
  10
269918.299
  20
4634983.818
  0
VERTEX
  8
Unknown_Area_Type
  10
271859.318
  20
4634921.634
  0
VERTEX
  8
Unknown_Area_Type
  10
271861.051
  20
4634343.917
  0
SEQEND
  8
Unknown_Area_Type
  0
INSERT
  8
FeatureAttribs
  2
FEATURE
  41
1
  42
1
  43
1
  50
0
  10
270558.295
  20
4636383.553
 66
1
  0
ATTRIB
  8
FeatureAttribs
 70
0
  1
PNOA-H_AMS_1956-57_33k_ES_PAN_2
  2
NAME
  10
270558.295
  20
4636383.553
 40
34.23482
  0
SEQEND
  0
POLYLINE
  8
Unknown_Area_Type
  70
1
  66
1
  0
VERTEX
  8
Unknown_Area_Type
  10
271859.318
  20
4634921.634
  0
VERTEX
  8
Unknown_Area_Type
  10
269918.299
  20
4634983.818
  0
VERTEX
  8
Unknown_Area_Type
  10
269227.886
  20
4635006.272
  0
VERTEX
  8
Unknown_Area_Type
  10
269285.500
  20
4637642.500
  0
VERTEX
  8
Unknown_Area_Type
  10
270712.500
  20
4638028.500
  0
VERTEX
  8
Unknown_Area_Type
  10
270714.000
  20
4638029.000
  0
VERTEX
  8
Unknown_Area_Type
  10
271851.500
  20
4637528.000
  0
VERTEX
  8
Unknown_Area_Type
  10
271859.318
  20
4634921.634
  0
SEQEND
  8
Unknown_Area_Type
  0
INSERT
  8
FeatureAttribs
  2
FEATURE
  41
1
  42
1
  43
1
  50
0
  10
270558.295
  20
4636383.553
 66
1
  0
ATTRIB
  8
FeatureAttribs
 70
0
  1
PNOA-H_AMS_1956-57_33k_ES_PAN_2
  2
NAME
  10
270558.295
  20
4636383.553
 40
34.23482
  0
SEQEND
  0
POLYLINE
  8
Unknown_Area_Type
  70
1
  66
1
  0
VERTEX
  8
Unknown_Area_Type
  10
271859.318
  20
4634921.634
  0
VERTEX
  8
Unknown_Area_Type
  10
271851.500
  20
4637528.000
  0
VERTEX
  8
Unknown_Area_Type
  10
270714.000
  20
4638029.000
  0
VERTEX
  8
Unknown_Area_Type
  10
270712.500
  20
4638028.500
  0
VERTEX
  8
Unknown_Area_Type
  10
269285.500
  20
4637642.500
  0
VERTEX
  8
Unknown_Area_Type
  10
269227.886
  20
4635006.272
  0
VERTEX
  8
Unknown_Area_Type
  10
269918.299
  20
4634983.818
  0
VERTEX
  8
Unknown_Area_Type
  10
271859.318
  20
4634921.634
  0
SEQEND
  8
Unknown_Area_Type
  0
INSERT
  8
FeatureAttribs
  2
FEATURE
  41
1
  42
1
  43
1
  50
0
  10
273210.585
  20
4634632.778
 66
1
  0
ATTRIB
  8
FeatureAttribs
 70
0
  1
PNOA-H_AMS_1956-57_33k_ES_PAN_2
  2
NAME
  10
273210.585
  20
4634632.778
 40
34.23482
  0
SEQEND
  0
POLYLINE
  8
Unknown_Area_Type
  70
1
  66
1
  0
VERTEX
  8
Unknown_Area_Type
  10
274570.164
  20
4634343.917
  0
VERTEX
  8
Unknown_Area_Type
  10
271860.824
  20
4634343.917
  0
VERTEX
  8
Unknown_Area_Type
  10
271859.133
  20
4634921.640
  0
VERTEX
  8
Unknown_Area_Type
  10
273378.469
  20
4634872.965
  0
VERTEX
  8
Unknown_Area_Type
  10
274554.882
  20
4634835.848
  0
VERTEX
  8
Unknown_Area_Type
  10
274570.164
  20
4634343.917
  0
SEQEND
  8
Unknown_Area_Type
  0
INSERT
  8
FeatureAttribs
  2
FEATURE
  41
1
  42
1
  43
1
  50
0
  10
273192.171
  20
4636294.362
 66
1
  0
ATTRIB
  8
FeatureAttribs
 70
0
  1
PNOA-H_AMS_1956-57_33k_ES_PAN_2
  2
NAME
  10
273192.171
  20
4636294.362
 40
34.23482
  0
SEQEND
  0
POLYLINE
  8
Unknown_Area_Type
  70
1
  66
1
  0
VERTEX
  8
Unknown_Area_Type
  10
274554.882
  20
4634835.848
  0
VERTEX
  8
Unknown_Area_Type
  10
273378.469
  20
4634872.965
  0
VERTEX
  8
Unknown_Area_Type
  10
271859.133
  20
4634921.640
  0
VERTEX
  8
Unknown_Area_Type
  10
271851.500
  20
4637528.000
  0
VERTEX
  8
Unknown_Area_Type
  10
272014.000
  20
4637568.500
  0
VERTEX
  8
Unknown_Area_Type
  10
272016.000
  20
4637569.000
  0
VERTEX
  8
Unknown_Area_Type
  10
273436.000
  20
4637923.000
  0
VERTEX
  8
Unknown_Area_Type
  10
273509.500
  20
4637940.500
  0
VERTEX
  8
Unknown_Area_Type
  10
274474.000
  20
4637439.500
  0
VERTEX
  8
Unknown_Area_Type
  10
274554.882
  20
4634835.848
  0
SEQEND
  8
Unknown_Area_Type
  0
INSERT
  8
FeatureAttribs
  2
FEATURE
  41
1
  42
1
  43
1
  50
0
  10
273192.171
  20
4636294.362
 66
1
  0
ATTRIB
  8
FeatureAttribs
 70
0
  1
PNOA-H_AMS_1956-57_33k_ES_PAN_2
  2
NAME
  10
273192.171
  20
4636294.362
 40
34.23482
  0
SEQEND
  0
POLYLINE
  8
Unknown_Area_Type
  70
1
  66
1
  0
VERTEX
  8
Unknown_Area_Type
  10
274554.882
  20
4634835.848
  0
VERTEX
  8
Unknown_Area_Type
  10
274474.000
  20
4637439.500
  0
VERTEX
  8
Unknown_Area_Type
  10
273509.500
  20
4637940.500
  0
VERTEX
  8
Unknown_Area_Type
  10
273436.000
  20
4637923.000
  0
VERTEX
  8
Unknown_Area_Type
  10
272016.000
  20
4637569.000
  0
VERTEX
  8
Unknown_Area_Type
  10
272014.000
  20
4637568.500
  0
VERTEX
  8
Unknown_Area_Type
  10
271851.500
  20
4637528.000
  0
VERTEX
  8
Unknown_Area_Type
  10
271859.133
  20
4634921.640
  0
VERTEX
  8
Unknown_Area_Type
  10
273378.469
  20
4634872.965
  0
VERTEX
  8
Unknown_Area_Type
  10
274554.882
  20
4634835.848
  0
SEQEND
  8
Unknown_Area_Type
  0
INSERT
  8
FeatureAttribs
  2
FEATURE
  41
1
  42
1
  43
1
  50
0
  10
281173.592
  20
4634507.746
 66
1
  0
ATTRIB
  8
FeatureAttribs
 70
0
  1
PNOA-H_AMS_1956-57_33k_ES_PAN_2
  2
NAME
  10
281173.592
  20
4634507.746
 40
34.23482
  0
SEQEND
  0
POLYLINE
  8
Unknown_Area_Type
  70
1
  66
1
  0
VERTEX
  8
Unknown_Area_Type
  10
282542.789
  20
4634343.917
  0
VERTEX
  8
Unknown_Area_Type
  10
279803.969
  20
4634343.917
  0
VERTEX
  8
Unknown_Area_Type
  10
279807.274
  20
4634671.575
  0
VERTEX
  8
Unknown_Area_Type
  10
280298.769
  20
4634656.307
  0
VERTEX
  8
Unknown_Area_Type
  10
282540.964
  20
4634587.744
  0
VERTEX
  8
Unknown_Area_Type
  10
282542.789
  20
4634343.917
  0
SEQEND
  8
Unknown_Area_Type
  0
INSERT
  8
FeatureAttribs
  2
FEATURE
  41
1
  42
1
  43
1
  50
0
  10
281194.382
  20
4636090.144
 66
1
  0
ATTRIB
  8
FeatureAttribs
 70
0
  1
PNOA-H_AMS_1956-57_33k_ES_PAN_2
  2
NAME
  10
281194.382
  20
4636090.144
 40
34.23482
  0
SEQEND
  0
POLYLINE
  8
Unknown_Area_Type
  70
1
  66
1
  0
VERTEX
  8
Unknown_Area_Type
  10
282540.964
  20
4634587.744
  0
VERTEX
  8
Unknown_Area_Type
  10
280298.769
  20
4634656.307
  0
VERTEX
  8
Unknown_Area_Type
  10
279807.274
  20
4634671.575
  0
VERTEX
  8
Unknown_Area_Type
  10
279834.500
  20
4637370.500
  0
VERTEX
  8
Unknown_Area_Type
  10
280206.000
  20
4637441.500
  0
VERTEX
  8
Unknown_Area_Type
  10
280208.500
  20
4637442.000
  0
VERTEX
  8
Unknown_Area_Type
  10
281850.000
  20
4637752.500
  0
VERTEX
  8
Unknown_Area_Type
  10
282520.500
  20
4637321.500
  0
VERTEX
  8
Unknown_Area_Type
  10
282540.964
  20
4634587.744
  0
SEQEND
  8
Unknown_Area_Type
  0
INSERT
  8
FeatureAttribs
  2
FEATURE
  41
1
  42
1
  43
1
  50
0
  10
281194.382
  20
4636090.144
 66
1
  0
ATTRIB
  8
FeatureAttribs
 70
0
  1
PNOA-H_AMS_1956-57_33k_ES_PAN_2
  2
NAME
  10
281194.382
  20
4636090.144
 40
34.23482
  0
SEQEND
  0
POLYLINE
  8
Unknown_Area_Type
  70
1
  66
1
  0
VERTEX
  8
Unknown_Area_Type
  10
282540.964
  20
4634587.744
  0
VERTEX
  8
Unknown_Area_Type
  10
282520.500
  20
4637321.500
  0
VERTEX
  8
Unknown_Area_Type
  10
281850.000
  20
4637752.500
  0
VERTEX
  8
Unknown_Area_Type
  10
280208.500
  20
4637442.000
  0
VERTEX
  8
Unknown_Area_Type
  10
280206.000
  20
4637441.500
  0
VERTEX
  8
Unknown_Area_Type
  10
279834.500
  20
4637370.500
  0
VERTEX
  8
Unknown_Area_Type
  10
279807.274
  20
4634671.575
  0
VERTEX
  8
Unknown_Area_Type
  10
280298.769
  20
4634656.307
  0
VERTEX
  8
Unknown_Area_Type
  10
282540.964
  20
4634587.744
  0
SEQEND
  8
Unknown_Area_Type
  0
INSERT
  8
FeatureAttribs
  2
FEATURE
  41
1
  42
1
  43
1
  50
0
  10
265215.321
  20
4634762.878
 66
1
  0
ATTRIB
  8
FeatureAttribs
 70
0
  1
PNOA-H_AMS_1956-57_33k_ES_PAN_2
  2
NAME
  10
265215.321
  20
4634762.878
 40
34.23482
  0
SEQEND
  0
POLYLINE
  8
Unknown_Area_Type
  70
1
  66
1
  0
VERTEX
  8
Unknown_Area_Type
  10
266553.400
  20
4634343.917
  0
VERTEX
  8
Unknown_Area_Type
  10
263867.055
  20
4634343.917
  0
VERTEX
  8
Unknown_Area_Type
  10
263868.368
  20
4635181.839
  0
VERTEX
  8
Unknown_Area_Type
  10
266458.116
  20
4635096.354
  0
VERTEX
  8
Unknown_Area_Type
  10
266570.434
  20
4635092.701
  0
VERTEX
  8
Unknown_Area_Type
  10
266553.400
  20
4634343.917
  0
SEQEND
  8
Unknown_Area_Type
  0
INSERT
  8
FeatureAttribs
  2
FEATURE
  41
1
  42
1
  43
1
  50
0
  10
265236.910
  20
4636588.524
 66
1
  0
ATTRIB
  8
FeatureAttribs
 70
0
  1
PNOA-H_AMS_1956-57_33k_ES_PAN_2
  2
NAME
  10
265236.910
  20
4636588.524
 40
34.23482
  0
SEQEND
  0
POLYLINE
  8
Unknown_Area_Type
  70
1
  66
1
  0
VERTEX
  8
Unknown_Area_Type
  10
266570.434
  20
4635092.701
  0
VERTEX
  8
Unknown_Area_Type
  10
266458.116
  20
4635096.354
  0
VERTEX
  8
Unknown_Area_Type
  10
263868.368
  20
4635181.839
  0
VERTEX
  8
Unknown_Area_Type
  10
263872.500
  20
4637818.000
  0
VERTEX
  8
Unknown_Area_Type
  10
265169.000
  20
4638260.500
  0
VERTEX
  8
Unknown_Area_Type
  10
265170.500
  20
4638261.000
  0
VERTEX
  8
Unknown_Area_Type
  10
266631.000
  20
4637755.000
  0
VERTEX
  8
Unknown_Area_Type
  10
266570.434
  20
4635092.701
  0
SEQEND
  8
Unknown_Area_Type
  0
INSERT
  8
FeatureAttribs
  2
FEATURE
  41
1
  42
1
  43
1
  50
0
  10
265236.910
  20
4636588.524
 66
1
  0
ATTRIB
  8
FeatureAttribs
 70
0
  1
PNOA-H_AMS_1956-57_33k_ES_PAN_2
  2
NAME
  10
265236.910
  20
4636588.524
 40
34.23482
  0
SEQEND
  0
POLYLINE
  8
Unknown_Area_Type
  70
1
  66
1
  0
VERTEX
  8
Unknown_Area_Type
  10
266570.434
  20
4635092.701
  0
VERTEX
  8
Unknown_Area_Type
  10
266631.000
  20
4637755.000
  0
VERTEX
  8
Unknown_Area_Type
  10
265170.500
  20
4638261.000
  0
VERTEX
  8
Unknown_Area_Type
  10
265169.000
  20
4638260.500
  0
VERTEX
  8
Unknown_Area_Type
  10
263872.500
  20
4637818.000
  0
VERTEX
  8
Unknown_Area_Type
  10
263868.368
  20
4635181.839
  0
VERTEX
  8
Unknown_Area_Type
  10
266458.116
  20
4635096.354
  0
VERTEX
  8
Unknown_Area_Type
  10
266570.434
  20
4635092.701
  0
SEQEND
  8
Unknown_Area_Type
  0
INSERT
  8
FeatureAttribs
  2
FEATURE
  41
1
  42
1
  43
1
  50
0
  10
286113.054
  20
4639613.551
 66
1
  0
ATTRIB
  8
FeatureAttribs
 70
0
  1
PNOA-H_AMS_1956-57_33k_ES_PAN_2
  2
NAME
  10
286113.054
  20
4639613.551
 40
34.23482
  0
SEQEND
  0
POLYLINE
  8
Unknown_Area_Type
  70
1
  66
1
  0
VERTEX
  8
Unknown_Area_Type
  10
286354.000
  20
4641807.500
  0
VERTEX
  8
Unknown_Area_Type
  10
287556.500
  20
4641512.500
  0
VERTEX
  8
Unknown_Area_Type
  10
287539.000
  20
4637605.500
  0
VERTEX
  8
Unknown_Area_Type
  10
285207.000
  20
4637367.500
  0
VERTEX
  8
Unknown_Area_Type
  10
284677.500
  20
4637743.000
  0
VERTEX
  8
Unknown_Area_Type
  10
284735.000
  20
4641608.500
  0
VERTEX
  8
Unknown_Area_Type
  10
285881.500
  20
4641923.000
  0
VERTEX
  8
Unknown_Area_Type
  10
285893.500
  20
4641921.000
  0
VERTEX
  8
Unknown_Area_Type
  10
286351.500
  20
4641808.000
  0
VERTEX
  8
Unknown_Area_Type
  10
286354.000
  20
4641807.500
  0
SEQEND
  8
Unknown_Area_Type
  0
INSERT
  8
FeatureAttribs
  2
FEATURE
  41
1
  42
1
  43
1
  50
0
  10
286113.054
  20
4639613.551
 66
1
  0
ATTRIB
  8
FeatureAttribs
 70
0
  1
PNOA-H_AMS_1956-57_33k_ES_PAN_2
  2
NAME
  10
286113.054
  20
4639613.551
 40
34.23482
  0
SEQEND
  0
POLYLINE
  8
Unknown_Area_Type
  70
1
  66
1
  0
VERTEX
  8
Unknown_Area_Type
  10
286354.000
  20
4641807.500
  0
VERTEX
  8
Unknown_Area_Type
  10
286351.500
  20
4641808.000
  0
VERTEX
  8
Unknown_Area_Type
  10
285893.500
  20
4641921.000
  0
VERTEX
  8
Unknown_Area_Type
  10
285881.500
  20
4641923.000
  0
VERTEX
  8
Unknown_Area_Type
  10
284735.000
  20
4641608.500
  0
VERTEX
  8
Unknown_Area_Type
  10
284677.500
  20
4637743.000
  0
VERTEX
  8
Unknown_Area_Type
  10
285207.000
  20
4637367.500
  0
VERTEX
  8
Unknown_Area_Type
  10
287539.000
  20
4637605.500
  0
VERTEX
  8
Unknown_Area_Type
  10
287556.500
  20
4641512.500
  0
VERTEX
  8
Unknown_Area_Type
  10
286354.000
  20
4641807.500
  0
SEQEND
  8
Unknown_Area_Type
  0
INSERT
  8
FeatureAttribs
  2
FEATURE
  41
1
  42
1
  43
1
  50
0
  10
280524.319
  20
4639785.631
 66
1
  0
ATTRIB
  8
FeatureAttribs
 70
0
  1
PNOA-H_AMS_1956-57_33k_ES_PAN_2
  2
NAME
  10
280524.319
  20
4639785.631
 40
34.23482
  0
SEQEND
  0
POLYLINE
  8
Unknown_Area_Type
  70
1
  66
1
  0
VERTEX
  8
Unknown_Area_Type
  10
280209.000
  20
4642128.500
  0
VERTEX
  8
Unknown_Area_Type
  10
280406.000
  20
4642179.000
  0
VERTEX
  8
Unknown_Area_Type
  10
281991.500
  20
4641767.500
  0
VERTEX
  8
Unknown_Area_Type
  10
281851.000
  20
4637778.500
  0
VERTEX
  8
Unknown_Area_Type
  10
281850.000
  20
4637752.500
  0
VERTEX
  8
Unknown_Area_Type
  10
281848.500
  20
4637752.000
  0
VERTEX
  8
Unknown_Area_Type
  10
279834.500
  20
4637371.000
  0
VERTEX
  8
Unknown_Area_Type
  10
279091.000
  20
4637838.000
  0
VERTEX
  8
Unknown_Area_Type
  10
279225.000
  20
4641874.500
  0
VERTEX
  8
Unknown_Area_Type
  10
280207.000
  20
4642128.000
  0
VERTEX
  8
Unknown_Area_Type
  10
280209.000
  20
4642128.500
  0
SEQEND
  8
Unknown_Area_Type
  0
INSERT
  8
FeatureAttribs
  2
FEATURE
  41
1
  42
1
  43
1
  50
0
  10
280524.319
  20
4639785.631
 66
1
  0
ATTRIB
  8
FeatureAttribs
 70
0
  1
PNOA-H_AMS_1956-57_33k_ES_PAN_2
  2
NAME
  10
280524.319
  20
4639785.631
 40
34.23482
  0
SEQEND
  0
POLYLINE
  8
Unknown_Area_Type
  70
1
  66
1
  0
VERTEX
  8
Unknown_Area_Type
  10
280209.000
  20
4642128.500
  0
VERTEX
  8
Unknown_Area_Type
  10
280207.000
  20
4642128.000
  0
VERTEX
  8
Unknown_Area_Type
  10
279225.000
  20
4641874.500
  0
VERTEX
  8
Unknown_Area_Type
  10
279091.000
  20
4637838.000
  0
VERTEX
  8
Unknown_Area_Type
  10
279834.500
  20
4637371.000
  0
VERTEX
  8
Unknown_Area_Type
  10
281848.500
  20
4637752.000
  0
VERTEX
  8
Unknown_Area_Type
  10
281850.000
  20
4637752.500
  0
VERTEX
  8
Unknown_Area_Type
  10
281851.000
  20
4637778.500
  0
VERTEX
  8
Unknown_Area_Type
  10
281991.500
  20
4641767.500
  0
VERTEX
  8
Unknown_Area_Type
  10
280406.000
  20
4642179.000
  0
VERTEX
  8
Unknown_Area_Type
  10
280209.000
  20
4642128.500
  0
SEQEND
  8
Unknown_Area_Type
  0
INSERT
  8
FeatureAttribs
  2
FEATURE
  41
1
  42
1
  43
1
  50
0
  10
288942.512
  20
4639546.201
 66
1
  0
ATTRIB
  8
FeatureAttribs
 70
0
  1
PNOA-H_AMS_1956-57_33k_ES_PAN_2
  2
NAME
  10
288942.512
  20
4639546.201
 40
34.23482
  0
SEQEND
  0
POLYLINE
  8
Unknown_Area_Type
  70
1
  66
1
  0
VERTEX
  8
Unknown_Area_Type
  10
287556.500
  20
4641512.500
  0
VERTEX
  8
Unknown_Area_Type
  10
288763.500
  20
4641866.500
  0
VERTEX
  8
Unknown_Area_Type
  10
288765.000
  20
4641867.000
  0
VERTEX
  8
Unknown_Area_Type
  10
290348.000
  20
4641441.000
  0
VERTEX
  8
Unknown_Area_Type
  10
290379.000
  20
4637563.500
  0
VERTEX
  8
Unknown_Area_Type
  10
290378.500
  20
4637520.500
  0
VERTEX
  8
Unknown_Area_Type
  10
287886.500
  20
4637336.500
  0
VERTEX
  8
Unknown_Area_Type
  10
287539.000
  20
4637605.500
  0
VERTEX
  8
Unknown_Area_Type
  10
287556.500
  20
4641512.500
  0
SEQEND
  8
Unknown_Area_Type
  0
INSERT
  8
FeatureAttribs
  2
FEATURE
  41
1
  42
1
  43
1
  50
0
  10
288942.512
  20
4639546.201
 66
1
  0
ATTRIB
  8
FeatureAttribs
 70
0
  1
PNOA-H_AMS_1956-57_33k_ES_PAN_2
  2
NAME
  10
288942.512
  20
4639546.201
 40
34.23482
  0
SEQEND
  0
POLYLINE
  8
Unknown_Area_Type
  70
1
  66
1
  0
VERTEX
  8
Unknown_Area_Type
  10
287556.500
  20
4641512.500
  0
VERTEX
  8
Unknown_Area_Type
  10
287539.000
  20
4637605.500
  0
VERTEX
  8
Unknown_Area_Type
  10
287886.500
  20
4637336.500
  0
VERTEX
  8
Unknown_Area_Type
  10
290378.500
  20
4637520.500
  0
VERTEX
  8
Unknown_Area_Type
  10
290379.000
  20
4637563.500
  0
VERTEX
  8
Unknown_Area_Type
  10
290348.000
  20
4641441.000
  0
VERTEX
  8
Unknown_Area_Type
  10
288765.000
  20
4641867.000
  0
VERTEX
  8
Unknown_Area_Type
  10
288763.500
  20
4641866.500
  0
VERTEX
  8
Unknown_Area_Type
  10
287556.500
  20
4641512.500
  0
SEQEND
  8
Unknown_Area_Type
  0
INSERT
  8
FeatureAttribs
  2
FEATURE
  41
1
  42
1
  43
1
  50
0
  10
277761.632
  20
4639869.714
 66
1
  0
ATTRIB
  8
FeatureAttribs
 70
0
  1
PNOA-H_AMS_1956-57_33k_ES_PAN_2
  2
NAME
  10
277761.632
  20
4639869.714
 40
34.23482
  0
SEQEND
  0
POLYLINE
  8
Unknown_Area_Type
  70
1
  66
1
  0
VERTEX
  8
Unknown_Area_Type
  10
277568.000
  20
4642285.500
  0
VERTEX
  8
Unknown_Area_Type
  10
279225.000
  20
4641874.500
  0
VERTEX
  8
Unknown_Area_Type
  10
279091.500
  20
4637848.500
  0
VERTEX
  8
Unknown_Area_Type
  10
279091.000
  20
4637838.000
  0
VERTEX
  8
Unknown_Area_Type
  10
279089.500
  20
4637837.500
  0
VERTEX
  8
Unknown_Area_Type
  10
277178.500
  20
4637427.000
  0
VERTEX
  8
Unknown_Area_Type
  10
276321.500
  20
4637895.000
  0
VERTEX
  8
Unknown_Area_Type
  10
276476.500
  20
4641998.000
  0
VERTEX
  8
Unknown_Area_Type
  10
277566.000
  20
4642285.000
  0
VERTEX
  8
Unknown_Area_Type
  10
277568.000
  20
4642285.500
  0
SEQEND
  8
Unknown_Area_Type
  0
INSERT
  8
FeatureAttribs
  2
FEATURE
  41
1
  42
1
  43
1
  50
0
  10
277761.632
  20
4639869.714
 66
1
  0
ATTRIB
  8
FeatureAttribs
 70
0
  1
PNOA-H_AMS_1956-57_33k_ES_PAN_2
  2
NAME
  10
277761.632
  20
4639869.714
 40
34.23482
  0
SEQEND
  0
POLYLINE
  8
Unknown_Area_Type
  70
1
  66
1
  0
VERTEX
  8
Unknown_Area_Type
  10
277568.000
  20
4642285.500
  0
VERTEX
  8
Unknown_Area_Type
  10
277566.000
  20
4642285.000
  0
VERTEX
  8
Unknown_Area_Type
  10
276476.500
  20
4641998.000
  0
VERTEX
  8
Unknown_Area_Type
  10
276321.500
  20
4637895.000
  0
VERTEX
  8
Unknown_Area_Type
  10
277178.500
  20
4637427.000
  0
VERTEX
  8
Unknown_Area_Type
  10
279089.500
  20
4637837.500
  0
VERTEX
  8
Unknown_Area_Type
  10
279091.000
  20
4637838.000
  0
VERTEX
  8
Unknown_Area_Type
  10
279091.500
  20
4637848.500
  0
VERTEX
  8
Unknown_Area_Type
  10
279225.000
  20
4641874.500
  0
VERTEX
  8
Unknown_Area_Type
  10
277568.000
  20
4642285.500
  0
SEQEND
  8
Unknown_Area_Type
  0
INSERT
  8
FeatureAttribs
  2
FEATURE
  41
1
  42
1
  43
1
  50
0
  10
272253.926
  20
4640027.163
 66
1
  0
ATTRIB
  8
FeatureAttribs
 70
0
  1
PNOA-H_AMS_1956-57_33k_ES_PAN_2
  2
NAME
  10
272253.926
  20
4640027.163
 40
34.23482
  0
SEQEND
  0
POLYLINE
  8
Unknown_Area_Type
  70
1
  66
1
  0
VERTEX
  8
Unknown_Area_Type
  10
272016.500
  20
4642466.500
  0
VERTEX
  8
Unknown_Area_Type
  10
272100.000
  20
4642490.000
  0
VERTEX
  8
Unknown_Area_Type
  10
273801.500
  20
4642098.000
  0
VERTEX
  8
Unknown_Area_Type
  10
273508.500
  20
4637940.500
  0
VERTEX
  8
Unknown_Area_Type
  10
271850.500
  20
4637528.000
  0
VERTEX
  8
Unknown_Area_Type
  10
270715.000
  20
4638028.500
  0
VERTEX
  8
Unknown_Area_Type
  10
271034.000
  20
4642186.500
  0
VERTEX
  8
Unknown_Area_Type
  10
272015.000
  20
4642466.000
  0
VERTEX
  8
Unknown_Area_Type
  10
272016.500
  20
4642466.500
  0
SEQEND
  8
Unknown_Area_Type
  0
INSERT
  8
FeatureAttribs
  2
FEATURE
  41
1
  42
1
  43
1
  50
0
  10
272253.926
  20
4640027.163
 66
1
  0
ATTRIB
  8
FeatureAttribs
 70
0
  1
PNOA-H_AMS_1956-57_33k_ES_PAN_2
  2
NAME
  10
272253.926
  20
4640027.163
 40
34.23482
  0
SEQEND
  0
POLYLINE
  8
Unknown_Area_Type
  70
1
  66
1
  0
VERTEX
  8
Unknown_Area_Type
  10
272016.500
  20
4642466.500
  0
VERTEX
  8
Unknown_Area_Type
  10
272015.000
  20
4642466.000
  0
VERTEX
  8
Unknown_Area_Type
  10
271034.000
  20
4642186.500
  0
VERTEX
  8
Unknown_Area_Type
  10
270715.000
  20
4638028.500
  0
VERTEX
  8
Unknown_Area_Type
  10
271850.500
  20
4637528.000
  0
VERTEX
  8
Unknown_Area_Type
  10
273508.500
  20
4637940.500
  0
VERTEX
  8
Unknown_Area_Type
  10
273801.500
  20
4642098.000
  0
VERTEX
  8
Unknown_Area_Type
  10
272100.000
  20
4642490.000
  0
VERTEX
  8
Unknown_Area_Type
  10
272016.500
  20
4642466.500
  0
SEQEND
  8
Unknown_Area_Type
  0
INSERT
  8
FeatureAttribs
  2
FEATURE
  41
1
  42
1
  43
1
  50
0
  10
283288.911
  20
4639681.170
 66
1
  0
ATTRIB
  8
FeatureAttribs
 70
0
  1
PNOA-H_AMS_1956-57_33k_ES_PAN_2
  2
NAME
  10
283288.911
  20
4639681.170
 40
34.23482
  0
SEQEND
  0
POLYLINE
  8
Unknown_Area_Type
  70
1
  66
1
  0
VERTEX
  8
Unknown_Area_Type
  10
282256.500
  20
4641829.500
  0
VERTEX
  8
Unknown_Area_Type
  10
283119.500
  20
4642031.000
  0
VERTEX
  8
Unknown_Area_Type
  10
284735.000
  20
4641608.000
  0
VERTEX
  8
Unknown_Area_Type
  10
284677.500
  20
4637743.000
  0
VERTEX
  8
Unknown_Area_Type
  10
282519.500
  20
4637321.500
  0
VERTEX
  8
Unknown_Area_Type
  10
281850.000
  20
4637752.000
  0
VERTEX
  8
Unknown_Area_Type
  10
281991.500
  20
4641767.000
  0
VERTEX
  8
Unknown_Area_Type
  10
282254.500
  20
4641829.000
  0
VERTEX
  8
Unknown_Area_Type
  10
282256.500
  20
4641829.500
  0
SEQEND
  8
Unknown_Area_Type
  0
INSERT
  8
FeatureAttribs
  2
FEATURE
  41
1
  42
1
  43
1
  50
0
  10
283288.911
  20
4639681.170
 66
1
  0
ATTRIB
  8
FeatureAttribs
 70
0
  1
PNOA-H_AMS_1956-57_33k_ES_PAN_2
  2
NAME
  10
283288.911
  20
4639681.170
 40
34.23482
  0
SEQEND
  0
POLYLINE
  8
Unknown_Area_Type
  70
1
  66
1
  0
VERTEX
  8
Unknown_Area_Type
  10
282256.500
  20
4641829.500
  0
VERTEX
  8
Unknown_Area_Type
  10
282254.500
  20
4641829.000
  0
VERTEX
  8
Unknown_Area_Type
  10
281991.500
  20
4641767.000
  0
VERTEX
  8
Unknown_Area_Type
  10
281850.000
  20
4637752.000
  0
VERTEX
  8
Unknown_Area_Type
  10
282519.500
  20
4637321.500
  0
VERTEX
  8
Unknown_Area_Type
  10
284677.500
  20
4637743.000
  0
VERTEX
  8
Unknown_Area_Type
  10
284735.000
  20
4641608.000
  0
VERTEX
  8
Unknown_Area_Type
  10
283119.500
  20
4642031.000
  0
VERTEX
  8
Unknown_Area_Type
  10
282256.500
  20
4641829.500
  0
SEQEND
  8
Unknown_Area_Type
  0
INSERT
  8
FeatureAttribs
  2
FEATURE
  41
1
  42
1
  43
1
  50
0
  10
263081.491
  20
4640235.725
 66
1
  0
ATTRIB
  8
FeatureAttribs
 70
0
  1
PNOA-H_AMS_1956-57_33k_ES_PAN_2
  2
NAME
  10
263081.491
  20
4640235.725
 40
34.23482
  0
SEQEND
  0
POLYLINE
  8
Unknown_Area_Type
  70
1
  66
1
  0
VERTEX
  8
Unknown_Area_Type
  10
263092.840
  20
4638064.347
  0
VERTEX
  8
Unknown_Area_Type
  10
262997.890
  20
4638094.367
  0
VERTEX
  8
Unknown_Area_Type
  10
262997.890
  20
4642327.335
  0
VERTEX
  8
Unknown_Area_Type
  10
263237.373
  20
4642407.103
  0
VERTEX
  8
Unknown_Area_Type
  10
263228.833
  20
4642150.664
  0
VERTEX
  8
Unknown_Area_Type
  10
263151.830
  20
4639837.294
  0
VERTEX
  8
Unknown_Area_Type
  10
263092.840
  20
4638064.347
  0
SEQEND
  8
Unknown_Area_Type
  0
INSERT
  8
FeatureAttribs
  2
FEATURE
  41
1
  42
1
  43
1
  50
0
  10
264177.038
  20
4640216.115
 66
1
  0
ATTRIB
  8
FeatureAttribs
 70
0
  1
PNOA-H_AMS_1956-57_33k_ES_PAN_2
  2
NAME
  10
264177.038
  20
4640216.115
 40
34.23482
  0
SEQEND
  0
POLYLINE
  8
Unknown_Area_Type
  70
1
  66
1
  0
VERTEX
  8
Unknown_Area_Type
  10
263237.373
  20
4642407.103
  0
VERTEX
  8
Unknown_Area_Type
  10
263824.000
  20
4642602.500
  0
VERTEX
  8
Unknown_Area_Type
  10
263825.500
  20
4642603.000
  0
VERTEX
  8
Unknown_Area_Type
  10
263846.000
  20
4642609.000
  0
VERTEX
  8
Unknown_Area_Type
  10
265303.500
  20
4642185.500
  0
VERTEX
  8
Unknown_Area_Type
  10
265171.000
  20
4638261.000
  0
VERTEX
  8
Unknown_Area_Type
  10
263883.500
  20
4637821.500
  0
VERTEX
  8
Unknown_Area_Type
  10
263872.000
  20
4637818.000
  0
VERTEX
  8
Unknown_Area_Type
  10
263092.840
  20
4638064.347
  0
VERTEX
  8
Unknown_Area_Type
  10
263151.830
  20
4639837.294
  0
VERTEX
  8
Unknown_Area_Type
  10
263228.833
  20
4642150.664
  0
VERTEX
  8
Unknown_Area_Type
  10
263237.373
  20
4642407.103
  0
SEQEND
  8
Unknown_Area_Type
  0
INSERT
  8
FeatureAttribs
  2
FEATURE
  41
1
  42
1
  43
1
  50
0
  10
264177.038
  20
4640216.115
 66
1
  0
ATTRIB
  8
FeatureAttribs
 70
0
  1
PNOA-H_AMS_1956-57_33k_ES_PAN_2
  2
NAME
  10
264177.038
  20
4640216.115
 40
34.23482
  0
SEQEND
  0
POLYLINE
  8
Unknown_Area_Type
  70
1
  66
1
  0
VERTEX
  8
Unknown_Area_Type
  10
263237.373
  20
4642407.103
  0
VERTEX
  8
Unknown_Area_Type
  10
263228.833
  20
4642150.664
  0
VERTEX
  8
Unknown_Area_Type
  10
263151.830
  20
4639837.294
  0
VERTEX
  8
Unknown_Area_Type
  10
263092.840
  20
4638064.347
  0
VERTEX
  8
Unknown_Area_Type
  10
263872.000
  20
4637818.000
  0
VERTEX
  8
Unknown_Area_Type
  10
263883.500
  20
4637821.500
  0
VERTEX
  8
Unknown_Area_Type
  10
265171.000
  20
4638261.000
  0
VERTEX
  8
Unknown_Area_Type
  10
265303.500
  20
4642185.500
  0
VERTEX
  8
Unknown_Area_Type
  10
263846.000
  20
4642609.000
  0
VERTEX
  8
Unknown_Area_Type
  10
263825.500
  20
4642603.000
  0
VERTEX
  8
Unknown_Area_Type
  10
263824.000
  20
4642602.500
  0
VERTEX
  8
Unknown_Area_Type
  10
263237.373
  20
4642407.103
  0
SEQEND
  8
Unknown_Area_Type
  0
INSERT
  8
FeatureAttribs
  2
FEATURE
  41
1
  42
1
  43
1
  50
0
  10
269476.951
  20
4640130.710
 66
1
  0
ATTRIB
  8
FeatureAttribs
 70
0
  1
PNOA-H_AMS_1956-57_33k_ES_PAN_2
  2
NAME
  10
269476.951
  20
4640130.710
 40
34.23482
  0
SEQEND
  0
POLYLINE
  8
Unknown_Area_Type
  70
1
  66
1
  0
VERTEX
  8
Unknown_Area_Type
  10
269410.000
  20
4642570.500
  0
VERTEX
  8
Unknown_Area_Type
  10
269420.500
  20
4642569.000
  0
VERTEX
  8
Unknown_Area_Type
  10
271034.000
  20
4642186.500
  0
VERTEX
  8
Unknown_Area_Type
  10
270715.500
  20
4638035.000
  0
VERTEX
  8
Unknown_Area_Type
  10
270715.000
  20
4638029.000
  0
VERTEX
  8
Unknown_Area_Type
  10
270714.000
  20
4638028.500
  0
VERTEX
  8
Unknown_Area_Type
  10
269284.500
  20
4637642.500
  0
VERTEX
  8
Unknown_Area_Type
  10
267940.000
  20
4638164.500
  0
VERTEX
  8
Unknown_Area_Type
  10
268212.500
  20
4642203.500
  0
VERTEX
  8
Unknown_Area_Type
  10
268224.000
  20
4642208.000
  0
VERTEX
  8
Unknown_Area_Type
  10
269408.500
  20
4642570.000
  0
VERTEX
  8
Unknown_Area_Type
  10
269410.000
  20
4642570.500
  0
SEQEND
  8
Unknown_Area_Type
  0
INSERT
  8
FeatureAttribs
  2
FEATURE
  41
1
  42
1
  43
1
  50
0
  10
269476.951
  20
4640130.710
 66
1
  0
ATTRIB
  8
FeatureAttribs
 70
0
  1
PNOA-H_AMS_1956-57_33k_ES_PAN_2
  2
NAME
  10
269476.951
  20
4640130.710
 40
34.23482
  0
SEQEND
  0
POLYLINE
  8
Unknown_Area_Type
  70
1
  66
1
  0
VERTEX
  8
Unknown_Area_Type
  10
269410.000
  20
4642570.500
  0
VERTEX
  8
Unknown_Area_Type
  10
269408.500
  20
4642570.000
  0
VERTEX
  8
Unknown_Area_Type
  10
268224.000
  20
4642208.000
  0
VERTEX
  8
Unknown_Area_Type
  10
268212.500
  20
4642203.500
  0
VERTEX
  8
Unknown_Area_Type
  10
267940.000
  20
4638164.500
  0
VERTEX
  8
Unknown_Area_Type
  10
269284.500
  20
4637642.500
  0
VERTEX
  8
Unknown_Area_Type
  10
270714.000
  20
4638028.500
  0
VERTEX
  8
Unknown_Area_Type
  10
270715.000
  20
4638029.000
  0
VERTEX
  8
Unknown_Area_Type
  10
270715.500
  20
4638035.000
  0
VERTEX
  8
Unknown_Area_Type
  10
271034.000
  20
4642186.500
  0
VERTEX
  8
Unknown_Area_Type
  10
269420.500
  20
4642569.000
  0
VERTEX
  8
Unknown_Area_Type
  10
269410.000
  20
4642570.500
  0
SEQEND
  8
Unknown_Area_Type
  0
INSERT
  8
FeatureAttribs
  2
FEATURE
  41
1
  42
1
  43
1
  50
0
  10
275008.889
  20
4639918.967
 66
1
  0
ATTRIB
  8
FeatureAttribs
 70
0
  1
PNOA-H_AMS_1956-57_33k_ES_PAN_2
  2
NAME
  10
275008.889
  20
4639918.967
 40
34.23482
  0
SEQEND
  0
POLYLINE
  8
Unknown_Area_Type
  70
1
  66
1
  0
VERTEX
  8
Unknown_Area_Type
  10
276114.000
  20
4642079.000
  0
VERTEX
  8
Unknown_Area_Type
  10
276476.500
  20
4641998.000
  0
VERTEX
  8
Unknown_Area_Type
  10
276321.500
  20
4637895.000
  0
VERTEX
  8
Unknown_Area_Type
  10
274473.000
  20
4637439.500
  0
VERTEX
  8
Unknown_Area_Type
  10
273508.500
  20
4637940.500
  0
VERTEX
  8
Unknown_Area_Type
  10
273801.500
  20
4642098.000
  0
VERTEX
  8
Unknown_Area_Type
  10
274777.500
  20
4642371.000
  0
VERTEX
  8
Unknown_Area_Type
  10
274795.000
  20
4642375.000
  0
VERTEX
  8
Unknown_Area_Type
  10
276111.500
  20
4642079.500
  0
VERTEX
  8
Unknown_Area_Type
  10
276114.000
  20
4642079.000
  0
SEQEND
  8
Unknown_Area_Type
  0
INSERT
  8
FeatureAttribs
  2
FEATURE
  41
1
  42
1
  43
1
  50
0
  10
275008.889
  20
4639918.967
 66
1
  0
ATTRIB
  8
FeatureAttribs
 70
0
  1
PNOA-H_AMS_1956-57_33k_ES_PAN_2
  2
NAME
  10
275008.889
  20
4639918.967
 40
34.23482
  0
SEQEND
  0
POLYLINE
  8
Unknown_Area_Type
  70
1
  66
1
  0
VERTEX
  8
Unknown_Area_Type
  10
276114.000
  20
4642079.000
  0
VERTEX
  8
Unknown_Area_Type
  10
276111.500
  20
4642079.500
  0
VERTEX
  8
Unknown_Area_Type
  10
274795.000
  20
4642375.000
  0
VERTEX
  8
Unknown_Area_Type
  10
274777.500
  20
4642371.000
  0
VERTEX
  8
Unknown_Area_Type
  10
273801.500
  20
4642098.000
  0
VERTEX
  8
Unknown_Area_Type
  10
273508.500
  20
4637940.500
  0
VERTEX
  8
Unknown_Area_Type
  10
274473.000
  20
4637439.500
  0
VERTEX
  8
Unknown_Area_Type
  10
276321.500
  20
4637895.000
  0
VERTEX
  8
Unknown_Area_Type
  10
276476.500
  20
4641998.000
  0
VERTEX
  8
Unknown_Area_Type
  10
276114.000
  20
4642079.000
  0
SEQEND
  8
Unknown_Area_Type
  0
INSERT
  8
FeatureAttribs
  2
FEATURE
  41
1
  42
1
  43
1
  50
0
  10
290627.675
  20
4635853.181
 66
1
  0
ATTRIB
  8
FeatureAttribs
 70
0
  1
PNOA-H_AMS_1956-57_33k_ES_PAN_2
  2
NAME
  10
290627.675
  20
4635853.181
 40
34.23482
  0
SEQEND
  0
POLYLINE
  8
Unknown_Area_Type
  70
1
  66
1
  0
VERTEX
  8
Unknown_Area_Type
  10
290767.782
  20
4637362.427
  0
VERTEX
  8
Unknown_Area_Type
  10
290747.062
  20
4636657.224
  0
VERTEX
  8
Unknown_Area_Type
  10
290679.122
  20
4634343.936
  0
VERTEX
  8
Unknown_Area_Type
  10
290474.884
  20
4634349.983
  0
VERTEX
  8
Unknown_Area_Type
  10
290589.000
  20
4637358.500
  0
VERTEX
  8
Unknown_Area_Type
  10
290767.782
  20
4637362.427
  0
SEQEND
  8
Unknown_Area_Type
  0
INSERT
  8
FeatureAttribs
  2
FEATURE
  41
1
  42
1
  43
1
  50
0
  10
290627.675
  20
4635853.181
 66
1
  0
ATTRIB
  8
FeatureAttribs
 70
0
  1
PNOA-H_AMS_1956-57_33k_ES_PAN_2
  2
NAME
  10
290627.675
  20
4635853.181
 40
34.23482
  0
SEQEND
  0
POLYLINE
  8
Unknown_Area_Type
  70
1
  66
1
  0
VERTEX
  8
Unknown_Area_Type
  10
290767.782
  20
4637362.427
  0
VERTEX
  8
Unknown_Area_Type
  10
290747.062
  20
4636657.224
  0
VERTEX
  8
Unknown_Area_Type
  10
290679.122
  20
4634343.936
  0
VERTEX
  8
Unknown_Area_Type
  10
290474.884
  20
4634349.983
  0
VERTEX
  8
Unknown_Area_Type
  10
290589.000
  20
4637358.500
  0
VERTEX
  8
Unknown_Area_Type
  10
290767.782
  20
4637362.427
  0
SEQEND
  8
Unknown_Area_Type
  0
INSERT
  8
FeatureAttribs
  2
FEATURE
  41
1
  42
1
  43
1
  50
0
  10
290526.049
  20
4634346.950
 66
1
  0
ATTRIB
  8
FeatureAttribs
 70
0
  1
PNOA-H_AMS_1956-57_33k_ES_PAN_2
  2
NAME
  10
290526.049
  20
4634346.950
 40
34.23482
  0
SEQEND
  0
POLYLINE
  8
Unknown_Area_Type
  70
1
  66
1
  0
VERTEX
  8
Unknown_Area_Type
  10
290474.884
  20
4634349.983
  0
VERTEX
  8
Unknown_Area_Type
  10
290679.122
  20
4634343.936
  0
VERTEX
  8
Unknown_Area_Type
  10
290679.121
  20
4634343.917
  0
VERTEX
  8
Unknown_Area_Type
  10
290474.654
  20
4634343.917
  0
VERTEX
  8
Unknown_Area_Type
  10
290474.884
  20
4634349.983
  0
SEQEND
  8
Unknown_Area_Type
  0
INSERT
  8
FeatureAttribs
  2
FEATURE
  41
1
  42
1
  43
1
  50
0
  10
290679.288
  20
4634343.927
 66
1
  0
ATTRIB
  8
FeatureAttribs
 70
0
  1
PNOA-H_AMS_1956-57_33k_ES_PAN_2
  2
NAME
  10
290679.288
  20
4634343.927
 40
34.23482
  0
SEQEND
  0
POLYLINE
  8
Unknown_Area_Type
  70
1
  66
1
  0
VERTEX
  8
Unknown_Area_Type
  10
290679.122
  20
4634343.936
  0
VERTEX
  8
Unknown_Area_Type
  10
290679.787
  20
4634343.917
  0
VERTEX
  8
Unknown_Area_Type
  10
290679.121
  20
4634343.917
  0
VERTEX
  8
Unknown_Area_Type
  10
290679.122
  20
4634343.936
  0
SEQEND
  8
Unknown_Area_Type
  0
INSERT
  8
FeatureAttribs
  2
FEATURE
  41
1
  42
1
  43
1
  50
0
  10
290973.521
  20
4635858.176
 66
1
  0
ATTRIB
  8
FeatureAttribs
 70
0
  1
PNOA-H_AMS_1956-57_33k_ES_PAN_2
  2
NAME
  10
290973.521
  20
4635858.176
 40
34.23482
  0
SEQEND
  0
POLYLINE
  8
Unknown_Area_Type
  70
1
  66
1
  0
VERTEX
  8
Unknown_Area_Type
  10
291223.447
  20
4637372.435
  0
VERTEX
  8
Unknown_Area_Type
  10
291223.447
  20
4634343.917
  0
VERTEX
  8
Unknown_Area_Type
  10
290679.787
  20
4634343.917
  0
VERTEX
  8
Unknown_Area_Type
  10
290679.122
  20
4634343.936
  0
VERTEX
  8
Unknown_Area_Type
  10
290747.062
  20
4636657.224
  0
VERTEX
  8
Unknown_Area_Type
  10
290767.782
  20
4637362.427
  0
VERTEX
  8
Unknown_Area_Type
  10
291223.447
  20
4637372.435
  0
SEQEND
  8
Unknown_Area_Type
  0
INSERT
  8
FeatureAttribs
  2
FEATURE
  41
1
  42
1
  43
1
  50
0
  10
266663.233
  20
4640214.668
 66
1
  0
ATTRIB
  8
FeatureAttribs
 70
0
  1
PNOA-H_AMS_1956-57_33k_ES_PAN_2
  2
NAME
  10
266663.233
  20
4640214.668
 40
34.23482
  0
SEQEND
  0
POLYLINE
  8
Unknown_Area_Type
  70
1
  66
1
  0
VERTEX
  8
Unknown_Area_Type
  10
265872.500
  20
4642367.000
  0
VERTEX
  8
Unknown_Area_Type
  10
266658.500
  20
4642617.000
  0
VERTEX
  8
Unknown_Area_Type
  10
268213.000
  20
4642204.500
  0
VERTEX
  8
Unknown_Area_Type
  10
267939.500
  20
4638164.500
  0
VERTEX
  8
Unknown_Area_Type
  10
266649.000
  20
4637760.000
  0
VERTEX
  8
Unknown_Area_Type
  10
266633.000
  20
4637755.000
  0
VERTEX
  8
Unknown_Area_Type
  10
266629.500
  20
4637755.000
  0
VERTEX
  8
Unknown_Area_Type
  10
265171.000
  20
4638260.500
  0
VERTEX
  8
Unknown_Area_Type
  10
265303.500
  20
4642185.500
  0
VERTEX
  8
Unknown_Area_Type
  10
265871.000
  20
4642366.500
  0
VERTEX
  8
Unknown_Area_Type
  10
265872.500
  20
4642367.000
  0
SEQEND
  8
Unknown_Area_Type
  0
INSERT
  8
FeatureAttribs
  2
FEATURE
  41
1
  42
1
  43
1
  50
0
  10
266663.233
  20
4640214.668
 66
1
  0
ATTRIB
  8
FeatureAttribs
 70
0
  1
PNOA-H_AMS_1956-57_33k_ES_PAN_2
  2
NAME
  10
266663.233
  20
4640214.668
 40
34.23482
  0
SEQEND
  0
POLYLINE
  8
Unknown_Area_Type
  70
1
  66
1
  0
VERTEX
  8
Unknown_Area_Type
  10
265872.500
  20
4642367.000
  0
VERTEX
  8
Unknown_Area_Type
  10
265871.000
  20
4642366.500
  0
VERTEX
  8
Unknown_Area_Type
  10
265303.500
  20
4642185.500
  0
VERTEX
  8
Unknown_Area_Type
  10
265171.000
  20
4638260.500
  0
VERTEX
  8
Unknown_Area_Type
  10
266629.500
  20
4637755.000
  0
VERTEX
  8
Unknown_Area_Type
  10
266633.000
  20
4637755.000
  0
VERTEX
  8
Unknown_Area_Type
  10
266649.000
  20
4637760.000
  0
VERTEX
  8
Unknown_Area_Type
  10
267939.500
  20
4638164.500
  0
VERTEX
  8
Unknown_Area_Type
  10
268213.000
  20
4642204.500
  0
VERTEX
  8
Unknown_Area_Type
  10
266658.500
  20
4642617.000
  0
VERTEX
  8
Unknown_Area_Type
  10
265872.500
  20
4642367.000
  0
SEQEND
  8
Unknown_Area_Type
  0
INSERT
  8
FeatureAttribs
  2
FEATURE
  41
1
  42
1
  43
1
  50
0
  10
291027.418
  20
4639527.057
 66
1
  0
ATTRIB
  8
FeatureAttribs
 70
0
  1
PNOA-H_AMS_1956-57_33k_ES_PAN_2
  2
NAME
  10
291027.418
  20
4639527.057
 40
34.23482
  0
SEQEND
  0
POLYLINE
  8
Unknown_Area_Type
  70
1
  66
1
  0
VERTEX
  8
Unknown_Area_Type
  10
291223.447
  20
4637372.440
  0
VERTEX
  8
Unknown_Area_Type
  10
290767.782
  20
4637362.436
  0
VERTEX
  8
Unknown_Area_Type
  10
290815.030
  20
4638970.519
  0
VERTEX
  8
Unknown_Area_Type
  10
290883.025
  20
4641283.820
  0
VERTEX
  8
Unknown_Area_Type
  10
290892.232
  20
4641596.932
  0
VERTEX
  8
Unknown_Area_Type
  10
291223.447
  20
4641691.677
  0
VERTEX
  8
Unknown_Area_Type
  10
291223.447
  20
4637372.440
  0
SEQEND
  8
Unknown_Area_Type
  0
INSERT
  8
FeatureAttribs
  2
FEATURE
  41
1
  42
1
  43
1
  50
0
  10
290600.837
  20
4639573.908
 66
1
  0
ATTRIB
  8
FeatureAttribs
 70
0
  1
PNOA-H_AMS_1956-57_33k_ES_PAN_2
  2
NAME
  10
290600.837
  20
4639573.908
 40
34.23482
  0
SEQEND
  0
POLYLINE
  8
Unknown_Area_Type
  70
1
  66
1
  0
VERTEX
  8
Unknown_Area_Type
  10
290767.782
  20
4637362.436
  0
VERTEX
  8
Unknown_Area_Type
  10
290588.500
  20
4637358.500
  0
VERTEX
  8
Unknown_Area_Type
  10
290379.000
  20
4637520.500
  0
VERTEX
  8
Unknown_Area_Type
  10
290348.000
  20
4641441.000
  0
VERTEX
  8
Unknown_Area_Type
  10
290447.000
  20
4641469.500
  0
VERTEX
  8
Unknown_Area_Type
  10
290448.500
  20
4641470.000
  0
VERTEX
  8
Unknown_Area_Type
  10
290892.232
  20
4641596.932
  0
VERTEX
  8
Unknown_Area_Type
  10
290883.025
  20
4641283.820
  0
VERTEX
  8
Unknown_Area_Type
  10
290815.030
  20
4638970.519
  0
VERTEX
  8
Unknown_Area_Type
  10
290767.782
  20
4637362.436
  0
SEQEND
  8
Unknown_Area_Type
  0
INSERT
  8
FeatureAttribs
  2
FEATURE
  41
1
  42
1
  43
1
  50
0
  10
290600.837
  20
4639573.908
 66
1
  0
ATTRIB
  8
FeatureAttribs
 70
0
  1
PNOA-H_AMS_1956-57_33k_ES_PAN_2
  2
NAME
  10
290600.837
  20
4639573.908
 40
34.23482
  0
SEQEND
  0
POLYLINE
  8
Unknown_Area_Type
  70
1
  66
1
  0
VERTEX
  8
Unknown_Area_Type
  10
290767.782
  20
4637362.436
  0
VERTEX
  8
Unknown_Area_Type
  10
290815.030
  20
4638970.519
  0
VERTEX
  8
Unknown_Area_Type
  10
290883.025
  20
4641283.820
  0
VERTEX
  8
Unknown_Area_Type
  10
290892.232
  20
4641596.932
  0
VERTEX
  8
Unknown_Area_Type
  10
290448.500
  20
4641470.000
  0
VERTEX
  8
Unknown_Area_Type
  10
290447.000
  20
4641469.500
  0
VERTEX
  8
Unknown_Area_Type
  10
290348.000
  20
4641441.000
  0
VERTEX
  8
Unknown_Area_Type
  10
290379.000
  20
4637520.500
  0
VERTEX
  8
Unknown_Area_Type
  10
290588.500
  20
4637358.500
  0
VERTEX
  8
Unknown_Area_Type
  10
290767.782
  20
4637362.436
  0
SEQEND
  8
Unknown_Area_Type
  0
INSERT
  8
FeatureAttribs
  2
FEATURE
  41
1
  42
1
  43
1
  50
0
  10
263154.377
  20
4644614.004
 66
1
  0
ATTRIB
  8
FeatureAttribs
 70
0
  1
PNOA-H_AMS_1956-57_33k_ES_PAN_2
  2
NAME
  10
263154.377
  20
4644614.004
 40
34.23482
  0
SEQEND
  0
POLYLINE
  8
Unknown_Area_Type
  70
1
  66
1
  0
VERTEX
  8
Unknown_Area_Type
  10
263237.359
  20
4642406.694
  0
VERTEX
  8
Unknown_Area_Type
  10
262997.890
  20
4642326.900
  0
VERTEX
  8
Unknown_Area_Type
  10
262997.890
  20
4646901.108
  0
VERTEX
  8
Unknown_Area_Type
  10
263380.808
  20
4646713.609
  0
VERTEX
  8
Unknown_Area_Type
  10
263305.868
  20
4644464.041
  0
VERTEX
  8
Unknown_Area_Type
  10
263237.359
  20
4642406.694
  0
SEQEND
  8
Unknown_Area_Type
  0
INSERT
  8
FeatureAttribs
  2
FEATURE
  41
1
  42
1
  43
1
  50
0
  10
263526.266
  20
4644305.409
 66
1
  0
ATTRIB
  8
FeatureAttribs
 70
0
  1
PNOA-H_AMS_1956-57_33k_ES_PAN_2
  2
NAME
  10
263526.266
  20
4644305.409
 40
34.23482
  0
SEQEND
  0
POLYLINE
  8
Unknown_Area_Type
  70
1
  66
1
  0
VERTEX
  8
Unknown_Area_Type
  10
263380.808
  20
4646713.609
  0
VERTEX
  8
Unknown_Area_Type
  10
263645.500
  20
4646584.000
  0
VERTEX
  8
Unknown_Area_Type
  10
263826.000
  20
4642984.000
  0
VERTEX
  8
Unknown_Area_Type
  10
263826.000
  20
4642974.000
  0
VERTEX
  8
Unknown_Area_Type
  10
263844.500
  20
4642609.000
  0
VERTEX
  8
Unknown_Area_Type
  10
263237.359
  20
4642406.694
  0
VERTEX
  8
Unknown_Area_Type
  10
263305.868
  20
4644464.041
  0
VERTEX
  8
Unknown_Area_Type
  10
263380.808
  20
4646713.609
  0
SEQEND
  8
Unknown_Area_Type
  0
INSERT
  8
FeatureAttribs
  2
FEATURE
  41
1
  42
1
  43
1
  50
0
  10
263526.266
  20
4644305.409
 66
1
  0
ATTRIB
  8
FeatureAttribs
 70
0
  1
PNOA-H_AMS_1956-57_33k_ES_PAN_2
  2
NAME
  10
263526.266
  20
4644305.409
 40
34.23482
  0
SEQEND
  0
POLYLINE
  8
Unknown_Area_Type
  70
1
  66
1
  0
VERTEX
  8
Unknown_Area_Type
  10
263380.808
  20
4646713.609
  0
VERTEX
  8
Unknown_Area_Type
  10
263305.868
  20
4644464.041
  0
VERTEX
  8
Unknown_Area_Type
  10
263237.359
  20
4642406.694
  0
VERTEX
  8
Unknown_Area_Type
  10
263844.500
  20
4642609.000
  0
VERTEX
  8
Unknown_Area_Type
  10
263826.000
  20
4642974.000
  0
VERTEX
  8
Unknown_Area_Type
  10
263826.000
  20
4642984.000
  0
VERTEX
  8
Unknown_Area_Type
  10
263645.500
  20
4646584.000
  0
VERTEX
  8
Unknown_Area_Type
  10
263380.808
  20
4646713.609
  0
SEQEND
  8
Unknown_Area_Type
  0
INSERT
  8
FeatureAttribs
  2
FEATURE
  41
1
  42
1
  43
1
  50
0
  10
267956.576
  20
4644616.720
 66
1
  0
ATTRIB
  8
FeatureAttribs
 70
0
  1
PNOA-H_AMS_1956-57_33k_ES_PAN_2
  2
NAME
  10
267956.576
  20
4644616.720
 40
34.23482
  0
SEQEND
  0
POLYLINE
  8
Unknown_Area_Type
  70
1
  66
1
  0
VERTEX
  8
Unknown_Area_Type
  10
268925.500
  20
4646958.500
  0
VERTEX
  8
Unknown_Area_Type
  10
268928.000
  20
4646958.000
  0
VERTEX
  8
Unknown_Area_Type
  10
269235.000
  20
4646759.000
  0
VERTEX
  8
Unknown_Area_Type
  10
269412.000
  20
4642570.500
  0
VERTEX
  8
Unknown_Area_Type
  10
268214.500
  20
4642204.500
  0
VERTEX
  8
Unknown_Area_Type
  10
268207.000
  20
4642205.500
  0
VERTEX
  8
Unknown_Area_Type
  10
266658.000
  20
4642617.000
  0
VERTEX
  8
Unknown_Area_Type
  10
266443.000
  20
4646677.000
  0
VERTEX
  8
Unknown_Area_Type
  10
268921.000
  20
4646958.000
  0
VERTEX
  8
Unknown_Area_Type
  10
268925.500
  20
4646958.500
  0
SEQEND
  8
Unknown_Area_Type
  0
INSERT
  8
FeatureAttribs
  2
FEATURE
  41
1
  42
1
  43
1
  50
0
  10
267956.576
  20
4644616.720
 66
1
  0
ATTRIB
  8
FeatureAttribs
 70
0
  1
PNOA-H_AMS_1956-57_33k_ES_PAN_2
  2
NAME
  10
267956.576
  20
4644616.720
 40
34.23482
  0
SEQEND
  0
POLYLINE
  8
Unknown_Area_Type
  70
1
  66
1
  0
VERTEX
  8
Unknown_Area_Type
  10
268925.500
  20
4646958.500
  0
VERTEX
  8
Unknown_Area_Type
  10
268921.000
  20
4646958.000
  0
VERTEX
  8
Unknown_Area_Type
  10
266443.000
  20
4646677.000
  0
VERTEX
  8
Unknown_Area_Type
  10
266658.000
  20
4642617.000
  0
VERTEX
  8
Unknown_Area_Type
  10
268207.000
  20
4642205.500
  0
VERTEX
  8
Unknown_Area_Type
  10
268214.500
  20
4642204.500
  0
VERTEX
  8
Unknown_Area_Type
  10
269412.000
  20
4642570.500
  0
VERTEX
  8
Unknown_Area_Type
  10
269235.000
  20
4646759.000
  0
VERTEX
  8
Unknown_Area_Type
  10
268928.000
  20
4646958.000
  0
VERTEX
  8
Unknown_Area_Type
  10
268925.500
  20
4646958.500
  0
SEQEND
  8
Unknown_Area_Type
  0
INSERT
  8
FeatureAttribs
  2
FEATURE
  41
1
  42
1
  43
1
  50
0
  10
273476.272
  20
4644595.213
 66
1
  0
ATTRIB
  8
FeatureAttribs
 70
0
  1
PNOA-H_AMS_1956-57_33k_ES_PAN_2
  2
NAME
  10
273476.272
  20
4644595.213
 40
34.23482
  0
SEQEND
  0
POLYLINE
  8
Unknown_Area_Type
  70
1
  66
1
  0
VERTEX
  8
Unknown_Area_Type
  10
274886.000
  20
4646899.000
  0
VERTEX
  8
Unknown_Area_Type
  10
274906.000
  20
4646899.000
  0
VERTEX
  8
Unknown_Area_Type
  10
274906.000
  20
4646891.500
  0
VERTEX
  8
Unknown_Area_Type
  10
274793.500
  20
4642375.000
  0
VERTEX
  8
Unknown_Area_Type
  10
273802.500
  20
4642098.000
  0
VERTEX
  8
Unknown_Area_Type
  10
272099.500
  20
4642490.000
  0
VERTEX
  8
Unknown_Area_Type
  10
272059.000
  20
4646853.500
  0
VERTEX
  8
Unknown_Area_Type
  10
274855.000
  20
4646898.500
  0
VERTEX
  8
Unknown_Area_Type
  10
274886.000
  20
4646899.000
  0
SEQEND
  8
Unknown_Area_Type
  0
INSERT
  8
FeatureAttribs
  2
FEATURE
  41
1
  42
1
  43
1
  50
0
  10
273476.272
  20
4644595.213
 66
1
  0
ATTRIB
  8
FeatureAttribs
 70
0
  1
PNOA-H_AMS_1956-57_33k_ES_PAN_2
  2
NAME
  10
273476.272
  20
4644595.213
 40
34.23482
  0
SEQEND
  0
POLYLINE
  8
Unknown_Area_Type
  70
1
  66
1
  0
VERTEX
  8
Unknown_Area_Type
  10
274886.000
  20
4646899.000
  0
VERTEX
  8
Unknown_Area_Type
  10
274855.000
  20
4646898.500
  0
VERTEX
  8
Unknown_Area_Type
  10
272059.000
  20
4646853.500
  0
VERTEX
  8
Unknown_Area_Type
  10
272099.500
  20
4642490.000
  0
VERTEX
  8
Unknown_Area_Type
  10
273802.500
  20
4642098.000
  0
VERTEX
  8
Unknown_Area_Type
  10
274793.500
  20
4642375.000
  0
VERTEX
  8
Unknown_Area_Type
  10
274906.000
  20
4646891.500
  0
VERTEX
  8
Unknown_Area_Type
  10
274906.000
  20
4646899.000
  0
VERTEX
  8
Unknown_Area_Type
  10
274886.000
  20
4646899.000
  0
SEQEND
  8
Unknown_Area_Type
  0
INSERT
  8
FeatureAttribs
  2
FEATURE
  41
1
  42
1
  43
1
  50
0
  10
265164.930
  20
4644594.858
 66
1
  0
ATTRIB
  8
FeatureAttribs
 70
0
  1
PNOA-H_AMS_1956-57_33k_ES_PAN_2
  2
NAME
  10
265164.930
  20
4644594.858
 40
34.23482
  0
SEQEND
  0
POLYLINE
  8
Unknown_Area_Type
  70
1
  66
1
  0
VERTEX
  8
Unknown_Area_Type
  10
263821.500
  20
4646616.000
  0
VERTEX
  8
Unknown_Area_Type
  10
263824.500
  20
4646616.500
  0
VERTEX
  8
Unknown_Area_Type
  10
265906.000
  20
4646986.500
  0
VERTEX
  8
Unknown_Area_Type
  10
265909.500
  20
4646985.500
  0
VERTEX
  8
Unknown_Area_Type
  10
266443.000
  20
4646677.000
  0
VERTEX
  8
Unknown_Area_Type
  10
266658.000
  20
4642617.000
  0
VERTEX
  8
Unknown_Area_Type
  10
265304.000
  20
4642185.500
  0
VERTEX
  8
Unknown_Area_Type
  10
263844.500
  20
4642609.000
  0
VERTEX
  8
Unknown_Area_Type
  10
263645.000
  20
4646584.000
  0
VERTEX
  8
Unknown_Area_Type
  10
263821.500
  20
4646616.000
  0
SEQEND
  8
Unknown_Area_Type
  0
INSERT
  8
FeatureAttribs
  2
FEATURE
  41
1
  42
1
  43
1
  50
0
  10
265164.930
  20
4644594.858
 66
1
  0
ATTRIB
  8
FeatureAttribs
 70
0
  1
PNOA-H_AMS_1956-57_33k_ES_PAN_2
  2
NAME
  10
265164.930
  20
4644594.858
 40
34.23482
  0
SEQEND
  0
POLYLINE
  8
Unknown_Area_Type
  70
1
  66
1
  0
VERTEX
  8
Unknown_Area_Type
  10
263821.500
  20
4646616.000
  0
VERTEX
  8
Unknown_Area_Type
  10
263645.000
  20
4646584.000
  0
VERTEX
  8
Unknown_Area_Type
  10
263844.500
  20
4642609.000
  0
VERTEX
  8
Unknown_Area_Type
  10
265304.000
  20
4642185.500
  0
VERTEX
  8
Unknown_Area_Type
  10
266658.000
  20
4642617.000
  0
VERTEX
  8
Unknown_Area_Type
  10
266443.000
  20
4646677.000
  0
VERTEX
  8
Unknown_Area_Type
  10
265909.500
  20
4646985.500
  0
VERTEX
  8
Unknown_Area_Type
  10
265906.000
  20
4646986.500
  0
VERTEX
  8
Unknown_Area_Type
  10
263824.500
  20
4646616.500
  0
VERTEX
  8
Unknown_Area_Type
  10
263821.500
  20
4646616.000
  0
SEQEND
  8
Unknown_Area_Type
  0
INSERT
  8
FeatureAttribs
  2
FEATURE
  41
1
  42
1
  43
1
  50
0
  10
276259.179
  20
4644540.958
 66
1
  0
ATTRIB
  8
FeatureAttribs
 70
0
  1
PNOA-H_AMS_1956-57_33k_ES_PAN_2
  2
NAME
  10
276259.179
  20
4644540.958
 40
34.23482
  0
SEQEND
  0
POLYLINE
  8
Unknown_Area_Type
  70
1
  66
1
  0
VERTEX
  8
Unknown_Area_Type
  10
276696.000
  20
4642056.000
  0
VERTEX
  8
Unknown_Area_Type
  10
276475.500
  20
4641998.000
  0
VERTEX
  8
Unknown_Area_Type
  10
274793.500
  20
4642375.000
  0
VERTEX
  8
Unknown_Area_Type
  10
274905.500
  20
4646891.500
  0
VERTEX
  8
Unknown_Area_Type
  10
274906.000
  20
4646899.500
  0
VERTEX
  8
Unknown_Area_Type
  10
274950.000
  20
4646932.500
  0
VERTEX
  8
Unknown_Area_Type
  10
277760.500
  20
4646852.000
  0
VERTEX
  8
Unknown_Area_Type
  10
277569.500
  20
4642285.500
  0
VERTEX
  8
Unknown_Area_Type
  10
276698.000
  20
4642056.000
  0
VERTEX
  8
Unknown_Area_Type
  10
276696.000
  20
4642056.000
  0
SEQEND
  8
Unknown_Area_Type
  0
INSERT
  8
FeatureAttribs
  2
FEATURE
  41
1
  42
1
  43
1
  50
0
  10
276259.179
  20
4644540.958
 66
1
  0
ATTRIB
  8
FeatureAttribs
 70
0
  1
PNOA-H_AMS_1956-57_33k_ES_PAN_2
  2
NAME
  10
276259.179
  20
4644540.958
 40
34.23482
  0
SEQEND
  0
POLYLINE
  8
Unknown_Area_Type
  70
1
  66
1
  0
VERTEX
  8
Unknown_Area_Type
  10
276696.000
  20
4642056.000
  0
VERTEX
  8
Unknown_Area_Type
  10
276698.000
  20
4642056.000
  0
VERTEX
  8
Unknown_Area_Type
  10
277569.500
  20
4642285.500
  0
VERTEX
  8
Unknown_Area_Type
  10
277760.500
  20
4646852.000
  0
VERTEX
  8
Unknown_Area_Type
  10
274950.000
  20
4646932.500
  0
VERTEX
  8
Unknown_Area_Type
  10
274906.000
  20
4646899.500
  0
VERTEX
  8
Unknown_Area_Type
  10
274905.500
  20
4646891.500
  0
VERTEX
  8
Unknown_Area_Type
  10
274793.500
  20
4642375.000
  0
VERTEX
  8
Unknown_Area_Type
  10
276475.500
  20
4641998.000
  0
VERTEX
  8
Unknown_Area_Type
  10
276696.000
  20
4642056.000
  0
SEQEND
  8
Unknown_Area_Type
  0
INSERT
  8
FeatureAttribs
  2
FEATURE
  41
1
  42
1
  43
1
  50
0
  10
270719.537
  20
4644628.641
 66
1
  0
ATTRIB
  8
FeatureAttribs
 70
0
  1
PNOA-H_AMS_1956-57_33k_ES_PAN_2
  2
NAME
  10
270719.537
  20
4644628.641
 40
34.23482
  0
SEQEND
  0
POLYLINE
  8
Unknown_Area_Type
  70
1
  66
1
  0
VERTEX
  8
Unknown_Area_Type
  10
269968.000
  20
4646811.000
  0
VERTEX
  8
Unknown_Area_Type
  10
271922.000
  20
4646950.000
  0
VERTEX
  8
Unknown_Area_Type
  10
271927.000
  20
4646949.000
  0
VERTEX
  8
Unknown_Area_Type
  10
272059.000
  20
4646853.500
  0
VERTEX
  8
Unknown_Area_Type
  10
272099.500
  20
4642490.000
  0
VERTEX
  8
Unknown_Area_Type
  10
271036.000
  20
4642186.500
  0
VERTEX
  8
Unknown_Area_Type
  10
271029.500
  20
4642187.000
  0
VERTEX
  8
Unknown_Area_Type
  10
269412.000
  20
4642570.500
  0
VERTEX
  8
Unknown_Area_Type
  10
269235.000
  20
4646758.500
  0
VERTEX
  8
Unknown_Area_Type
  10
269961.000
  20
4646810.500
  0
VERTEX
  8
Unknown_Area_Type
  10
269968.000
  20
4646811.000
  0
SEQEND
  8
Unknown_Area_Type
  0
INSERT
  8
FeatureAttribs
  2
FEATURE
  41
1
  42
1
  43
1
  50
0
  10
270719.537
  20
4644628.641
 66
1
  0
ATTRIB
  8
FeatureAttribs
 70
0
  1
PNOA-H_AMS_1956-57_33k_ES_PAN_2
  2
NAME
  10
270719.537
  20
4644628.641
 40
34.23482
  0
SEQEND
  0
POLYLINE
  8
Unknown_Area_Type
  70
1
  66
1
  0
VERTEX
  8
Unknown_Area_Type
  10
269968.000
  20
4646811.000
  0
VERTEX
  8
Unknown_Area_Type
  10
269961.000
  20
4646810.500
  0
VERTEX
  8
Unknown_Area_Type
  10
269235.000
  20
4646758.500
  0
VERTEX
  8
Unknown_Area_Type
  10
269412.000
  20
4642570.500
  0
VERTEX
  8
Unknown_Area_Type
  10
271029.500
  20
4642187.000
  0
VERTEX
  8
Unknown_Area_Type
  10
271036.000
  20
4642186.500
  0
VERTEX
  8
Unknown_Area_Type
  10
272099.500
  20
4642490.000
  0
VERTEX
  8
Unknown_Area_Type
  10
272059.000
  20
4646853.500
  0
VERTEX
  8
Unknown_Area_Type
  10
271927.000
  20
4646949.000
  0
VERTEX
  8
Unknown_Area_Type
  10
271922.000
  20
4646950.000
  0
VERTEX
  8
Unknown_Area_Type
  10
269968.000
  20
4646811.000
  0
SEQEND
  8
Unknown_Area_Type
  0
INSERT
  8
FeatureAttribs
  2
FEATURE
  41
1
  42
1
  43
1
  50
0
  10
281902.507
  20
4644440.139
 66
1
  0
ATTRIB
  8
FeatureAttribs
 70
0
  1
PNOA-H_AMS_1956-57_33k_ES_PAN_2
  2
NAME
  10
281902.507
  20
4644440.139
 40
34.23482
  0
SEQEND
  0
POLYLINE
  8
Unknown_Area_Type
  70
1
  66
1
  0
VERTEX
  8
Unknown_Area_Type
  10
281044.000
  20
4647054.000
  0
VERTEX
  8
Unknown_Area_Type
  10
283467.500
  20
4646736.500
  0
VERTEX
  8
Unknown_Area_Type
  10
283118.500
  20
4642031.000
  0
VERTEX
  8
Unknown_Area_Type
  10
281991.500
  20
4641767.000
  0
VERTEX
  8
Unknown_Area_Type
  10
280405.500
  20
4642179.000
  0
VERTEX
  8
Unknown_Area_Type
  10
280627.500
  20
4646801.000
  0
VERTEX
  8
Unknown_Area_Type
  10
280628.000
  20
4646804.000
  0
VERTEX
  8
Unknown_Area_Type
  10
280629.500
  20
4646805.000
  0
VERTEX
  8
Unknown_Area_Type
  10
281043.500
  20
4647053.000
  0
VERTEX
  8
Unknown_Area_Type
  10
281044.000
  20
4647054.000
  0
SEQEND
  8
Unknown_Area_Type
  0
INSERT
  8
FeatureAttribs
  2
FEATURE
  41
1
  42
1
  43
1
  50
0
  10
281902.507
  20
4644440.139
 66
1
  0
ATTRIB
  8
FeatureAttribs
 70
0
  1
PNOA-H_AMS_1956-57_33k_ES_PAN_2
  2
NAME
  10
281902.507
  20
4644440.139
 40
34.23482
  0
SEQEND
  0
POLYLINE
  8
Unknown_Area_Type
  70
1
  66
1
  0
VERTEX
  8
Unknown_Area_Type
  10
281044.000
  20
4647054.000
  0
VERTEX
  8
Unknown_Area_Type
  10
281043.500
  20
4647053.000
  0
VERTEX
  8
Unknown_Area_Type
  10
280629.500
  20
4646805.000
  0
VERTEX
  8
Unknown_Area_Type
  10
280628.000
  20
4646804.000
  0
VERTEX
  8
Unknown_Area_Type
  10
280627.500
  20
4646801.000
  0
VERTEX
  8
Unknown_Area_Type
  10
280405.500
  20
4642179.000
  0
VERTEX
  8
Unknown_Area_Type
  10
281991.500
  20
4641767.000
  0
VERTEX
  8
Unknown_Area_Type
  10
283118.500
  20
4642031.000
  0
VERTEX
  8
Unknown_Area_Type
  10
283467.500
  20
4646736.500
  0
VERTEX
  8
Unknown_Area_Type
  10
281044.000
  20
4647054.000
  0
SEQEND
  8
Unknown_Area_Type
  0
INSERT
  8
FeatureAttribs
  2
FEATURE
  41
1
  42
1
  43
1
  50
0
  10
284655.108
  20
4644309.271
 66
1
  0
ATTRIB
  8
FeatureAttribs
 70
0
  1
PNOA-H_AMS_1956-57_33k_ES_PAN_2
  2
NAME
  10
284655.108
  20
4644309.271
 40
34.23482
  0
SEQEND
  0
POLYLINE
  8
Unknown_Area_Type
  70
1
  66
1
  0
VERTEX
  8
Unknown_Area_Type
  10
284110.500
  20
4647032.000
  0
VERTEX
  8
Unknown_Area_Type
  10
286177.500
  20
4646617.500
  0
VERTEX
  8
Unknown_Area_Type
  10
285883.000
  20
4641923.000
  0
VERTEX
  8
Unknown_Area_Type
  10
284734.500
  20
4641608.000
  0
VERTEX
  8
Unknown_Area_Type
  10
283118.500
  20
4642031.000
  0
VERTEX
  8
Unknown_Area_Type
  10
283467.500
  20
4646737.000
  0
VERTEX
  8
Unknown_Area_Type
  10
284109.000
  20
4647031.500
  0
VERTEX
  8
Unknown_Area_Type
  10
284110.500
  20
4647032.000
  0
SEQEND
  8
Unknown_Area_Type
  0
INSERT
  8
FeatureAttribs
  2
FEATURE
  41
1
  42
1
  43
1
  50
0
  10
284655.108
  20
4644309.271
 66
1
  0
ATTRIB
  8
FeatureAttribs
 70
0
  1
PNOA-H_AMS_1956-57_33k_ES_PAN_2
  2
NAME
  10
284655.108
  20
4644309.271
 40
34.23482
  0
SEQEND
  0
POLYLINE
  8
Unknown_Area_Type
  70
1
  66
1
  0
VERTEX
  8
Unknown_Area_Type
  10
284110.500
  20
4647032.000
  0
VERTEX
  8
Unknown_Area_Type
  10
284109.000
  20
4647031.500
  0
VERTEX
  8
Unknown_Area_Type
  10
283467.500
  20
4646737.000
  0
VERTEX
  8
Unknown_Area_Type
  10
283118.500
  20
4642031.000
  0
VERTEX
  8
Unknown_Area_Type
  10
284734.500
  20
4641608.000
  0
VERTEX
  8
Unknown_Area_Type
  10
285883.000
  20
4641923.000
  0
VERTEX
  8
Unknown_Area_Type
  10
286177.500
  20
4646617.500
  0
VERTEX
  8
Unknown_Area_Type
  10
284110.500
  20
4647032.000
  0
SEQEND
  8
Unknown_Area_Type
  0
INSERT
  8
FeatureAttribs
  2
FEATURE
  41
1
  42
1
  43
1
  50
0
  10
291094.900
  20
4644117.365
 66
1
  0
ATTRIB
  8
FeatureAttribs
 70
0
  1
PNOA-H_AMS_1956-57_33k_ES_PAN_2
  2
NAME
  10
291094.900
  20
4644117.365
 40
34.23482
  0
SEQEND
  0
POLYLINE
  8
Unknown_Area_Type
  70
1
  66
1
  0
VERTEX
  8
Unknown_Area_Type
  10
291223.447
  20
4646596.128
  0
VERTEX
  8
Unknown_Area_Type
  10
291223.447
  20
4641691.184
  0
VERTEX
  8
Unknown_Area_Type
  10
290892.216
  20
4641596.390
  0
VERTEX
  8
Unknown_Area_Type
  10
290951.048
  20
4643597.128
  0
VERTEX
  8
Unknown_Area_Type
  10
291019.099
  20
4645910.443
  0
VERTEX
  8
Unknown_Area_Type
  10
291040.521
  20
4646638.341
  0
VERTEX
  8
Unknown_Area_Type
  10
291223.447
  20
4646596.128
  0
SEQEND
  8
Unknown_Area_Type
  0
INSERT
  8
FeatureAttribs
  2
FEATURE
  41
1
  42
1
  43
1
  50
0
  10
289934.698
  20
4644162.606
 66
1
  0
ATTRIB
  8
FeatureAttribs
 70
0
  1
PNOA-H_AMS_1956-57_33k_ES_PAN_2
  2
NAME
  10
289934.698
  20
4644162.606
 40
34.23482
  0
SEQEND
  0
POLYLINE
  8
Unknown_Area_Type
  70
1
  66
1
  0
VERTEX
  8
Unknown_Area_Type
  10
291040.521
  20
4646638.341
  0
VERTEX
  8
Unknown_Area_Type
  10
291019.099
  20
4645910.443
  0
VERTEX
  8
Unknown_Area_Type
  10
290951.048
  20
4643597.128
  0
VERTEX
  8
Unknown_Area_Type
  10
290892.216
  20
4641596.390
  0
VERTEX
  8
Unknown_Area_Type
  10
290351.000
  20
4641441.500
  0
VERTEX
  8
Unknown_Area_Type
  10
290346.500
  20
4641441.000
  0
VERTEX
  8
Unknown_Area_Type
  10
288765.500
  20
4641866.500
  0
VERTEX
  8
Unknown_Area_Type
  10
288976.000
  20
4646531.000
  0
VERTEX
  8
Unknown_Area_Type
  10
288976.500
  20
4646533.000
  0
VERTEX
  8
Unknown_Area_Type
  10
288979.000
  20
4646534.000
  0
VERTEX
  8
Unknown_Area_Type
  10
289948.500
  20
4646889.500
  0
VERTEX
  8
Unknown_Area_Type
  10
289950.000
  20
4646890.000
  0
VERTEX
  8
Unknown_Area_Type
  10
291040.521
  20
4646638.341
  0
SEQEND
  8
Unknown_Area_Type
  0
INSERT
  8
FeatureAttribs
  2
FEATURE
  41
1
  42
1
  43
1
  50
0
  10
289934.698
  20
4644162.606
 66
1
  0
ATTRIB
  8
FeatureAttribs
 70
0
  1
PNOA-H_AMS_1956-57_33k_ES_PAN_2
  2
NAME
  10
289934.698
  20
4644162.606
 40
34.23482
  0
SEQEND
  0
POLYLINE
  8
Unknown_Area_Type
  70
1
  66
1
  0
VERTEX
  8
Unknown_Area_Type
  10
291040.521
  20
4646638.341
  0
VERTEX
  8
Unknown_Area_Type
  10
289950.000
  20
4646890.000
  0
VERTEX
  8
Unknown_Area_Type
  10
289948.500
  20
4646889.500
  0
VERTEX
  8
Unknown_Area_Type
  10
288979.000
  20
4646534.000
  0
VERTEX
  8
Unknown_Area_Type
  10
288976.500
  20
4646533.000
  0
VERTEX
  8
Unknown_Area_Type
  10
288976.000
  20
4646531.000
  0
VERTEX
  8
Unknown_Area_Type
  10
288765.500
  20
4641866.500
  0
VERTEX
  8
Unknown_Area_Type
  10
290346.500
  20
4641441.000
  0
VERTEX
  8
Unknown_Area_Type
  10
290351.000
  20
4641441.500
  0
VERTEX
  8
Unknown_Area_Type
  10
290892.216
  20
4641596.390
  0
VERTEX
  8
Unknown_Area_Type
  10
290951.048
  20
4643597.128
  0
VERTEX
  8
Unknown_Area_Type
  10
291019.099
  20
4645910.443
  0
VERTEX
  8
Unknown_Area_Type
  10
291040.521
  20
4646638.341
  0
SEQEND
  8
Unknown_Area_Type
  0
INSERT
  8
FeatureAttribs
  2
FEATURE
  41
1
  42
1
  43
1
  50
0
  10
279088.563
  20
4644480.483
 66
1
  0
ATTRIB
  8
FeatureAttribs
 70
0
  1
PNOA-H_AMS_1956-57_33k_ES_PAN_2
  2
NAME
  10
279088.563
  20
4644480.483
 40
34.23482
  0
SEQEND
  0
POLYLINE
  8
Unknown_Area_Type
  70
1
  66
1
  0
VERTEX
  8
Unknown_Area_Type
  10
277958.000
  20
4646986.000
  0
VERTEX
  8
Unknown_Area_Type
  10
280628.000
  20
4646803.500
  0
VERTEX
  8
Unknown_Area_Type
  10
280405.000
  20
4642178.500
  0
VERTEX
  8
Unknown_Area_Type
  10
279230.500
  20
4641875.500
  0
VERTEX
  8
Unknown_Area_Type
  10
279223.500
  20
4641874.500
  0
VERTEX
  8
Unknown_Area_Type
  10
277569.500
  20
4642285.500
  0
VERTEX
  8
Unknown_Area_Type
  10
277760.500
  20
4646852.000
  0
VERTEX
  8
Unknown_Area_Type
  10
277957.000
  20
4646985.500
  0
VERTEX
  8
Unknown_Area_Type
  10
277958.000
  20
4646986.000
  0
SEQEND
  8
Unknown_Area_Type
  0
INSERT
  8
FeatureAttribs
  2
FEATURE
  41
1
  42
1
  43
1
  50
0
  10
279088.563
  20
4644480.483
 66
1
  0
ATTRIB
  8
FeatureAttribs
 70
0
  1
PNOA-H_AMS_1956-57_33k_ES_PAN_2
  2
NAME
  10
279088.563
  20
4644480.483
 40
34.23482
  0
SEQEND
  0
POLYLINE
  8
Unknown_Area_Type
  70
1
  66
1
  0
VERTEX
  8
Unknown_Area_Type
  10
277958.000
  20
4646986.000
  0
VERTEX
  8
Unknown_Area_Type
  10
277957.000
  20
4646985.500
  0
VERTEX
  8
Unknown_Area_Type
  10
277760.500
  20
4646852.000
  0
VERTEX
  8
Unknown_Area_Type
  10
277569.500
  20
4642285.500
  0
VERTEX
  8
Unknown_Area_Type
  10
279223.500
  20
4641874.500
  0
VERTEX
  8
Unknown_Area_Type
  10
279230.500
  20
4641875.500
  0
VERTEX
  8
Unknown_Area_Type
  10
280405.000
  20
4642178.500
  0
VERTEX
  8
Unknown_Area_Type
  10
280628.000
  20
4646803.500
  0
VERTEX
  8
Unknown_Area_Type
  10
277958.000
  20
4646986.000
  0
SEQEND
  8
Unknown_Area_Type
  0
INSERT
  8
FeatureAttribs
  2
FEATURE
  41
1
  42
1
  43
1
  50
0
  10
287445.210
  20
4644217.171
 66
1
  0
ATTRIB
  8
FeatureAttribs
 70
0
  1
PNOA-H_AMS_1956-57_33k_ES_PAN_2
  2
NAME
  10
287445.210
  20
4644217.171
 40
34.23482
  0
SEQEND
  0
POLYLINE
  8
Unknown_Area_Type
  70
1
  66
1
  0
VERTEX
  8
Unknown_Area_Type
  10
288402.000
  20
4646658.000
  0
VERTEX
  8
Unknown_Area_Type
  10
288976.500
  20
4646532.500
  0
VERTEX
  8
Unknown_Area_Type
  10
288765.500
  20
4641867.000
  0
VERTEX
  8
Unknown_Area_Type
  10
287562.000
  20
4641513.500
  0
VERTEX
  8
Unknown_Area_Type
  10
287554.500
  20
4641512.500
  0
VERTEX
  8
Unknown_Area_Type
  10
285883.000
  20
4641923.000
  0
VERTEX
  8
Unknown_Area_Type
  10
286177.500
  20
4646617.000
  0
VERTEX
  8
Unknown_Area_Type
  10
287064.000
  20
4646950.000
  0
VERTEX
  8
Unknown_Area_Type
  10
288399.000
  20
4646658.500
  0
VERTEX
  8
Unknown_Area_Type
  10
288402.000
  20
4646658.000
  0
SEQEND
  8
Unknown_Area_Type
  0
INSERT
  8
FeatureAttribs
  2
FEATURE
  41
1
  42
1
  43
1
  50
0
  10
287445.210
  20
4644217.171
 66
1
  0
ATTRIB
  8
FeatureAttribs
 70
0
  1
PNOA-H_AMS_1956-57_33k_ES_PAN_2
  2
NAME
  10
287445.210
  20
4644217.171
 40
34.23482
  0
SEQEND
  0
POLYLINE
  8
Unknown_Area_Type
  70
1
  66
1
  0
VERTEX
  8
Unknown_Area_Type
  10
288402.000
  20
4646658.000
  0
VERTEX
  8
Unknown_Area_Type
  10
288399.000
  20
4646658.500
  0
VERTEX
  8
Unknown_Area_Type
  10
287064.000
  20
4646950.000
  0
VERTEX
  8
Unknown_Area_Type
  10
286177.500
  20
4646617.000
  0
VERTEX
  8
Unknown_Area_Type
  10
285883.000
  20
4641923.000
  0
VERTEX
  8
Unknown_Area_Type
  10
287554.500
  20
4641512.500
  0
VERTEX
  8
Unknown_Area_Type
  10
287562.000
  20
4641513.500
  0
VERTEX
  8
Unknown_Area_Type
  10
288765.500
  20
4641867.000
  0
VERTEX
  8
Unknown_Area_Type
  10
288976.500
  20
4646532.500
  0
VERTEX
  8
Unknown_Area_Type
  10
288402.000
  20
4646658.000
  0
SEQEND
  8
Unknown_Area_Type
  0
ENDSEC
  0
EOF
