  0
SECTION
  2
HEADER
  9
$ACADVER
  1
AC1009
  9
$LUNITS
  70
2
  9
$LIMMIN
  10
235315.794
  20
4635210.552
  9
$LIMMAX
  10
263614.348
  20
4654692.592
  9
$EXTMIN
  10
235315.794
  20
4635210.552
  9
$EXTMAX
  10
263614.348
  20
4654692.592
  999
Created by Global Mapper
  999
Projection: UTM
  999
Datum: ETRS89
  999
Ground Units: meters
  999
ZONE: 30
  0
ENDSEC
  0
SECTION
  2
TABLES
  0
ENDSEC
  0
SECTION
  2
BLOCKS
  0
BLOCK
  8
FeatureAttribs
  70
0
  2
FEATURE
  3
FEATURE
  10
0.00000000
  20
0.00000000
  0
ATTDEF
  8
FeatureAttribs
  70
0
  1
 
  2
NAME
  3
NAME
  10
0.00000000
  20
0.00000000
  40
1.00000000
  0
ENDBLK
  0
ENDSEC
  0
SECTION
  2
ENTITIES
  0
INSERT
  8
FeatureAttribs
  2
FEATURE
  41
1
  42
1
  43
1
  50
0
  10
259965.897
  20
4652559.392
 66
1
  0
ATTRIB
  8
FeatureAttribs
 70
0
  1
PNOA-H_AMS_1956-57_33k_ES_PAN_2
  2
NAME
  10
259965.897
  20
4652559.392
 40
34.35634
  0
SEQEND
  0
POLYLINE
  8
Unknown_Area_Type
  70
1
  66
1
  0
VERTEX
  8
Unknown_Area_Type
  10
261502.976
  20
4653788.562
  0
VERTEX
  8
Unknown_Area_Type
  10
261455.500
  20
4651491.000
  0
VERTEX
  8
Unknown_Area_Type
  10
260007.000
  20
4651050.500
  0
VERTEX
  8
Unknown_Area_Type
  10
258427.500
  20
4651561.500
  0
VERTEX
  8
Unknown_Area_Type
  10
258492.701
  20
4653890.535
  0
VERTEX
  8
Unknown_Area_Type
  10
260163.125
  20
4653833.587
  0
VERTEX
  8
Unknown_Area_Type
  10
261502.976
  20
4653788.562
  0
SEQEND
  8
Unknown_Area_Type
  0
INSERT
  8
FeatureAttribs
  2
FEATURE
  41
1
  42
1
  43
1
  50
0
  10
259965.897
  20
4652559.392
 66
1
  0
ATTRIB
  8
FeatureAttribs
 70
0
  1
PNOA-H_AMS_1956-57_33k_ES_PAN_2
  2
NAME
  10
259965.897
  20
4652559.392
 40
34.35634
  0
SEQEND
  0
POLYLINE
  8
Unknown_Area_Type
  70
1
  66
1
  0
VERTEX
  8
Unknown_Area_Type
  10
261502.976
  20
4653788.562
  0
VERTEX
  8
Unknown_Area_Type
  10
260163.125
  20
4653833.587
  0
VERTEX
  8
Unknown_Area_Type
  10
258492.701
  20
4653890.535
  0
VERTEX
  8
Unknown_Area_Type
  10
258427.500
  20
4651561.500
  0
VERTEX
  8
Unknown_Area_Type
  10
260007.000
  20
4651050.500
  0
VERTEX
  8
Unknown_Area_Type
  10
261455.500
  20
4651491.000
  0
VERTEX
  8
Unknown_Area_Type
  10
261502.976
  20
4653788.562
  0
SEQEND
  8
Unknown_Area_Type
  0
INSERT
  8
FeatureAttribs
  2
FEATURE
  41
1
  42
1
  43
1
  50
0
  10
253909.235
  20
4652797.278
 66
1
  0
ATTRIB
  8
FeatureAttribs
 70
0
  1
PNOA-H_AMS_1956-57_33k_ES_PAN_2
  2
NAME
  10
253909.235
  20
4652797.278
 40
34.35634
  0
SEQEND
  0
POLYLINE
  8
Unknown_Area_Type
  70
1
  66
1
  0
VERTEX
  8
Unknown_Area_Type
  10
255473.897
  20
4653994.056
  0
VERTEX
  8
Unknown_Area_Type
  10
255371.500
  20
4651712.500
  0
VERTEX
  8
Unknown_Area_Type
  10
255371.000
  20
4651710.500
  0
VERTEX
  8
Unknown_Area_Type
  10
255355.000
  20
4651705.000
  0
VERTEX
  8
Unknown_Area_Type
  10
254176.500
  20
4651303.000
  0
VERTEX
  8
Unknown_Area_Type
  10
252297.000
  20
4651898.000
  0
VERTEX
  8
Unknown_Area_Type
  10
252442.137
  20
4654099.293
  0
VERTEX
  8
Unknown_Area_Type
  10
253260.695
  20
4654070.588
  0
VERTEX
  8
Unknown_Area_Type
  10
255473.897
  20
4653994.056
  0
SEQEND
  8
Unknown_Area_Type
  0
INSERT
  8
FeatureAttribs
  2
FEATURE
  41
1
  42
1
  43
1
  50
0
  10
253909.235
  20
4652797.278
 66
1
  0
ATTRIB
  8
FeatureAttribs
 70
0
  1
PNOA-H_AMS_1956-57_33k_ES_PAN_2
  2
NAME
  10
253909.235
  20
4652797.278
 40
34.35634
  0
SEQEND
  0
POLYLINE
  8
Unknown_Area_Type
  70
1
  66
1
  0
VERTEX
  8
Unknown_Area_Type
  10
255473.897
  20
4653994.056
  0
VERTEX
  8
Unknown_Area_Type
  10
253260.695
  20
4654070.588
  0
VERTEX
  8
Unknown_Area_Type
  10
252442.137
  20
4654099.293
  0
VERTEX
  8
Unknown_Area_Type
  10
252297.000
  20
4651898.000
  0
VERTEX
  8
Unknown_Area_Type
  10
254176.500
  20
4651303.000
  0
VERTEX
  8
Unknown_Area_Type
  10
255355.000
  20
4651705.000
  0
VERTEX
  8
Unknown_Area_Type
  10
255371.000
  20
4651710.500
  0
VERTEX
  8
Unknown_Area_Type
  10
255371.500
  20
4651712.500
  0
VERTEX
  8
Unknown_Area_Type
  10
255473.897
  20
4653994.056
  0
SEQEND
  8
Unknown_Area_Type
  0
INSERT
  8
FeatureAttribs
  2
FEATURE
  41
1
  42
1
  43
1
  50
0
  10
256948.798
  20
4652662.499
 66
1
  0
ATTRIB
  8
FeatureAttribs
 70
0
  1
PNOA-H_AMS_1956-57_33k_ES_PAN_2
  2
NAME
  10
256948.798
  20
4652662.499
 40
34.35634
  0
SEQEND
  0
POLYLINE
  8
Unknown_Area_Type
  70
1
  66
1
  0
VERTEX
  8
Unknown_Area_Type
  10
258492.863
  20
4653890.529
  0
VERTEX
  8
Unknown_Area_Type
  10
258427.500
  20
4651561.500
  0
VERTEX
  8
Unknown_Area_Type
  10
257127.000
  20
4651146.500
  0
VERTEX
  8
Unknown_Area_Type
  10
255371.000
  20
4651711.000
  0
VERTEX
  8
Unknown_Area_Type
  10
255473.702
  20
4653994.063
  0
VERTEX
  8
Unknown_Area_Type
  10
256711.917
  20
4653951.245
  0
VERTEX
  8
Unknown_Area_Type
  10
258492.863
  20
4653890.529
  0
SEQEND
  8
Unknown_Area_Type
  0
INSERT
  8
FeatureAttribs
  2
FEATURE
  41
1
  42
1
  43
1
  50
0
  10
256948.798
  20
4652662.499
 66
1
  0
ATTRIB
  8
FeatureAttribs
 70
0
  1
PNOA-H_AMS_1956-57_33k_ES_PAN_2
  2
NAME
  10
256948.798
  20
4652662.499
 40
34.35634
  0
SEQEND
  0
POLYLINE
  8
Unknown_Area_Type
  70
1
  66
1
  0
VERTEX
  8
Unknown_Area_Type
  10
258492.863
  20
4653890.529
  0
VERTEX
  8
Unknown_Area_Type
  10
256711.917
  20
4653951.245
  0
VERTEX
  8
Unknown_Area_Type
  10
255473.702
  20
4653994.063
  0
VERTEX
  8
Unknown_Area_Type
  10
255371.000
  20
4651711.000
  0
VERTEX
  8
Unknown_Area_Type
  10
257127.000
  20
4651146.500
  0
VERTEX
  8
Unknown_Area_Type
  10
258427.500
  20
4651561.500
  0
VERTEX
  8
Unknown_Area_Type
  10
258492.863
  20
4653890.529
  0
SEQEND
  8
Unknown_Area_Type
  0
INSERT
  8
FeatureAttribs
  2
FEATURE
  41
1
  42
1
  43
1
  50
0
  10
263592.855
  20
4652429.654
 66
1
  0
ATTRIB
  8
FeatureAttribs
 70
0
  1
PNOA-H_AMS_1956-57_33k_ES_PAN_2
  2
NAME
  10
263592.855
  20
4652429.654
 40
34.35634
  0
SEQEND
  0
POLYLINE
  8
Unknown_Area_Type
  70
1
  66
1
  0
VERTEX
  8
Unknown_Area_Type
  10
263614.348
  20
4651167.415
  0
VERTEX
  8
Unknown_Area_Type
  10
263528.407
  20
4651141.697
  0
VERTEX
  8
Unknown_Area_Type
  10
263537.160
  20
4651404.210
  0
VERTEX
  8
Unknown_Area_Type
  10
263614.320
  20
4653717.612
  0
VERTEX
  8
Unknown_Area_Type
  10
263614.348
  20
4653717.611
  0
VERTEX
  8
Unknown_Area_Type
  10
263614.348
  20
4651167.415
  0
SEQEND
  8
Unknown_Area_Type
  0
INSERT
  8
FeatureAttribs
  2
FEATURE
  41
1
  42
1
  43
1
  50
0
  10
262550.693
  20
4652467.220
 66
1
  0
ATTRIB
  8
FeatureAttribs
 70
0
  1
PNOA-H_AMS_1956-57_33k_ES_PAN_2
  2
NAME
  10
262550.693
  20
4652467.220
 40
34.35634
  0
SEQEND
  0
POLYLINE
  8
Unknown_Area_Type
  70
1
  66
1
  0
VERTEX
  8
Unknown_Area_Type
  10
263528.407
  20
4651141.697
  0
VERTEX
  8
Unknown_Area_Type
  10
262958.000
  20
4650971.000
  0
VERTEX
  8
Unknown_Area_Type
  10
261455.500
  20
4651491.000
  0
VERTEX
  8
Unknown_Area_Type
  10
261502.760
  20
4653788.569
  0
VERTEX
  8
Unknown_Area_Type
  10
263614.320
  20
4653717.612
  0
VERTEX
  8
Unknown_Area_Type
  10
263537.160
  20
4651404.210
  0
VERTEX
  8
Unknown_Area_Type
  10
263528.407
  20
4651141.697
  0
SEQEND
  8
Unknown_Area_Type
  0
INSERT
  8
FeatureAttribs
  2
FEATURE
  41
1
  42
1
  43
1
  50
0
  10
262550.693
  20
4652467.220
 66
1
  0
ATTRIB
  8
FeatureAttribs
 70
0
  1
PNOA-H_AMS_1956-57_33k_ES_PAN_2
  2
NAME
  10
262550.693
  20
4652467.220
 40
34.35634
  0
SEQEND
  0
POLYLINE
  8
Unknown_Area_Type
  70
1
  66
1
  0
VERTEX
  8
Unknown_Area_Type
  10
263528.407
  20
4651141.697
  0
VERTEX
  8
Unknown_Area_Type
  10
263537.160
  20
4651404.210
  0
VERTEX
  8
Unknown_Area_Type
  10
263614.320
  20
4653717.612
  0
VERTEX
  8
Unknown_Area_Type
  10
261502.760
  20
4653788.569
  0
VERTEX
  8
Unknown_Area_Type
  10
261455.500
  20
4651491.000
  0
VERTEX
  8
Unknown_Area_Type
  10
262958.000
  20
4650971.000
  0
VERTEX
  8
Unknown_Area_Type
  10
263528.407
  20
4651141.697
  0
SEQEND
  8
Unknown_Area_Type
  0
INSERT
  8
FeatureAttribs
  2
FEATURE
  41
1
  42
1
  43
1
  50
0
  10
247785.218
  20
4653126.933
 66
1
  0
ATTRIB
  8
FeatureAttribs
 70
0
  1
PNOA-H_AMS_1956-57_33k_ES_PAN_2
  2
NAME
  10
247785.218
  20
4653126.933
 40
34.35634
  0
SEQEND
  0
POLYLINE
  8
Unknown_Area_Type
  70
1
  66
1
  0
VERTEX
  8
Unknown_Area_Type
  10
249369.206
  20
4654207.269
  0
VERTEX
  8
Unknown_Area_Type
  10
249211.500
  20
4652147.500
  0
VERTEX
  8
Unknown_Area_Type
  10
248086.500
  20
4651748.000
  0
VERTEX
  8
Unknown_Area_Type
  10
246176.500
  20
4652321.000
  0
VERTEX
  8
Unknown_Area_Type
  10
246333.042
  20
4654315.235
  0
VERTEX
  8
Unknown_Area_Type
  10
246358.210
  20
4654314.328
  0
VERTEX
  8
Unknown_Area_Type
  10
249369.206
  20
4654207.269
  0
SEQEND
  8
Unknown_Area_Type
  0
INSERT
  8
FeatureAttribs
  2
FEATURE
  41
1
  42
1
  43
1
  50
0
  10
247785.218
  20
4653126.933
 66
1
  0
ATTRIB
  8
FeatureAttribs
 70
0
  1
PNOA-H_AMS_1956-57_33k_ES_PAN_2
  2
NAME
  10
247785.218
  20
4653126.933
 40
34.35634
  0
SEQEND
  0
POLYLINE
  8
Unknown_Area_Type
  70
1
  66
1
  0
VERTEX
  8
Unknown_Area_Type
  10
249369.206
  20
4654207.269
  0
VERTEX
  8
Unknown_Area_Type
  10
246358.210
  20
4654314.328
  0
VERTEX
  8
Unknown_Area_Type
  10
246333.042
  20
4654315.235
  0
VERTEX
  8
Unknown_Area_Type
  10
246176.500
  20
4652321.000
  0
VERTEX
  8
Unknown_Area_Type
  10
248086.500
  20
4651748.000
  0
VERTEX
  8
Unknown_Area_Type
  10
249211.500
  20
4652147.500
  0
VERTEX
  8
Unknown_Area_Type
  10
249369.206
  20
4654207.269
  0
SEQEND
  8
Unknown_Area_Type
  0
INSERT
  8
FeatureAttribs
  2
FEATURE
  41
1
  42
1
  43
1
  50
0
  10
238786.674
  20
4653596.373
 66
1
  0
ATTRIB
  8
FeatureAttribs
 70
0
  1
PNOA-H_AMS_1956-57_33k_ES_PAN_2
  2
NAME
  10
238786.674
  20
4653596.373
 40
34.35634
  0
SEQEND
  0
POLYLINE
  8
Unknown_Area_Type
  70
1
  66
1
  0
VERTEX
  8
Unknown_Area_Type
  10
240348.656
  20
4654532.184
  0
VERTEX
  8
Unknown_Area_Type
  10
240203.500
  20
4652778.500
  0
VERTEX
  8
Unknown_Area_Type
  10
238894.000
  20
4652371.000
  0
VERTEX
  8
Unknown_Area_Type
  10
237239.000
  20
4652915.000
  0
VERTEX
  8
Unknown_Area_Type
  10
237224.000
  20
4652920.000
  0
VERTEX
  8
Unknown_Area_Type
  10
237223.500
  20
4652925.000
  0
VERTEX
  8
Unknown_Area_Type
  10
237360.318
  20
4654642.376
  0
VERTEX
  8
Unknown_Area_Type
  10
239455.669
  20
4654564.806
  0
VERTEX
  8
Unknown_Area_Type
  10
240348.656
  20
4654532.184
  0
SEQEND
  8
Unknown_Area_Type
  0
INSERT
  8
FeatureAttribs
  2
FEATURE
  41
1
  42
1
  43
1
  50
0
  10
238786.674
  20
4653596.373
 66
1
  0
ATTRIB
  8
FeatureAttribs
 70
0
  1
PNOA-H_AMS_1956-57_33k_ES_PAN_2
  2
NAME
  10
238786.674
  20
4653596.373
 40
34.35634
  0
SEQEND
  0
POLYLINE
  8
Unknown_Area_Type
  70
1
  66
1
  0
VERTEX
  8
Unknown_Area_Type
  10
240348.656
  20
4654532.184
  0
VERTEX
  8
Unknown_Area_Type
  10
239455.669
  20
4654564.806
  0
VERTEX
  8
Unknown_Area_Type
  10
237360.318
  20
4654642.376
  0
VERTEX
  8
Unknown_Area_Type
  10
237223.500
  20
4652925.000
  0
VERTEX
  8
Unknown_Area_Type
  10
237224.000
  20
4652920.000
  0
VERTEX
  8
Unknown_Area_Type
  10
237239.000
  20
4652915.000
  0
VERTEX
  8
Unknown_Area_Type
  10
238894.000
  20
4652371.000
  0
VERTEX
  8
Unknown_Area_Type
  10
240203.500
  20
4652778.500
  0
VERTEX
  8
Unknown_Area_Type
  10
240348.656
  20
4654532.184
  0
SEQEND
  8
Unknown_Area_Type
  0
INSERT
  8
FeatureAttribs
  2
FEATURE
  41
1
  42
1
  43
1
  50
0
  10
235642.139
  20
4653729.167
 66
1
  0
ATTRIB
  8
FeatureAttribs
 70
0
  1
PNOA-H_AMS_1956-57_33k_ES_PAN_2
  2
NAME
  10
235642.139
  20
4653729.167
 40
34.35634
  0
SEQEND
  0
POLYLINE
  8
Unknown_Area_Type
  70
1
  66
1
  0
VERTEX
  8
Unknown_Area_Type
  10
235933.668
  20
4652794.674
  0
VERTEX
  8
Unknown_Area_Type
  10
235315.794
  20
4652765.742
  0
VERTEX
  8
Unknown_Area_Type
  10
235315.794
  20
4654692.592
  0
VERTEX
  8
Unknown_Area_Type
  10
236003.858
  20
4654692.592
  0
VERTEX
  8
Unknown_Area_Type
  10
236004.377
  20
4654692.573
  0
VERTEX
  8
Unknown_Area_Type
  10
235933.668
  20
4652794.674
  0
SEQEND
  8
Unknown_Area_Type
  0
INSERT
  8
FeatureAttribs
  2
FEATURE
  41
1
  42
1
  43
1
  50
0
  10
236621.141
  20
4653758.670
 66
1
  0
ATTRIB
  8
FeatureAttribs
 70
0
  1
PNOA-H_AMS_1956-57_33k_ES_PAN_2
  2
NAME
  10
236621.141
  20
4653758.670
 40
34.35634
  0
SEQEND
  0
POLYLINE
  8
Unknown_Area_Type
  70
1
  66
1
  0
VERTEX
  8
Unknown_Area_Type
  10
237360.530
  20
4654642.368
  0
VERTEX
  8
Unknown_Area_Type
  10
237223.500
  20
4652920.500
  0
VERTEX
  8
Unknown_Area_Type
  10
236923.000
  20
4652841.000
  0
VERTEX
  8
Unknown_Area_Type
  10
235933.668
  20
4652794.674
  0
VERTEX
  8
Unknown_Area_Type
  10
236004.377
  20
4654692.573
  0
VERTEX
  8
Unknown_Area_Type
  10
237360.530
  20
4654642.368
  0
SEQEND
  8
Unknown_Area_Type
  0
INSERT
  8
FeatureAttribs
  2
FEATURE
  41
1
  42
1
  43
1
  50
0
  10
236621.141
  20
4653758.670
 66
1
  0
ATTRIB
  8
FeatureAttribs
 70
0
  1
PNOA-H_AMS_1956-57_33k_ES_PAN_2
  2
NAME
  10
236621.141
  20
4653758.670
 40
34.35634
  0
SEQEND
  0
POLYLINE
  8
Unknown_Area_Type
  70
1
  66
1
  0
VERTEX
  8
Unknown_Area_Type
  10
237360.530
  20
4654642.368
  0
VERTEX
  8
Unknown_Area_Type
  10
236004.377
  20
4654692.573
  0
VERTEX
  8
Unknown_Area_Type
  10
235933.668
  20
4652794.674
  0
VERTEX
  8
Unknown_Area_Type
  10
236923.000
  20
4652841.000
  0
VERTEX
  8
Unknown_Area_Type
  10
237223.500
  20
4652920.500
  0
VERTEX
  8
Unknown_Area_Type
  10
237360.530
  20
4654642.368
  0
SEQEND
  8
Unknown_Area_Type
  0
INSERT
  8
FeatureAttribs
  2
FEATURE
  41
1
  42
1
  43
1
  50
0
  10
241791.478
  20
4653458.172
 66
1
  0
ATTRIB
  8
FeatureAttribs
 70
0
  1
PNOA-H_AMS_1956-57_33k_ES_PAN_2
  2
NAME
  10
241791.478
  20
4653458.172
 40
34.35634
  0
SEQEND
  0
POLYLINE
  8
Unknown_Area_Type
  70
1
  66
1
  0
VERTEX
  8
Unknown_Area_Type
  10
243371.122
  20
4654421.994
  0
VERTEX
  8
Unknown_Area_Type
  10
243199.500
  20
4652577.000
  0
VERTEX
  8
Unknown_Area_Type
  10
243196.500
  20
4652575.000
  0
VERTEX
  8
Unknown_Area_Type
  10
241919.500
  20
4652202.000
  0
VERTEX
  8
Unknown_Area_Type
  10
240203.500
  20
4652778.000
  0
VERTEX
  8
Unknown_Area_Type
  10
240348.680
  20
4654532.183
  0
VERTEX
  8
Unknown_Area_Type
  10
242906.947
  20
4654438.724
  0
VERTEX
  8
Unknown_Area_Type
  10
243371.122
  20
4654421.994
  0
SEQEND
  8
Unknown_Area_Type
  0
INSERT
  8
FeatureAttribs
  2
FEATURE
  41
1
  42
1
  43
1
  50
0
  10
241791.478
  20
4653458.172
 66
1
  0
ATTRIB
  8
FeatureAttribs
 70
0
  1
PNOA-H_AMS_1956-57_33k_ES_PAN_2
  2
NAME
  10
241791.478
  20
4653458.172
 40
34.35634
  0
SEQEND
  0
POLYLINE
  8
Unknown_Area_Type
  70
1
  66
1
  0
VERTEX
  8
Unknown_Area_Type
  10
243371.122
  20
4654421.994
  0
VERTEX
  8
Unknown_Area_Type
  10
242906.947
  20
4654438.724
  0
VERTEX
  8
Unknown_Area_Type
  10
240348.680
  20
4654532.183
  0
VERTEX
  8
Unknown_Area_Type
  10
240203.500
  20
4652778.000
  0
VERTEX
  8
Unknown_Area_Type
  10
241919.500
  20
4652202.000
  0
VERTEX
  8
Unknown_Area_Type
  10
243196.500
  20
4652575.000
  0
VERTEX
  8
Unknown_Area_Type
  10
243199.500
  20
4652577.000
  0
VERTEX
  8
Unknown_Area_Type
  10
243371.122
  20
4654421.994
  0
SEQEND
  8
Unknown_Area_Type
  0
INSERT
  8
FeatureAttribs
  2
FEATURE
  41
1
  42
1
  43
1
  50
0
  10
244790.247
  20
4653278.648
 66
1
  0
ATTRIB
  8
FeatureAttribs
 70
0
  1
PNOA-H_AMS_1956-57_33k_ES_PAN_2
  2
NAME
  10
244790.247
  20
4653278.648
 40
34.35634
  0
SEQEND
  0
POLYLINE
  8
Unknown_Area_Type
  70
1
  66
1
  0
VERTEX
  8
Unknown_Area_Type
  10
246333.282
  20
4654315.226
  0
VERTEX
  8
Unknown_Area_Type
  10
246177.000
  20
4652321.500
  0
VERTEX
  8
Unknown_Area_Type
  10
246172.000
  20
4652319.000
  0
VERTEX
  8
Unknown_Area_Type
  10
245027.500
  20
4651931.000
  0
VERTEX
  8
Unknown_Area_Type
  10
243199.000
  20
4652576.000
  0
VERTEX
  8
Unknown_Area_Type
  10
243371.064
  20
4654421.996
  0
VERTEX
  8
Unknown_Area_Type
  10
246333.282
  20
4654315.226
  0
SEQEND
  8
Unknown_Area_Type
  0
INSERT
  8
FeatureAttribs
  2
FEATURE
  41
1
  42
1
  43
1
  50
0
  10
244790.247
  20
4653278.648
 66
1
  0
ATTRIB
  8
FeatureAttribs
 70
0
  1
PNOA-H_AMS_1956-57_33k_ES_PAN_2
  2
NAME
  10
244790.247
  20
4653278.648
 40
34.35634
  0
SEQEND
  0
POLYLINE
  8
Unknown_Area_Type
  70
1
  66
1
  0
VERTEX
  8
Unknown_Area_Type
  10
246333.282
  20
4654315.226
  0
VERTEX
  8
Unknown_Area_Type
  10
243371.064
  20
4654421.996
  0
VERTEX
  8
Unknown_Area_Type
  10
243199.000
  20
4652576.000
  0
VERTEX
  8
Unknown_Area_Type
  10
245027.500
  20
4651931.000
  0
VERTEX
  8
Unknown_Area_Type
  10
246172.000
  20
4652319.000
  0
VERTEX
  8
Unknown_Area_Type
  10
246177.000
  20
4652321.500
  0
VERTEX
  8
Unknown_Area_Type
  10
246333.282
  20
4654315.226
  0
SEQEND
  8
Unknown_Area_Type
  0
INSERT
  8
FeatureAttribs
  2
FEATURE
  41
1
  42
1
  43
1
  50
0
  10
250850.759
  20
4652959.012
 66
1
  0
ATTRIB
  8
FeatureAttribs
 70
0
  1
PNOA-H_AMS_1956-57_33k_ES_PAN_2
  2
NAME
  10
250850.759
  20
4652959.012
 40
34.35634
  0
SEQEND
  0
POLYLINE
  8
Unknown_Area_Type
  70
1
  66
1
  0
VERTEX
  8
Unknown_Area_Type
  10
252442.317
  20
4654099.287
  0
VERTEX
  8
Unknown_Area_Type
  10
252297.000
  20
4651898.500
  0
VERTEX
  8
Unknown_Area_Type
  10
251149.500
  20
4651503.000
  0
VERTEX
  8
Unknown_Area_Type
  10
249211.500
  20
4652147.500
  0
VERTEX
  8
Unknown_Area_Type
  10
249369.089
  20
4654207.273
  0
VERTEX
  8
Unknown_Area_Type
  10
249809.460
  20
4654191.616
  0
VERTEX
  8
Unknown_Area_Type
  10
252442.317
  20
4654099.287
  0
SEQEND
  8
Unknown_Area_Type
  0
INSERT
  8
FeatureAttribs
  2
FEATURE
  41
1
  42
1
  43
1
  50
0
  10
250850.759
  20
4652959.012
 66
1
  0
ATTRIB
  8
FeatureAttribs
 70
0
  1
PNOA-H_AMS_1956-57_33k_ES_PAN_2
  2
NAME
  10
250850.759
  20
4652959.012
 40
34.35634
  0
SEQEND
  0
POLYLINE
  8
Unknown_Area_Type
  70
1
  66
1
  0
VERTEX
  8
Unknown_Area_Type
  10
252442.317
  20
4654099.287
  0
VERTEX
  8
Unknown_Area_Type
  10
249809.460
  20
4654191.616
  0
VERTEX
  8
Unknown_Area_Type
  10
249369.089
  20
4654207.273
  0
VERTEX
  8
Unknown_Area_Type
  10
249211.500
  20
4652147.500
  0
VERTEX
  8
Unknown_Area_Type
  10
251149.500
  20
4651503.000
  0
VERTEX
  8
Unknown_Area_Type
  10
252297.000
  20
4651898.500
  0
VERTEX
  8
Unknown_Area_Type
  10
252442.317
  20
4654099.287
  0
SEQEND
  8
Unknown_Area_Type
  0
INSERT
  8
FeatureAttribs
  2
FEATURE
  41
1
  42
1
  43
1
  50
0
  10
235351.217
  20
4649053.891
 66
1
  0
ATTRIB
  8
FeatureAttribs
 70
0
  1
PNOA-H_AMS_1956-57_33k_ES_PAN_2
  2
NAME
  10
235351.217
  20
4649053.891
 40
34.35634
  0
SEQEND
  0
POLYLINE
  8
Unknown_Area_Type
  70
1
  66
1
  0
VERTEX
  8
Unknown_Area_Type
  10
235315.794
  20
4650346.220
  0
VERTEX
  8
Unknown_Area_Type
  10
235456.500
  20
4647779.500
  0
VERTEX
  8
Unknown_Area_Type
  10
235315.794
  20
4647761.562
  0
VERTEX
  8
Unknown_Area_Type
  10
235315.794
  20
4650346.220
  0
SEQEND
  8
Unknown_Area_Type
  0
INSERT
  8
FeatureAttribs
  2
FEATURE
  41
1
  42
1
  43
1
  50
0
  10
237741.402
  20
4650117.613
 66
1
  0
ATTRIB
  8
FeatureAttribs
 70
0
  1
PNOA-H_AMS_1956-57_33k_ES_PAN_2
  2
NAME
  10
237741.402
  20
4650117.613
 40
34.35634
  0
SEQEND
  0
POLYLINE
  8
Unknown_Area_Type
  70
1
  66
1
  0
VERTEX
  8
Unknown_Area_Type
  10
236925.500
  20
4652838.000
  0
VERTEX
  8
Unknown_Area_Type
  10
236926.000
  20
4652841.500
  0
VERTEX
  8
Unknown_Area_Type
  10
236931.000
  20
4652843.000
  0
VERTEX
  8
Unknown_Area_Type
  10
237198.000
  20
4652914.000
  0
VERTEX
  8
Unknown_Area_Type
  10
237200.000
  20
4652914.500
  0
VERTEX
  8
Unknown_Area_Type
  10
237224.000
  20
4652920.500
  0
VERTEX
  8
Unknown_Area_Type
  10
238893.500
  20
4652371.000
  0
VERTEX
  8
Unknown_Area_Type
  10
238738.000
  20
4647747.000
  0
VERTEX
  8
Unknown_Area_Type
  10
236593.500
  20
4647531.000
  0
VERTEX
  8
Unknown_Area_Type
  10
236586.500
  20
4647532.000
  0
VERTEX
  8
Unknown_Area_Type
  10
236522.500
  20
4647559.500
  0
VERTEX
  8
Unknown_Area_Type
  10
236925.500
  20
4652838.000
  0
SEQEND
  8
Unknown_Area_Type
  0
INSERT
  8
FeatureAttribs
  2
FEATURE
  41
1
  42
1
  43
1
  50
0
  10
237741.402
  20
4650117.613
 66
1
  0
ATTRIB
  8
FeatureAttribs
 70
0
  1
PNOA-H_AMS_1956-57_33k_ES_PAN_2
  2
NAME
  10
237741.402
  20
4650117.613
 40
34.35634
  0
SEQEND
  0
POLYLINE
  8
Unknown_Area_Type
  70
1
  66
1
  0
VERTEX
  8
Unknown_Area_Type
  10
236925.500
  20
4652838.000
  0
VERTEX
  8
Unknown_Area_Type
  10
236522.500
  20
4647559.500
  0
VERTEX
  8
Unknown_Area_Type
  10
236586.500
  20
4647532.000
  0
VERTEX
  8
Unknown_Area_Type
  10
236593.500
  20
4647531.000
  0
VERTEX
  8
Unknown_Area_Type
  10
238738.000
  20
4647747.000
  0
VERTEX
  8
Unknown_Area_Type
  10
238893.500
  20
4652371.000
  0
VERTEX
  8
Unknown_Area_Type
  10
237224.000
  20
4652920.500
  0
VERTEX
  8
Unknown_Area_Type
  10
237200.000
  20
4652914.500
  0
VERTEX
  8
Unknown_Area_Type
  10
237198.000
  20
4652914.000
  0
VERTEX
  8
Unknown_Area_Type
  10
236931.000
  20
4652843.000
  0
VERTEX
  8
Unknown_Area_Type
  10
236926.000
  20
4652841.500
  0
VERTEX
  8
Unknown_Area_Type
  10
236925.500
  20
4652838.000
  0
SEQEND
  8
Unknown_Area_Type
  0
INSERT
  8
FeatureAttribs
  2
FEATURE
  41
1
  42
1
  43
1
  50
0
  10
243335.133
  20
4649888.521
 66
1
  0
ATTRIB
  8
FeatureAttribs
 70
0
  1
PNOA-H_AMS_1956-57_33k_ES_PAN_2
  2
NAME
  10
243335.133
  20
4649888.521
 40
34.35634
  0
SEQEND
  0
POLYLINE
  8
Unknown_Area_Type
  70
1
  66
1
  0
VERTEX
  8
Unknown_Area_Type
  10
243198.000
  20
4652576.000
  0
VERTEX
  8
Unknown_Area_Type
  10
243224.500
  20
4652567.500
  0
VERTEX
  8
Unknown_Area_Type
  10
245027.500
  20
4651931.500
  0
VERTEX
  8
Unknown_Area_Type
  10
244701.000
  20
4647449.000
  0
VERTEX
  8
Unknown_Area_Type
  10
244524.000
  20
4647365.000
  0
VERTEX
  8
Unknown_Area_Type
  10
241821.000
  20
4647480.000
  0
VERTEX
  8
Unknown_Area_Type
  10
241718.000
  20
4647538.500
  0
VERTEX
  8
Unknown_Area_Type
  10
241920.000
  20
4652202.000
  0
VERTEX
  8
Unknown_Area_Type
  10
243196.500
  20
4652575.500
  0
VERTEX
  8
Unknown_Area_Type
  10
243198.000
  20
4652576.000
  0
SEQEND
  8
Unknown_Area_Type
  0
INSERT
  8
FeatureAttribs
  2
FEATURE
  41
1
  42
1
  43
1
  50
0
  10
243335.133
  20
4649888.521
 66
1
  0
ATTRIB
  8
FeatureAttribs
 70
0
  1
PNOA-H_AMS_1956-57_33k_ES_PAN_2
  2
NAME
  10
243335.133
  20
4649888.521
 40
34.35634
  0
SEQEND
  0
POLYLINE
  8
Unknown_Area_Type
  70
1
  66
1
  0
VERTEX
  8
Unknown_Area_Type
  10
243198.000
  20
4652576.000
  0
VERTEX
  8
Unknown_Area_Type
  10
243196.500
  20
4652575.500
  0
VERTEX
  8
Unknown_Area_Type
  10
241920.000
  20
4652202.000
  0
VERTEX
  8
Unknown_Area_Type
  10
241718.000
  20
4647538.500
  0
VERTEX
  8
Unknown_Area_Type
  10
241821.000
  20
4647480.000
  0
VERTEX
  8
Unknown_Area_Type
  10
244524.000
  20
4647365.000
  0
VERTEX
  8
Unknown_Area_Type
  10
244701.000
  20
4647449.000
  0
VERTEX
  8
Unknown_Area_Type
  10
245027.500
  20
4651931.500
  0
VERTEX
  8
Unknown_Area_Type
  10
243224.500
  20
4652567.500
  0
VERTEX
  8
Unknown_Area_Type
  10
243198.000
  20
4652576.000
  0
SEQEND
  8
Unknown_Area_Type
  0
INSERT
  8
FeatureAttribs
  2
FEATURE
  41
1
  42
1
  43
1
  50
0
  10
249463.379
  20
4649504.271
 66
1
  0
ATTRIB
  8
FeatureAttribs
 70
0
  1
PNOA-H_AMS_1956-57_33k_ES_PAN_2
  2
NAME
  10
249463.379
  20
4649504.271
 40
34.35634
  0
SEQEND
  0
POLYLINE
  8
Unknown_Area_Type
  70
1
  66
1
  0
VERTEX
  8
Unknown_Area_Type
  10
249490.000
  20
4652054.500
  0
VERTEX
  8
Unknown_Area_Type
  10
251148.500
  20
4651503.000
  0
VERTEX
  8
Unknown_Area_Type
  10
250811.500
  20
4647200.000
  0
VERTEX
  8
Unknown_Area_Type
  10
250011.000
  20
4646930.500
  0
VERTEX
  8
Unknown_Area_Type
  10
247815.500
  20
4647335.500
  0
VERTEX
  8
Unknown_Area_Type
  10
247814.000
  20
4647336.000
  0
VERTEX
  8
Unknown_Area_Type
  10
247815.500
  20
4647362.000
  0
VERTEX
  8
Unknown_Area_Type
  10
248086.000
  20
4651748.000
  0
VERTEX
  8
Unknown_Area_Type
  10
249210.500
  20
4652147.500
  0
VERTEX
  8
Unknown_Area_Type
  10
249488.500
  20
4652055.000
  0
VERTEX
  8
Unknown_Area_Type
  10
249490.000
  20
4652054.500
  0
SEQEND
  8
Unknown_Area_Type
  0
INSERT
  8
FeatureAttribs
  2
FEATURE
  41
1
  42
1
  43
1
  50
0
  10
249463.379
  20
4649504.271
 66
1
  0
ATTRIB
  8
FeatureAttribs
 70
0
  1
PNOA-H_AMS_1956-57_33k_ES_PAN_2
  2
NAME
  10
249463.379
  20
4649504.271
 40
34.35634
  0
SEQEND
  0
POLYLINE
  8
Unknown_Area_Type
  70
1
  66
1
  0
VERTEX
  8
Unknown_Area_Type
  10
249490.000
  20
4652054.500
  0
VERTEX
  8
Unknown_Area_Type
  10
249488.500
  20
4652055.000
  0
VERTEX
  8
Unknown_Area_Type
  10
249210.500
  20
4652147.500
  0
VERTEX
  8
Unknown_Area_Type
  10
248086.000
  20
4651748.000
  0
VERTEX
  8
Unknown_Area_Type
  10
247815.500
  20
4647362.000
  0
VERTEX
  8
Unknown_Area_Type
  10
247814.000
  20
4647336.000
  0
VERTEX
  8
Unknown_Area_Type
  10
247815.500
  20
4647335.500
  0
VERTEX
  8
Unknown_Area_Type
  10
250011.000
  20
4646930.500
  0
VERTEX
  8
Unknown_Area_Type
  10
250811.500
  20
4647200.000
  0
VERTEX
  8
Unknown_Area_Type
  10
251148.500
  20
4651503.000
  0
VERTEX
  8
Unknown_Area_Type
  10
249490.000
  20
4652054.500
  0
SEQEND
  8
Unknown_Area_Type
  0
INSERT
  8
FeatureAttribs
  2
FEATURE
  41
1
  42
1
  43
1
  50
0
  10
255508.498
  20
4649110.317
 66
1
  0
ATTRIB
  8
FeatureAttribs
 70
0
  1
PNOA-H_AMS_1956-57_33k_ES_PAN_2
  2
NAME
  10
255508.498
  20
4649110.317
 40
34.35634
  0
SEQEND
  0
POLYLINE
  8
Unknown_Area_Type
  70
1
  66
1
  0
VERTEX
  8
Unknown_Area_Type
  10
255634.000
  20
4651626.000
  0
VERTEX
  8
Unknown_Area_Type
  10
257126.000
  20
4651146.500
  0
VERTEX
  8
Unknown_Area_Type
  10
256890.000
  20
4646944.500
  0
VERTEX
  8
Unknown_Area_Type
  10
255453.500
  20
4646557.500
  0
VERTEX
  8
Unknown_Area_Type
  10
253870.000
  20
4647050.000
  0
VERTEX
  8
Unknown_Area_Type
  10
253868.500
  20
4647050.500
  0
VERTEX
  8
Unknown_Area_Type
  10
253868.500
  20
4647053.500
  0
VERTEX
  8
Unknown_Area_Type
  10
253870.500
  20
4647081.500
  0
VERTEX
  8
Unknown_Area_Type
  10
254175.500
  20
4651303.000
  0
VERTEX
  8
Unknown_Area_Type
  10
255371.000
  20
4651711.000
  0
VERTEX
  8
Unknown_Area_Type
  10
255632.500
  20
4651626.500
  0
VERTEX
  8
Unknown_Area_Type
  10
255634.000
  20
4651626.000
  0
SEQEND
  8
Unknown_Area_Type
  0
INSERT
  8
FeatureAttribs
  2
FEATURE
  41
1
  42
1
  43
1
  50
0
  10
255508.498
  20
4649110.317
 66
1
  0
ATTRIB
  8
FeatureAttribs
 70
0
  1
PNOA-H_AMS_1956-57_33k_ES_PAN_2
  2
NAME
  10
255508.498
  20
4649110.317
 40
34.35634
  0
SEQEND
  0
POLYLINE
  8
Unknown_Area_Type
  70
1
  66
1
  0
VERTEX
  8
Unknown_Area_Type
  10
255634.000
  20
4651626.000
  0
VERTEX
  8
Unknown_Area_Type
  10
255632.500
  20
4651626.500
  0
VERTEX
  8
Unknown_Area_Type
  10
255371.000
  20
4651711.000
  0
VERTEX
  8
Unknown_Area_Type
  10
254175.500
  20
4651303.000
  0
VERTEX
  8
Unknown_Area_Type
  10
253870.500
  20
4647081.500
  0
VERTEX
  8
Unknown_Area_Type
  10
253868.500
  20
4647053.500
  0
VERTEX
  8
Unknown_Area_Type
  10
253868.500
  20
4647050.500
  0
VERTEX
  8
Unknown_Area_Type
  10
253870.000
  20
4647050.000
  0
VERTEX
  8
Unknown_Area_Type
  10
255453.500
  20
4646557.500
  0
VERTEX
  8
Unknown_Area_Type
  10
256890.000
  20
4646944.500
  0
VERTEX
  8
Unknown_Area_Type
  10
257126.000
  20
4651146.500
  0
VERTEX
  8
Unknown_Area_Type
  10
255634.000
  20
4651626.000
  0
SEQEND
  8
Unknown_Area_Type
  0
INSERT
  8
FeatureAttribs
  2
FEATURE
  41
1
  42
1
  43
1
  50
0
  10
261419.281
  20
4648992.823
 66
1
  0
ATTRIB
  8
FeatureAttribs
 70
0
  1
PNOA-H_AMS_1956-57_33k_ES_PAN_2
  2
NAME
  10
261419.281
  20
4648992.823
 40
34.35634
  0
SEQEND
  0
POLYLINE
  8
Unknown_Area_Type
  70
1
  66
1
  0
VERTEX
  8
Unknown_Area_Type
  10
260006.000
  20
4651050.500
  0
VERTEX
  8
Unknown_Area_Type
  10
261453.500
  20
4651491.000
  0
VERTEX
  8
Unknown_Area_Type
  10
261463.000
  20
4651489.000
  0
VERTEX
  8
Unknown_Area_Type
  10
261776.500
  20
4651380.000
  0
VERTEX
  8
Unknown_Area_Type
  10
261778.000
  20
4651379.500
  0
VERTEX
  8
Unknown_Area_Type
  10
262958.500
  20
4650971.000
  0
VERTEX
  8
Unknown_Area_Type
  10
262875.000
  20
4646961.000
  0
VERTEX
  8
Unknown_Area_Type
  10
260850.500
  20
4646530.500
  0
VERTEX
  8
Unknown_Area_Type
  10
259895.000
  20
4646931.000
  0
VERTEX
  8
Unknown_Area_Type
  10
260006.000
  20
4651050.500
  0
SEQEND
  8
Unknown_Area_Type
  0
INSERT
  8
FeatureAttribs
  2
FEATURE
  41
1
  42
1
  43
1
  50
0
  10
261419.281
  20
4648992.823
 66
1
  0
ATTRIB
  8
FeatureAttribs
 70
0
  1
PNOA-H_AMS_1956-57_33k_ES_PAN_2
  2
NAME
  10
261419.281
  20
4648992.823
 40
34.35634
  0
SEQEND
  0
POLYLINE
  8
Unknown_Area_Type
  70
1
  66
1
  0
VERTEX
  8
Unknown_Area_Type
  10
260006.000
  20
4651050.500
  0
VERTEX
  8
Unknown_Area_Type
  10
259895.000
  20
4646931.000
  0
VERTEX
  8
Unknown_Area_Type
  10
260850.500
  20
4646530.500
  0
VERTEX
  8
Unknown_Area_Type
  10
262875.000
  20
4646961.000
  0
VERTEX
  8
Unknown_Area_Type
  10
262958.500
  20
4650971.000
  0
VERTEX
  8
Unknown_Area_Type
  10
261778.000
  20
4651379.500
  0
VERTEX
  8
Unknown_Area_Type
  10
261776.500
  20
4651380.000
  0
VERTEX
  8
Unknown_Area_Type
  10
261463.000
  20
4651489.000
  0
VERTEX
  8
Unknown_Area_Type
  10
261453.500
  20
4651491.000
  0
VERTEX
  8
Unknown_Area_Type
  10
260006.000
  20
4651050.500
  0
SEQEND
  8
Unknown_Area_Type
  0
INSERT
  8
FeatureAttribs
  2
FEATURE
  41
1
  42
1
  43
1
  50
0
  10
240312.347
  20
4650044.472
 66
1
  0
ATTRIB
  8
FeatureAttribs
 70
0
  1
PNOA-H_AMS_1956-57_33k_ES_PAN_2
  2
NAME
  10
240312.347
  20
4650044.472
 40
34.35634
  0
SEQEND
  0
POLYLINE
  8
Unknown_Area_Type
  70
1
  66
1
  0
VERTEX
  8
Unknown_Area_Type
  10
241298.000
  20
4652411.000
  0
VERTEX
  8
Unknown_Area_Type
  10
241920.000
  20
4652202.000
  0
VERTEX
  8
Unknown_Area_Type
  10
241718.000
  20
4647538.500
  0
VERTEX
  8
Unknown_Area_Type
  10
239263.500
  20
4647519.500
  0
VERTEX
  8
Unknown_Area_Type
  10
239198.500
  20
4647519.500
  0
VERTEX
  8
Unknown_Area_Type
  10
238738.000
  20
4647747.000
  0
VERTEX
  8
Unknown_Area_Type
  10
238893.500
  20
4652371.000
  0
VERTEX
  8
Unknown_Area_Type
  10
240203.000
  20
4652778.500
  0
VERTEX
  8
Unknown_Area_Type
  10
241297.000
  20
4652411.000
  0
VERTEX
  8
Unknown_Area_Type
  10
241298.000
  20
4652411.000
  0
SEQEND
  8
Unknown_Area_Type
  0
INSERT
  8
FeatureAttribs
  2
FEATURE
  41
1
  42
1
  43
1
  50
0
  10
240312.347
  20
4650044.472
 66
1
  0
ATTRIB
  8
FeatureAttribs
 70
0
  1
PNOA-H_AMS_1956-57_33k_ES_PAN_2
  2
NAME
  10
240312.347
  20
4650044.472
 40
34.35634
  0
SEQEND
  0
POLYLINE
  8
Unknown_Area_Type
  70
1
  66
1
  0
VERTEX
  8
Unknown_Area_Type
  10
241298.000
  20
4652411.000
  0
VERTEX
  8
Unknown_Area_Type
  10
241297.000
  20
4652411.000
  0
VERTEX
  8
Unknown_Area_Type
  10
240203.000
  20
4652778.500
  0
VERTEX
  8
Unknown_Area_Type
  10
238893.500
  20
4652371.000
  0
VERTEX
  8
Unknown_Area_Type
  10
238738.000
  20
4647747.000
  0
VERTEX
  8
Unknown_Area_Type
  10
239198.500
  20
4647519.500
  0
VERTEX
  8
Unknown_Area_Type
  10
239263.500
  20
4647519.500
  0
VERTEX
  8
Unknown_Area_Type
  10
241718.000
  20
4647538.500
  0
VERTEX
  8
Unknown_Area_Type
  10
241920.000
  20
4652202.000
  0
VERTEX
  8
Unknown_Area_Type
  10
241298.000
  20
4652411.000
  0
SEQEND
  8
Unknown_Area_Type
  0
INSERT
  8
FeatureAttribs
  2
FEATURE
  41
1
  42
1
  43
1
  50
0
  10
258467.309
  20
4649009.010
 66
1
  0
ATTRIB
  8
FeatureAttribs
 70
0
  1
PNOA-H_AMS_1956-57_33k_ES_PAN_2
  2
NAME
  10
258467.309
  20
4649009.010
 40
34.35634
  0
SEQEND
  0
POLYLINE
  8
Unknown_Area_Type
  70
1
  66
1
  0
VERTEX
  8
Unknown_Area_Type
  10
257680.500
  20
4651323.500
  0
VERTEX
  8
Unknown_Area_Type
  10
258420.000
  20
4651559.500
  0
VERTEX
  8
Unknown_Area_Type
  10
258429.000
  20
4651561.500
  0
VERTEX
  8
Unknown_Area_Type
  10
260006.000
  20
4651050.500
  0
VERTEX
  8
Unknown_Area_Type
  10
259895.000
  20
4646931.000
  0
VERTEX
  8
Unknown_Area_Type
  10
258097.500
  20
4646512.000
  0
VERTEX
  8
Unknown_Area_Type
  10
256890.000
  20
4646944.000
  0
VERTEX
  8
Unknown_Area_Type
  10
257125.500
  20
4651144.000
  0
VERTEX
  8
Unknown_Area_Type
  10
257126.000
  20
4651146.500
  0
VERTEX
  8
Unknown_Area_Type
  10
257131.500
  20
4651148.500
  0
VERTEX
  8
Unknown_Area_Type
  10
257679.000
  20
4651323.000
  0
VERTEX
  8
Unknown_Area_Type
  10
257680.500
  20
4651323.500
  0
SEQEND
  8
Unknown_Area_Type
  0
INSERT
  8
FeatureAttribs
  2
FEATURE
  41
1
  42
1
  43
1
  50
0
  10
258467.309
  20
4649009.010
 66
1
  0
ATTRIB
  8
FeatureAttribs
 70
0
  1
PNOA-H_AMS_1956-57_33k_ES_PAN_2
  2
NAME
  10
258467.309
  20
4649009.010
 40
34.35634
  0
SEQEND
  0
POLYLINE
  8
Unknown_Area_Type
  70
1
  66
1
  0
VERTEX
  8
Unknown_Area_Type
  10
257680.500
  20
4651323.500
  0
VERTEX
  8
Unknown_Area_Type
  10
257679.000
  20
4651323.000
  0
VERTEX
  8
Unknown_Area_Type
  10
257131.500
  20
4651148.500
  0
VERTEX
  8
Unknown_Area_Type
  10
257126.000
  20
4651146.500
  0
VERTEX
  8
Unknown_Area_Type
  10
257125.500
  20
4651144.000
  0
VERTEX
  8
Unknown_Area_Type
  10
256890.000
  20
4646944.000
  0
VERTEX
  8
Unknown_Area_Type
  10
258097.500
  20
4646512.000
  0
VERTEX
  8
Unknown_Area_Type
  10
259895.000
  20
4646931.000
  0
VERTEX
  8
Unknown_Area_Type
  10
260006.000
  20
4651050.500
  0
VERTEX
  8
Unknown_Area_Type
  10
258429.000
  20
4651561.500
  0
VERTEX
  8
Unknown_Area_Type
  10
258420.000
  20
4651559.500
  0
VERTEX
  8
Unknown_Area_Type
  10
257680.500
  20
4651323.500
  0
SEQEND
  8
Unknown_Area_Type
  0
INSERT
  8
FeatureAttribs
  2
FEATURE
  41
1
  42
1
  43
1
  50
0
  10
252497.830
  20
4649274.935
 66
1
  0
ATTRIB
  8
FeatureAttribs
 70
0
  1
PNOA-H_AMS_1956-57_33k_ES_PAN_2
  2
NAME
  10
252497.830
  20
4649274.935
 40
34.35634
  0
SEQEND
  0
POLYLINE
  8
Unknown_Area_Type
  70
1
  66
1
  0
VERTEX
  8
Unknown_Area_Type
  10
251537.000
  20
4651637.000
  0
VERTEX
  8
Unknown_Area_Type
  10
252297.000
  20
4651898.500
  0
VERTEX
  8
Unknown_Area_Type
  10
254175.500
  20
4651303.000
  0
VERTEX
  8
Unknown_Area_Type
  10
253868.500
  20
4647050.500
  0
VERTEX
  8
Unknown_Area_Type
  10
252685.000
  20
4646692.500
  0
VERTEX
  8
Unknown_Area_Type
  10
250811.500
  20
4647200.000
  0
VERTEX
  8
Unknown_Area_Type
  10
251148.000
  20
4651501.000
  0
VERTEX
  8
Unknown_Area_Type
  10
251148.500
  20
4651503.000
  0
VERTEX
  8
Unknown_Area_Type
  10
251153.500
  20
4651505.000
  0
VERTEX
  8
Unknown_Area_Type
  10
251535.500
  20
4651636.500
  0
VERTEX
  8
Unknown_Area_Type
  10
251537.000
  20
4651637.000
  0
SEQEND
  8
Unknown_Area_Type
  0
INSERT
  8
FeatureAttribs
  2
FEATURE
  41
1
  42
1
  43
1
  50
0
  10
252497.830
  20
4649274.935
 66
1
  0
ATTRIB
  8
FeatureAttribs
 70
0
  1
PNOA-H_AMS_1956-57_33k_ES_PAN_2
  2
NAME
  10
252497.830
  20
4649274.935
 40
34.35634
  0
SEQEND
  0
POLYLINE
  8
Unknown_Area_Type
  70
1
  66
1
  0
VERTEX
  8
Unknown_Area_Type
  10
251537.000
  20
4651637.000
  0
VERTEX
  8
Unknown_Area_Type
  10
251535.500
  20
4651636.500
  0
VERTEX
  8
Unknown_Area_Type
  10
251153.500
  20
4651505.000
  0
VERTEX
  8
Unknown_Area_Type
  10
251148.500
  20
4651503.000
  0
VERTEX
  8
Unknown_Area_Type
  10
251148.000
  20
4651501.000
  0
VERTEX
  8
Unknown_Area_Type
  10
250811.500
  20
4647200.000
  0
VERTEX
  8
Unknown_Area_Type
  10
252685.000
  20
4646692.500
  0
VERTEX
  8
Unknown_Area_Type
  10
253868.500
  20
4647050.500
  0
VERTEX
  8
Unknown_Area_Type
  10
254175.500
  20
4651303.000
  0
VERTEX
  8
Unknown_Area_Type
  10
252297.000
  20
4651898.500
  0
VERTEX
  8
Unknown_Area_Type
  10
251537.000
  20
4651637.000
  0
SEQEND
  8
Unknown_Area_Type
  0
INSERT
  8
FeatureAttribs
  2
FEATURE
  41
1
  42
1
  43
1
  50
0
  10
263533.734
  20
4648883.463
 66
1
  0
ATTRIB
  8
FeatureAttribs
 70
0
  1
PNOA-H_AMS_1956-57_33k_ES_PAN_2
  2
NAME
  10
263533.734
  20
4648883.463
 40
34.35634
  0
SEQEND
  0
POLYLINE
  8
Unknown_Area_Type
  70
1
  66
1
  0
VERTEX
  8
Unknown_Area_Type
  10
263614.348
  20
4651167.787
  0
VERTEX
  8
Unknown_Area_Type
  10
263614.348
  20
4646599.139
  0
VERTEX
  8
Unknown_Area_Type
  10
263380.802
  20
4646713.444
  0
VERTEX
  8
Unknown_Area_Type
  10
263382.934
  20
4646777.424
  0
VERTEX
  8
Unknown_Area_Type
  10
263460.031
  20
4649090.814
  0
VERTEX
  8
Unknown_Area_Type
  10
263528.420
  20
4651142.083
  0
VERTEX
  8
Unknown_Area_Type
  10
263614.348
  20
4651167.787
  0
SEQEND
  8
Unknown_Area_Type
  0
INSERT
  8
FeatureAttribs
  2
FEATURE
  41
1
  42
1
  43
1
  50
0
  10
263190.993
  20
4648981.341
 66
1
  0
ATTRIB
  8
FeatureAttribs
 70
0
  1
PNOA-H_AMS_1956-57_33k_ES_PAN_2
  2
NAME
  10
263190.993
  20
4648981.341
 40
34.35634
  0
SEQEND
  0
POLYLINE
  8
Unknown_Area_Type
  70
1
  66
1
  0
VERTEX
  8
Unknown_Area_Type
  10
263528.420
  20
4651142.083
  0
VERTEX
  8
Unknown_Area_Type
  10
263460.031
  20
4649090.814
  0
VERTEX
  8
Unknown_Area_Type
  10
263382.934
  20
4646777.424
  0
VERTEX
  8
Unknown_Area_Type
  10
263380.802
  20
4646713.444
  0
VERTEX
  8
Unknown_Area_Type
  10
262875.000
  20
4646961.000
  0
VERTEX
  8
Unknown_Area_Type
  10
262958.000
  20
4650969.500
  0
VERTEX
  8
Unknown_Area_Type
  10
262958.500
  20
4650971.500
  0
VERTEX
  8
Unknown_Area_Type
  10
262961.500
  20
4650972.500
  0
VERTEX
  8
Unknown_Area_Type
  10
263528.420
  20
4651142.083
  0
SEQEND
  8
Unknown_Area_Type
  0
INSERT
  8
FeatureAttribs
  2
FEATURE
  41
1
  42
1
  43
1
  50
0
  10
263190.993
  20
4648981.341
 66
1
  0
ATTRIB
  8
FeatureAttribs
 70
0
  1
PNOA-H_AMS_1956-57_33k_ES_PAN_2
  2
NAME
  10
263190.993
  20
4648981.341
 40
34.35634
  0
SEQEND
  0
POLYLINE
  8
Unknown_Area_Type
  70
1
  66
1
  0
VERTEX
  8
Unknown_Area_Type
  10
263528.420
  20
4651142.083
  0
VERTEX
  8
Unknown_Area_Type
  10
262961.500
  20
4650972.500
  0
VERTEX
  8
Unknown_Area_Type
  10
262958.500
  20
4650971.500
  0
VERTEX
  8
Unknown_Area_Type
  10
262958.000
  20
4650969.500
  0
VERTEX
  8
Unknown_Area_Type
  10
262875.000
  20
4646961.000
  0
VERTEX
  8
Unknown_Area_Type
  10
263380.802
  20
4646713.444
  0
VERTEX
  8
Unknown_Area_Type
  10
263382.934
  20
4646777.424
  0
VERTEX
  8
Unknown_Area_Type
  10
263460.031
  20
4649090.814
  0
VERTEX
  8
Unknown_Area_Type
  10
263528.420
  20
4651142.083
  0
SEQEND
  8
Unknown_Area_Type
  0
INSERT
  8
FeatureAttribs
  2
FEATURE
  41
1
  42
1
  43
1
  50
0
  10
246408.614
  20
4649665.474
 66
1
  0
ATTRIB
  8
FeatureAttribs
 70
0
  1
PNOA-H_AMS_1956-57_33k_ES_PAN_2
  2
NAME
  10
246408.614
  20
4649665.474
 40
34.35634
  0
SEQEND
  0
POLYLINE
  8
Unknown_Area_Type
  70
1
  66
1
  0
VERTEX
  8
Unknown_Area_Type
  10
247867.500
  20
4648200.000
  0
VERTEX
  8
Unknown_Area_Type
  10
247814.000
  20
4647336.000
  0
VERTEX
  8
Unknown_Area_Type
  10
247268.000
  20
4647117.500
  0
VERTEX
  8
Unknown_Area_Type
  10
244701.000
  20
4647449.000
  0
VERTEX
  8
Unknown_Area_Type
  10
245027.500
  20
4651931.000
  0
VERTEX
  8
Unknown_Area_Type
  10
246176.000
  20
4652321.000
  0
VERTEX
  8
Unknown_Area_Type
  10
248086.000
  20
4651748.000
  0
VERTEX
  8
Unknown_Area_Type
  10
247867.500
  20
4648205.500
  0
VERTEX
  8
Unknown_Area_Type
  10
247867.500
  20
4648200.000
  0
SEQEND
  8
Unknown_Area_Type
  0
INSERT
  8
FeatureAttribs
  2
FEATURE
  41
1
  42
1
  43
1
  50
0
  10
246408.614
  20
4649665.474
 66
1
  0
ATTRIB
  8
FeatureAttribs
 70
0
  1
PNOA-H_AMS_1956-57_33k_ES_PAN_2
  2
NAME
  10
246408.614
  20
4649665.474
 40
34.35634
  0
SEQEND
  0
POLYLINE
  8
Unknown_Area_Type
  70
1
  66
1
  0
VERTEX
  8
Unknown_Area_Type
  10
247867.500
  20
4648200.000
  0
VERTEX
  8
Unknown_Area_Type
  10
247867.500
  20
4648205.500
  0
VERTEX
  8
Unknown_Area_Type
  10
248086.000
  20
4651748.000
  0
VERTEX
  8
Unknown_Area_Type
  10
246176.000
  20
4652321.000
  0
VERTEX
  8
Unknown_Area_Type
  10
245027.500
  20
4651931.000
  0
VERTEX
  8
Unknown_Area_Type
  10
244701.000
  20
4647449.000
  0
VERTEX
  8
Unknown_Area_Type
  10
247268.000
  20
4647117.500
  0
VERTEX
  8
Unknown_Area_Type
  10
247814.000
  20
4647336.000
  0
VERTEX
  8
Unknown_Area_Type
  10
247867.500
  20
4648200.000
  0
SEQEND
  8
Unknown_Area_Type
  0
INSERT
  8
FeatureAttribs
  2
FEATURE
  41
1
  42
1
  43
1
  50
0
  10
235391.211
  20
4638191.978
 66
1
  0
ATTRIB
  8
FeatureAttribs
 70
0
  1
PNOA-H_AMS_1956-57_33k_ES_PAN_2
  2
NAME
  10
235391.211
  20
4638191.978
 40
34.35634
  0
SEQEND
  0
POLYLINE
  8
Unknown_Area_Type
  70
1
  66
1
  0
VERTEX
  8
Unknown_Area_Type
  10
235421.223
  20
4639021.779
  0
VERTEX
  8
Unknown_Area_Type
  10
235424.500
  20
4639021.500
  0
VERTEX
  8
Unknown_Area_Type
  10
235357.921
  20
4637318.103
  0
VERTEX
  8
Unknown_Area_Type
  10
235401.769
  20
4638498.355
  0
VERTEX
  8
Unknown_Area_Type
  10
235421.223
  20
4639021.779
  0
SEQEND
  8
Unknown_Area_Type
  0
INSERT
  8
FeatureAttribs
  2
FEATURE
  41
1
  42
1
  43
1
  50
0
  10
235391.211
  20
4638191.978
 66
1
  0
ATTRIB
  8
FeatureAttribs
 70
0
  1
PNOA-H_AMS_1956-57_33k_ES_PAN_2
  2
NAME
  10
235391.211
  20
4638191.978
 40
34.35634
  0
SEQEND
  0
POLYLINE
  8
Unknown_Area_Type
  70
1
  66
1
  0
VERTEX
  8
Unknown_Area_Type
  10
235421.223
  20
4639021.779
  0
VERTEX
  8
Unknown_Area_Type
  10
235424.500
  20
4639021.500
  0
VERTEX
  8
Unknown_Area_Type
  10
235357.921
  20
4637318.103
  0
VERTEX
  8
Unknown_Area_Type
  10
235401.769
  20
4638498.355
  0
VERTEX
  8
Unknown_Area_Type
  10
235421.223
  20
4639021.779
  0
SEQEND
  8
Unknown_Area_Type
  0
INSERT
  8
FeatureAttribs
  2
FEATURE
  41
1
  42
1
  43
1
  50
0
  10
235342.754
  20
4637635.513
 66
1
  0
ATTRIB
  8
FeatureAttribs
 70
0
  1
PNOA-H_AMS_1956-57_33k_ES_PAN_2
  2
NAME
  10
235342.754
  20
4637635.513
 40
34.35634
  0
SEQEND
  0
POLYLINE
  8
Unknown_Area_Type
  70
1
  66
1
  0
VERTEX
  8
Unknown_Area_Type
  10
235421.223
  20
4639021.779
  0
VERTEX
  8
Unknown_Area_Type
  10
235401.769
  20
4638498.355
  0
VERTEX
  8
Unknown_Area_Type
  10
235357.921
  20
4637318.103
  0
VERTEX
  8
Unknown_Area_Type
  10
235315.794
  20
4636240.286
  0
VERTEX
  8
Unknown_Area_Type
  10
235315.794
  20
4639030.740
  0
VERTEX
  8
Unknown_Area_Type
  10
235421.223
  20
4639021.779
  0
SEQEND
  8
Unknown_Area_Type
  0
INSERT
  8
FeatureAttribs
  2
FEATURE
  41
1
  42
1
  43
1
  50
0
  10
235406.347
  20
4641057.846
 66
1
  0
ATTRIB
  8
FeatureAttribs
 70
0
  1
PNOA-H_AMS_1956-57_33k_ES_PAN_2
  2
NAME
  10
235406.347
  20
4641057.846
 40
34.35634
  0
SEQEND
  0
POLYLINE
  8
Unknown_Area_Type
  70
1
  66
1
  0
VERTEX
  8
Unknown_Area_Type
  10
235570.892
  20
4643047.905
  0
VERTEX
  8
Unknown_Area_Type
  10
235487.751
  20
4640811.797
  0
VERTEX
  8
Unknown_Area_Type
  10
235421.212
  20
4639021.500
  0
VERTEX
  8
Unknown_Area_Type
  10
235420.000
  20
4639021.500
  0
VERTEX
  8
Unknown_Area_Type
  10
235315.794
  20
4639030.376
  0
VERTEX
  8
Unknown_Area_Type
  10
235315.794
  20
4643094.193
  0
VERTEX
  8
Unknown_Area_Type
  10
235570.892
  20
4643047.905
  0
SEQEND
  8
Unknown_Area_Type
  0
INSERT
  8
FeatureAttribs
  2
FEATURE
  41
1
  42
1
  43
1
  50
0
  10
235600.184
  20
4640987.786
 66
1
  0
ATTRIB
  8
FeatureAttribs
 70
0
  1
PNOA-H_AMS_1956-57_33k_ES_PAN_2
  2
NAME
  10
235600.184
  20
4640987.786
 40
34.35634
  0
SEQEND
  0
POLYLINE
  8
Unknown_Area_Type
  70
1
  66
1
  0
VERTEX
  8
Unknown_Area_Type
  10
235570.892
  20
4643047.905
  0
VERTEX
  8
Unknown_Area_Type
  10
235760.500
  20
4643013.500
  0
VERTEX
  8
Unknown_Area_Type
  10
235659.500
  20
4639142.000
  0
VERTEX
  8
Unknown_Area_Type
  10
235435.000
  20
4639026.500
  0
VERTEX
  8
Unknown_Area_Type
  10
235425.000
  20
4639021.500
  0
VERTEX
  8
Unknown_Area_Type
  10
235421.212
  20
4639021.500
  0
VERTEX
  8
Unknown_Area_Type
  10
235487.751
  20
4640811.797
  0
VERTEX
  8
Unknown_Area_Type
  10
235570.892
  20
4643047.905
  0
SEQEND
  8
Unknown_Area_Type
  0
INSERT
  8
FeatureAttribs
  2
FEATURE
  41
1
  42
1
  43
1
  50
0
  10
235600.184
  20
4640987.786
 66
1
  0
ATTRIB
  8
FeatureAttribs
 70
0
  1
PNOA-H_AMS_1956-57_33k_ES_PAN_2
  2
NAME
  10
235600.184
  20
4640987.786
 40
34.35634
  0
SEQEND
  0
POLYLINE
  8
Unknown_Area_Type
  70
1
  66
1
  0
VERTEX
  8
Unknown_Area_Type
  10
235570.892
  20
4643047.905
  0
VERTEX
  8
Unknown_Area_Type
  10
235487.751
  20
4640811.797
  0
VERTEX
  8
Unknown_Area_Type
  10
235421.212
  20
4639021.500
  0
VERTEX
  8
Unknown_Area_Type
  10
235425.000
  20
4639021.500
  0
VERTEX
  8
Unknown_Area_Type
  10
235435.000
  20
4639026.500
  0
VERTEX
  8
Unknown_Area_Type
  10
235659.500
  20
4639142.000
  0
VERTEX
  8
Unknown_Area_Type
  10
235760.500
  20
4643013.500
  0
VERTEX
  8
Unknown_Area_Type
  10
235570.892
  20
4643047.905
  0
SEQEND
  8
Unknown_Area_Type
  0
INSERT
  8
FeatureAttribs
  2
FEATURE
  41
1
  42
1
  43
1
  50
0
  10
259624.361
  20
4635286.040
 66
1
  0
ATTRIB
  8
FeatureAttribs
 70
0
  1
PNOA-H_AMS_1956-57_33k_ES_PAN_2
  2
NAME
  10
259624.361
  20
4635286.040
 40
34.35634
  0
SEQEND
  0
POLYLINE
  8
Unknown_Area_Type
  70
1
  66
1
  0
VERTEX
  8
Unknown_Area_Type
  10
261165.671
  20
4635271.944
  0
VERTEX
  8
Unknown_Area_Type
  10
261164.380
  20
4635210.552
  0
VERTEX
  8
Unknown_Area_Type
  10
258501.587
  20
4635210.552
  0
VERTEX
  8
Unknown_Area_Type
  10
258506.167
  20
4635361.527
  0
VERTEX
  8
Unknown_Area_Type
  10
259537.707
  20
4635326.473
  0
VERTEX
  8
Unknown_Area_Type
  10
261165.671
  20
4635271.944
  0
SEQEND
  8
Unknown_Area_Type
  0
INSERT
  8
FeatureAttribs
  2
FEATURE
  41
1
  42
1
  43
1
  50
0
  10
259863.822
  20
4636732.348
 66
1
  0
ATTRIB
  8
FeatureAttribs
 70
0
  1
PNOA-H_AMS_1956-57_33k_ES_PAN_2
  2
NAME
  10
259863.822
  20
4636732.348
 40
34.35634
  0
SEQEND
  0
POLYLINE
  8
Unknown_Area_Type
  70
1
  66
1
  0
VERTEX
  8
Unknown_Area_Type
  10
261165.671
  20
4635271.944
  0
VERTEX
  8
Unknown_Area_Type
  10
259537.707
  20
4635326.473
  0
VERTEX
  8
Unknown_Area_Type
  10
258506.167
  20
4635361.527
  0
VERTEX
  8
Unknown_Area_Type
  10
258586.000
  20
4637993.500
  0
VERTEX
  8
Unknown_Area_Type
  10
259553.000
  20
4638358.000
  0
VERTEX
  8
Unknown_Area_Type
  10
259554.500
  20
4638358.500
  0
VERTEX
  8
Unknown_Area_Type
  10
261221.000
  20
4637904.000
  0
VERTEX
  8
Unknown_Area_Type
  10
261165.671
  20
4635271.944
  0
SEQEND
  8
Unknown_Area_Type
  0
INSERT
  8
FeatureAttribs
  2
FEATURE
  41
1
  42
1
  43
1
  50
0
  10
259863.822
  20
4636732.348
 66
1
  0
ATTRIB
  8
FeatureAttribs
 70
0
  1
PNOA-H_AMS_1956-57_33k_ES_PAN_2
  2
NAME
  10
259863.822
  20
4636732.348
 40
34.35634
  0
SEQEND
  0
POLYLINE
  8
Unknown_Area_Type
  70
1
  66
1
  0
VERTEX
  8
Unknown_Area_Type
  10
261165.671
  20
4635271.944
  0
VERTEX
  8
Unknown_Area_Type
  10
261221.000
  20
4637904.000
  0
VERTEX
  8
Unknown_Area_Type
  10
259554.500
  20
4638358.500
  0
VERTEX
  8
Unknown_Area_Type
  10
259553.000
  20
4638358.000
  0
VERTEX
  8
Unknown_Area_Type
  10
258586.000
  20
4637993.500
  0
VERTEX
  8
Unknown_Area_Type
  10
258506.167
  20
4635361.527
  0
VERTEX
  8
Unknown_Area_Type
  10
259537.707
  20
4635326.473
  0
VERTEX
  8
Unknown_Area_Type
  10
261165.671
  20
4635271.944
  0
SEQEND
  8
Unknown_Area_Type
  0
INSERT
  8
FeatureAttribs
  2
FEATURE
  41
1
  42
1
  43
1
  50
0
  10
257180.800
  20
4635331.091
 66
1
  0
ATTRIB
  8
FeatureAttribs
 70
0
  1
PNOA-H_AMS_1956-57_33k_ES_PAN_2
  2
NAME
  10
257180.800
  20
4635331.091
 40
34.35634
  0
SEQEND
  0
POLYLINE
  8
Unknown_Area_Type
  70
1
  66
1
  0
VERTEX
  8
Unknown_Area_Type
  10
258501.749
  20
4635210.552
  0
VERTEX
  8
Unknown_Area_Type
  10
255854.566
  20
4635210.552
  0
VERTEX
  8
Unknown_Area_Type
  10
255857.795
  20
4635451.630
  0
VERTEX
  8
Unknown_Area_Type
  10
256077.482
  20
4635444.058
  0
VERTEX
  8
Unknown_Area_Type
  10
258506.345
  20
4635361.521
  0
VERTEX
  8
Unknown_Area_Type
  10
258501.749
  20
4635210.552
  0
SEQEND
  8
Unknown_Area_Type
  0
INSERT
  8
FeatureAttribs
  2
FEATURE
  41
1
  42
1
  43
1
  50
0
  10
257207.443
  20
4636817.784
 66
1
  0
ATTRIB
  8
FeatureAttribs
 70
0
  1
PNOA-H_AMS_1956-57_33k_ES_PAN_2
  2
NAME
  10
257207.443
  20
4636817.784
 40
34.35634
  0
SEQEND
  0
POLYLINE
  8
Unknown_Area_Type
  70
1
  66
1
  0
VERTEX
  8
Unknown_Area_Type
  10
258506.345
  20
4635361.521
  0
VERTEX
  8
Unknown_Area_Type
  10
256077.482
  20
4635444.058
  0
VERTEX
  8
Unknown_Area_Type
  10
255857.795
  20
4635451.630
  0
VERTEX
  8
Unknown_Area_Type
  10
255892.500
  20
4638042.500
  0
VERTEX
  8
Unknown_Area_Type
  10
256864.500
  20
4638420.000
  0
VERTEX
  8
Unknown_Area_Type
  10
256866.000
  20
4638420.500
  0
VERTEX
  8
Unknown_Area_Type
  10
258586.500
  20
4637994.000
  0
VERTEX
  8
Unknown_Area_Type
  10
258506.345
  20
4635361.521
  0
SEQEND
  8
Unknown_Area_Type
  0
INSERT
  8
FeatureAttribs
  2
FEATURE
  41
1
  42
1
  43
1
  50
0
  10
257207.443
  20
4636817.784
 66
1
  0
ATTRIB
  8
FeatureAttribs
 70
0
  1
PNOA-H_AMS_1956-57_33k_ES_PAN_2
  2
NAME
  10
257207.443
  20
4636817.784
 40
34.35634
  0
SEQEND
  0
POLYLINE
  8
Unknown_Area_Type
  70
1
  66
1
  0
VERTEX
  8
Unknown_Area_Type
  10
258506.345
  20
4635361.521
  0
VERTEX
  8
Unknown_Area_Type
  10
258586.500
  20
4637994.000
  0
VERTEX
  8
Unknown_Area_Type
  10
256866.000
  20
4638420.500
  0
VERTEX
  8
Unknown_Area_Type
  10
256864.500
  20
4638420.000
  0
VERTEX
  8
Unknown_Area_Type
  10
255892.500
  20
4638042.500
  0
VERTEX
  8
Unknown_Area_Type
  10
255857.795
  20
4635451.630
  0
VERTEX
  8
Unknown_Area_Type
  10
256077.482
  20
4635444.058
  0
VERTEX
  8
Unknown_Area_Type
  10
258506.345
  20
4635361.521
  0
SEQEND
  8
Unknown_Area_Type
  0
INSERT
  8
FeatureAttribs
  2
FEATURE
  41
1
  42
1
  43
1
  50
0
  10
251860.394
  20
4635423.053
 66
1
  0
ATTRIB
  8
FeatureAttribs
 70
0
  1
PNOA-H_AMS_1956-57_33k_ES_PAN_2
  2
NAME
  10
251860.394
  20
4635423.053
 40
34.35634
  0
SEQEND
  0
POLYLINE
  8
Unknown_Area_Type
  70
1
  66
1
  0
VERTEX
  8
Unknown_Area_Type
  10
253171.078
  20
4635210.552
  0
VERTEX
  8
Unknown_Area_Type
  10
250537.792
  20
4635210.552
  0
VERTEX
  8
Unknown_Area_Type
  10
250550.889
  20
4635635.554
  0
VERTEX
  8
Unknown_Area_Type
  10
252617.243
  20
4635563.325
  0
VERTEX
  8
Unknown_Area_Type
  10
253179.502
  20
4635543.946
  0
VERTEX
  8
Unknown_Area_Type
  10
253171.078
  20
4635210.552
  0
SEQEND
  8
Unknown_Area_Type
  0
INSERT
  8
FeatureAttribs
  2
FEATURE
  41
1
  42
1
  43
1
  50
0
  10
251892.468
  20
4636954.461
 66
1
  0
ATTRIB
  8
FeatureAttribs
 70
0
  1
PNOA-H_AMS_1956-57_33k_ES_PAN_2
  2
NAME
  10
251892.468
  20
4636954.461
 40
34.35634
  0
SEQEND
  0
POLYLINE
  8
Unknown_Area_Type
  70
1
  66
1
  0
VERTEX
  8
Unknown_Area_Type
  10
253179.502
  20
4635543.946
  0
VERTEX
  8
Unknown_Area_Type
  10
252617.243
  20
4635563.325
  0
VERTEX
  8
Unknown_Area_Type
  10
250550.889
  20
4635635.554
  0
VERTEX
  8
Unknown_Area_Type
  10
250629.500
  20
4638186.500
  0
VERTEX
  8
Unknown_Area_Type
  10
251427.000
  20
4638510.000
  0
VERTEX
  8
Unknown_Area_Type
  10
251428.000
  20
4638510.500
  0
VERTEX
  8
Unknown_Area_Type
  10
251436.000
  20
4638509.500
  0
VERTEX
  8
Unknown_Area_Type
  10
253244.000
  20
4638096.500
  0
VERTEX
  8
Unknown_Area_Type
  10
253179.502
  20
4635543.946
  0
SEQEND
  8
Unknown_Area_Type
  0
INSERT
  8
FeatureAttribs
  2
FEATURE
  41
1
  42
1
  43
1
  50
0
  10
251892.468
  20
4636954.461
 66
1
  0
ATTRIB
  8
FeatureAttribs
 70
0
  1
PNOA-H_AMS_1956-57_33k_ES_PAN_2
  2
NAME
  10
251892.468
  20
4636954.461
 40
34.35634
  0
SEQEND
  0
POLYLINE
  8
Unknown_Area_Type
  70
1
  66
1
  0
VERTEX
  8
Unknown_Area_Type
  10
253179.502
  20
4635543.946
  0
VERTEX
  8
Unknown_Area_Type
  10
253244.000
  20
4638096.500
  0
VERTEX
  8
Unknown_Area_Type
  10
251436.000
  20
4638509.500
  0
VERTEX
  8
Unknown_Area_Type
  10
251428.000
  20
4638510.500
  0
VERTEX
  8
Unknown_Area_Type
  10
251427.000
  20
4638510.000
  0
VERTEX
  8
Unknown_Area_Type
  10
250629.500
  20
4638186.500
  0
VERTEX
  8
Unknown_Area_Type
  10
250550.889
  20
4635635.554
  0
VERTEX
  8
Unknown_Area_Type
  10
252617.243
  20
4635563.325
  0
VERTEX
  8
Unknown_Area_Type
  10
253179.502
  20
4635543.946
  0
SEQEND
  8
Unknown_Area_Type
  0
INSERT
  8
FeatureAttribs
  2
FEATURE
  41
1
  42
1
  43
1
  50
0
  10
246706.985
  20
4635513.297
 66
1
  0
ATTRIB
  8
FeatureAttribs
 70
0
  1
PNOA-H_AMS_1956-57_33k_ES_PAN_2
  2
NAME
  10
246706.985
  20
4635513.297
 40
34.35634
  0
SEQEND
  0
POLYLINE
  8
Unknown_Area_Type
  70
1
  66
1
  0
VERTEX
  8
Unknown_Area_Type
  10
247968.502
  20
4635210.552
  0
VERTEX
  8
Unknown_Area_Type
  10
245421.174
  20
4635210.552
  0
VERTEX
  8
Unknown_Area_Type
  10
245442.573
  20
4635816.042
  0
VERTEX
  8
Unknown_Area_Type
  10
245696.720
  20
4635806.911
  0
VERTEX
  8
Unknown_Area_Type
  10
247991.629
  20
4635725.578
  0
VERTEX
  8
Unknown_Area_Type
  10
247968.502
  20
4635210.552
  0
SEQEND
  8
Unknown_Area_Type
  0
INSERT
  8
FeatureAttribs
  2
FEATURE
  41
1
  42
1
  43
1
  50
0
  10
246754.972
  20
4637141.216
 66
1
  0
ATTRIB
  8
FeatureAttribs
 70
0
  1
PNOA-H_AMS_1956-57_33k_ES_PAN_2
  2
NAME
  10
246754.972
  20
4637141.216
 40
34.35634
  0
SEQEND
  0
POLYLINE
  8
Unknown_Area_Type
  70
1
  66
1
  0
VERTEX
  8
Unknown_Area_Type
  10
247991.629
  20
4635725.578
  0
VERTEX
  8
Unknown_Area_Type
  10
245696.720
  20
4635806.911
  0
VERTEX
  8
Unknown_Area_Type
  10
245442.573
  20
4635816.042
  0
VERTEX
  8
Unknown_Area_Type
  10
245535.500
  20
4638445.500
  0
VERTEX
  8
Unknown_Area_Type
  10
245536.500
  20
4638452.000
  0
VERTEX
  8
Unknown_Area_Type
  10
246033.500
  20
4638675.500
  0
VERTEX
  8
Unknown_Area_Type
  10
246039.000
  20
4638676.500
  0
VERTEX
  8
Unknown_Area_Type
  10
248107.500
  20
4638300.500
  0
VERTEX
  8
Unknown_Area_Type
  10
248000.000
  20
4635914.500
  0
VERTEX
  8
Unknown_Area_Type
  10
248000.000
  20
4635912.000
  0
VERTEX
  8
Unknown_Area_Type
  10
247991.629
  20
4635725.578
  0
SEQEND
  8
Unknown_Area_Type
  0
INSERT
  8
FeatureAttribs
  2
FEATURE
  41
1
  42
1
  43
1
  50
0
  10
246754.972
  20
4637141.216
 66
1
  0
ATTRIB
  8
FeatureAttribs
 70
0
  1
PNOA-H_AMS_1956-57_33k_ES_PAN_2
  2
NAME
  10
246754.972
  20
4637141.216
 40
34.35634
  0
SEQEND
  0
POLYLINE
  8
Unknown_Area_Type
  70
1
  66
1
  0
VERTEX
  8
Unknown_Area_Type
  10
247991.629
  20
4635725.578
  0
VERTEX
  8
Unknown_Area_Type
  10
248000.000
  20
4635912.000
  0
VERTEX
  8
Unknown_Area_Type
  10
248000.000
  20
4635914.500
  0
VERTEX
  8
Unknown_Area_Type
  10
248107.500
  20
4638300.500
  0
VERTEX
  8
Unknown_Area_Type
  10
246039.000
  20
4638676.500
  0
VERTEX
  8
Unknown_Area_Type
  10
246033.500
  20
4638675.500
  0
VERTEX
  8
Unknown_Area_Type
  10
245536.500
  20
4638452.000
  0
VERTEX
  8
Unknown_Area_Type
  10
245535.500
  20
4638445.500
  0
VERTEX
  8
Unknown_Area_Type
  10
245442.573
  20
4635816.042
  0
VERTEX
  8
Unknown_Area_Type
  10
245696.720
  20
4635806.911
  0
VERTEX
  8
Unknown_Area_Type
  10
247991.629
  20
4635725.578
  0
SEQEND
  8
Unknown_Area_Type
  0
INSERT
  8
FeatureAttribs
  2
FEATURE
  41
1
  42
1
  43
1
  50
0
  10
249262.934
  20
4635468.064
 66
1
  0
ATTRIB
  8
FeatureAttribs
 70
0
  1
PNOA-H_AMS_1956-57_33k_ES_PAN_2
  2
NAME
  10
249262.934
  20
4635468.064
 40
34.35634
  0
SEQEND
  0
POLYLINE
  8
Unknown_Area_Type
  70
1
  66
1
  0
VERTEX
  8
Unknown_Area_Type
  10
250537.792
  20
4635210.552
  0
VERTEX
  8
Unknown_Area_Type
  10
247968.562
  20
4635210.552
  0
VERTEX
  8
Unknown_Area_Type
  10
247991.720
  20
4635725.575
  0
VERTEX
  8
Unknown_Area_Type
  10
249156.988
  20
4635684.277
  0
VERTEX
  8
Unknown_Area_Type
  10
250550.889
  20
4635635.554
  0
VERTEX
  8
Unknown_Area_Type
  10
250537.792
  20
4635210.552
  0
SEQEND
  8
Unknown_Area_Type
  0
INSERT
  8
FeatureAttribs
  2
FEATURE
  41
1
  42
1
  43
1
  50
0
  10
249309.227
  20
4637033.630
 66
1
  0
ATTRIB
  8
FeatureAttribs
 70
0
  1
PNOA-H_AMS_1956-57_33k_ES_PAN_2
  2
NAME
  10
249309.227
  20
4637033.630
 40
34.35634
  0
SEQEND
  0
POLYLINE
  8
Unknown_Area_Type
  70
1
  66
1
  0
VERTEX
  8
Unknown_Area_Type
  10
250550.889
  20
4635635.554
  0
VERTEX
  8
Unknown_Area_Type
  10
249156.988
  20
4635684.277
  0
VERTEX
  8
Unknown_Area_Type
  10
247991.720
  20
4635725.575
  0
VERTEX
  8
Unknown_Area_Type
  10
248107.500
  20
4638300.500
  0
VERTEX
  8
Unknown_Area_Type
  10
248744.000
  20
4638565.000
  0
VERTEX
  8
Unknown_Area_Type
  10
249487.500
  20
4638415.500
  0
VERTEX
  8
Unknown_Area_Type
  10
249490.000
  20
4638415.000
  0
VERTEX
  8
Unknown_Area_Type
  10
250629.500
  20
4638186.500
  0
VERTEX
  8
Unknown_Area_Type
  10
250550.889
  20
4635635.554
  0
SEQEND
  8
Unknown_Area_Type
  0
INSERT
  8
FeatureAttribs
  2
FEATURE
  41
1
  42
1
  43
1
  50
0
  10
249309.227
  20
4637033.630
 66
1
  0
ATTRIB
  8
FeatureAttribs
 70
0
  1
PNOA-H_AMS_1956-57_33k_ES_PAN_2
  2
NAME
  10
249309.227
  20
4637033.630
 40
34.35634
  0
SEQEND
  0
POLYLINE
  8
Unknown_Area_Type
  70
1
  66
1
  0
VERTEX
  8
Unknown_Area_Type
  10
250550.889
  20
4635635.554
  0
VERTEX
  8
Unknown_Area_Type
  10
250629.500
  20
4638186.500
  0
VERTEX
  8
Unknown_Area_Type
  10
249490.000
  20
4638415.000
  0
VERTEX
  8
Unknown_Area_Type
  10
249487.500
  20
4638415.500
  0
VERTEX
  8
Unknown_Area_Type
  10
248744.000
  20
4638565.000
  0
VERTEX
  8
Unknown_Area_Type
  10
248107.500
  20
4638300.500
  0
VERTEX
  8
Unknown_Area_Type
  10
247991.720
  20
4635725.575
  0
VERTEX
  8
Unknown_Area_Type
  10
249156.988
  20
4635684.277
  0
VERTEX
  8
Unknown_Area_Type
  10
250550.889
  20
4635635.554
  0
SEQEND
  8
Unknown_Area_Type
  0
INSERT
  8
FeatureAttribs
  2
FEATURE
  41
1
  42
1
  43
1
  50
0
  10
241674.896
  20
4635603.134
 66
1
  0
ATTRIB
  8
FeatureAttribs
 70
0
  1
PNOA-H_AMS_1956-57_33k_ES_PAN_2
  2
NAME
  10
241674.896
  20
4635603.134
 40
34.35634
  0
SEQEND
  0
POLYLINE
  8
Unknown_Area_Type
  70
1
  66
1
  0
VERTEX
  8
Unknown_Area_Type
  10
242889.799
  20
4635210.552
  0
VERTEX
  8
Unknown_Area_Type
  10
240416.104
  20
4635210.552
  0
VERTEX
  8
Unknown_Area_Type
  10
240465.512
  20
4635995.716
  0
VERTEX
  8
Unknown_Area_Type
  10
242236.436
  20
4635931.230
  0
VERTEX
  8
Unknown_Area_Type
  10
242923.811
  20
4635906.534
  0
VERTEX
  8
Unknown_Area_Type
  10
242889.799
  20
4635210.552
  0
SEQEND
  8
Unknown_Area_Type
  0
INSERT
  8
FeatureAttribs
  2
FEATURE
  41
1
  42
1
  43
1
  50
0
  10
241763.014
  20
4637357.105
 66
1
  0
ATTRIB
  8
FeatureAttribs
 70
0
  1
PNOA-H_AMS_1956-57_33k_ES_PAN_2
  2
NAME
  10
241763.014
  20
4637357.105
 40
34.35634
  0
SEQEND
  0
POLYLINE
  8
Unknown_Area_Type
  70
1
  66
1
  0
VERTEX
  8
Unknown_Area_Type
  10
242923.811
  20
4635906.534
  0
VERTEX
  8
Unknown_Area_Type
  10
242236.436
  20
4635931.230
  0
VERTEX
  8
Unknown_Area_Type
  10
240465.512
  20
4635995.716
  0
VERTEX
  8
Unknown_Area_Type
  10
240645.000
  20
4638848.000
  0
VERTEX
  8
Unknown_Area_Type
  10
240708.500
  20
4638879.000
  0
VERTEX
  8
Unknown_Area_Type
  10
240713.000
  20
4638881.000
  0
VERTEX
  8
Unknown_Area_Type
  10
240716.500
  20
4638881.000
  0
VERTEX
  8
Unknown_Area_Type
  10
241296.500
  20
4638824.000
  0
VERTEX
  8
Unknown_Area_Type
  10
241298.000
  20
4638824.000
  0
VERTEX
  8
Unknown_Area_Type
  10
243058.000
  20
4638652.500
  0
VERTEX
  8
Unknown_Area_Type
  10
242923.811
  20
4635906.534
  0
SEQEND
  8
Unknown_Area_Type
  0
INSERT
  8
FeatureAttribs
  2
FEATURE
  41
1
  42
1
  43
1
  50
0
  10
241763.014
  20
4637357.105
 66
1
  0
ATTRIB
  8
FeatureAttribs
 70
0
  1
PNOA-H_AMS_1956-57_33k_ES_PAN_2
  2
NAME
  10
241763.014
  20
4637357.105
 40
34.35634
  0
SEQEND
  0
POLYLINE
  8
Unknown_Area_Type
  70
1
  66
1
  0
VERTEX
  8
Unknown_Area_Type
  10
242923.811
  20
4635906.534
  0
VERTEX
  8
Unknown_Area_Type
  10
243058.000
  20
4638652.500
  0
VERTEX
  8
Unknown_Area_Type
  10
241298.000
  20
4638824.000
  0
VERTEX
  8
Unknown_Area_Type
  10
241296.500
  20
4638824.000
  0
VERTEX
  8
Unknown_Area_Type
  10
240716.500
  20
4638881.000
  0
VERTEX
  8
Unknown_Area_Type
  10
240713.000
  20
4638881.000
  0
VERTEX
  8
Unknown_Area_Type
  10
240708.500
  20
4638879.000
  0
VERTEX
  8
Unknown_Area_Type
  10
240645.000
  20
4638848.000
  0
VERTEX
  8
Unknown_Area_Type
  10
240465.512
  20
4635995.716
  0
VERTEX
  8
Unknown_Area_Type
  10
242236.436
  20
4635931.230
  0
VERTEX
  8
Unknown_Area_Type
  10
242923.811
  20
4635906.534
  0
SEQEND
  8
Unknown_Area_Type
  0
INSERT
  8
FeatureAttribs
  2
FEATURE
  41
1
  42
1
  43
1
  50
0
  10
263329.864
  20
4636637.616
 66
1
  0
ATTRIB
  8
FeatureAttribs
 70
0
  1
PNOA-H_AMS_1956-57_33k_ES_PAN_2
  2
NAME
  10
263329.864
  20
4636637.616
 40
34.35634
  0
SEQEND
  0
POLYLINE
  8
Unknown_Area_Type
  70
1
  66
1
  0
VERTEX
  8
Unknown_Area_Type
  10
263614.348
  20
4637899.679
  0
VERTEX
  8
Unknown_Area_Type
  10
263614.348
  20
4635210.552
  0
VERTEX
  8
Unknown_Area_Type
  10
262998.509
  20
4635210.552
  0
VERTEX
  8
Unknown_Area_Type
  10
262997.918
  20
4635210.572
  0
VERTEX
  8
Unknown_Area_Type
  10
263074.859
  20
4637523.930
  0
VERTEX
  8
Unknown_Area_Type
  10
263092.851
  20
4638064.679
  0
VERTEX
  8
Unknown_Area_Type
  10
263614.348
  20
4637899.679
  0
SEQEND
  8
Unknown_Area_Type
  0
INSERT
  8
FeatureAttribs
  2
FEATURE
  41
1
  42
1
  43
1
  50
0
  10
261623.784
  20
4635241.243
 66
1
  0
ATTRIB
  8
FeatureAttribs
 70
0
  1
PNOA-H_AMS_1956-57_33k_ES_PAN_2
  2
NAME
  10
261623.784
  20
4635241.243
 40
34.35634
  0
SEQEND
  0
POLYLINE
  8
Unknown_Area_Type
  70
1
  66
1
  0
VERTEX
  8
Unknown_Area_Type
  10
261165.972
  20
4635271.934
  0
VERTEX
  8
Unknown_Area_Type
  10
262997.918
  20
4635210.572
  0
VERTEX
  8
Unknown_Area_Type
  10
262997.918
  20
4635210.552
  0
VERTEX
  8
Unknown_Area_Type
  10
261164.689
  20
4635210.552
  0
VERTEX
  8
Unknown_Area_Type
  10
261165.972
  20
4635271.934
  0
SEQEND
  8
Unknown_Area_Type
  0
INSERT
  8
FeatureAttribs
  2
FEATURE
  41
1
  42
1
  43
1
  50
0
  10
262998.066
  20
4635210.562
 66
1
  0
ATTRIB
  8
FeatureAttribs
 70
0
  1
PNOA-H_AMS_1956-57_33k_ES_PAN_2
  2
NAME
  10
262998.066
  20
4635210.562
 40
34.35634
  0
SEQEND
  0
POLYLINE
  8
Unknown_Area_Type
  70
1
  66
1
  0
VERTEX
  8
Unknown_Area_Type
  10
262997.918
  20
4635210.572
  0
VERTEX
  8
Unknown_Area_Type
  10
262998.509
  20
4635210.552
  0
VERTEX
  8
Unknown_Area_Type
  10
262997.918
  20
4635210.552
  0
VERTEX
  8
Unknown_Area_Type
  10
262997.918
  20
4635210.572
  0
SEQEND
  8
Unknown_Area_Type
  0
INSERT
  8
FeatureAttribs
  2
FEATURE
  41
1
  42
1
  43
1
  50
0
  10
262136.591
  20
4636694.514
 66
1
  0
ATTRIB
  8
FeatureAttribs
 70
0
  1
PNOA-H_AMS_1956-57_33k_ES_PAN_2
  2
NAME
  10
262136.591
  20
4636694.514
 40
34.35634
  0
SEQEND
  0
POLYLINE
  8
Unknown_Area_Type
  70
1
  66
1
  0
VERTEX
  8
Unknown_Area_Type
  10
263092.851
  20
4638064.679
  0
VERTEX
  8
Unknown_Area_Type
  10
263074.859
  20
4637523.930
  0
VERTEX
  8
Unknown_Area_Type
  10
262997.918
  20
4635210.572
  0
VERTEX
  8
Unknown_Area_Type
  10
261165.972
  20
4635271.934
  0
VERTEX
  8
Unknown_Area_Type
  10
261221.000
  20
4637904.500
  0
VERTEX
  8
Unknown_Area_Type
  10
262344.500
  20
4638299.500
  0
VERTEX
  8
Unknown_Area_Type
  10
262346.000
  20
4638300.000
  0
VERTEX
  8
Unknown_Area_Type
  10
262357.000
  20
4638297.500
  0
VERTEX
  8
Unknown_Area_Type
  10
263092.851
  20
4638064.679
  0
SEQEND
  8
Unknown_Area_Type
  0
INSERT
  8
FeatureAttribs
  2
FEATURE
  41
1
  42
1
  43
1
  50
0
  10
262136.591
  20
4636694.514
 66
1
  0
ATTRIB
  8
FeatureAttribs
 70
0
  1
PNOA-H_AMS_1956-57_33k_ES_PAN_2
  2
NAME
  10
262136.591
  20
4636694.514
 40
34.35634
  0
SEQEND
  0
POLYLINE
  8
Unknown_Area_Type
  70
1
  66
1
  0
VERTEX
  8
Unknown_Area_Type
  10
263092.851
  20
4638064.679
  0
VERTEX
  8
Unknown_Area_Type
  10
262357.000
  20
4638297.500
  0
VERTEX
  8
Unknown_Area_Type
  10
262346.000
  20
4638300.000
  0
VERTEX
  8
Unknown_Area_Type
  10
262344.500
  20
4638299.500
  0
VERTEX
  8
Unknown_Area_Type
  10
261221.000
  20
4637904.500
  0
VERTEX
  8
Unknown_Area_Type
  10
261165.972
  20
4635271.934
  0
VERTEX
  8
Unknown_Area_Type
  10
262997.918
  20
4635210.572
  0
VERTEX
  8
Unknown_Area_Type
  10
263074.859
  20
4637523.930
  0
VERTEX
  8
Unknown_Area_Type
  10
263092.851
  20
4638064.679
  0
SEQEND
  8
Unknown_Area_Type
  0
INSERT
  8
FeatureAttribs
  2
FEATURE
  41
1
  42
1
  43
1
  50
0
  10
254516.045
  20
4635377.249
 66
1
  0
ATTRIB
  8
FeatureAttribs
 70
0
  1
PNOA-H_AMS_1956-57_33k_ES_PAN_2
  2
NAME
  10
254516.045
  20
4635377.249
 40
34.35634
  0
SEQEND
  0
POLYLINE
  8
Unknown_Area_Type
  70
1
  66
1
  0
VERTEX
  8
Unknown_Area_Type
  10
255854.568
  20
4635210.552
  0
VERTEX
  8
Unknown_Area_Type
  10
253171.078
  20
4635210.552
  0
VERTEX
  8
Unknown_Area_Type
  10
253179.502
  20
4635543.946
  0
VERTEX
  8
Unknown_Area_Type
  10
255857.798
  20
4635451.630
  0
VERTEX
  8
Unknown_Area_Type
  10
255854.568
  20
4635210.552
  0
SEQEND
  8
Unknown_Area_Type
  0
INSERT
  8
FeatureAttribs
  2
FEATURE
  41
1
  42
1
  43
1
  50
0
  10
254538.317
  20
4636878.216
 66
1
  0
ATTRIB
  8
FeatureAttribs
 70
0
  1
PNOA-H_AMS_1956-57_33k_ES_PAN_2
  2
NAME
  10
254538.317
  20
4636878.216
 40
34.35634
  0
SEQEND
  0
POLYLINE
  8
Unknown_Area_Type
  70
1
  66
1
  0
VERTEX
  8
Unknown_Area_Type
  10
255857.798
  20
4635451.630
  0
VERTEX
  8
Unknown_Area_Type
  10
253179.502
  20
4635543.946
  0
VERTEX
  8
Unknown_Area_Type
  10
253244.000
  20
4638096.500
  0
VERTEX
  8
Unknown_Area_Type
  10
254140.000
  20
4638458.500
  0
VERTEX
  8
Unknown_Area_Type
  10
254141.000
  20
4638459.000
  0
VERTEX
  8
Unknown_Area_Type
  10
255892.500
  20
4638042.000
  0
VERTEX
  8
Unknown_Area_Type
  10
255857.798
  20
4635451.630
  0
SEQEND
  8
Unknown_Area_Type
  0
INSERT
  8
FeatureAttribs
  2
FEATURE
  41
1
  42
1
  43
1
  50
0
  10
254538.317
  20
4636878.216
 66
1
  0
ATTRIB
  8
FeatureAttribs
 70
0
  1
PNOA-H_AMS_1956-57_33k_ES_PAN_2
  2
NAME
  10
254538.317
  20
4636878.216
 40
34.35634
  0
SEQEND
  0
POLYLINE
  8
Unknown_Area_Type
  70
1
  66
1
  0
VERTEX
  8
Unknown_Area_Type
  10
255857.798
  20
4635451.630
  0
VERTEX
  8
Unknown_Area_Type
  10
255892.500
  20
4638042.000
  0
VERTEX
  8
Unknown_Area_Type
  10
254141.000
  20
4638459.000
  0
VERTEX
  8
Unknown_Area_Type
  10
254140.000
  20
4638458.500
  0
VERTEX
  8
Unknown_Area_Type
  10
253244.000
  20
4638096.500
  0
VERTEX
  8
Unknown_Area_Type
  10
253179.502
  20
4635543.946
  0
VERTEX
  8
Unknown_Area_Type
  10
255857.798
  20
4635451.630
  0
SEQEND
  8
Unknown_Area_Type
  0
INSERT
  8
FeatureAttribs
  2
FEATURE
  41
1
  42
1
  43
1
  50
0
  10
239175.659
  20
4635649.520
 66
1
  0
ATTRIB
  8
FeatureAttribs
 70
0
  1
PNOA-H_AMS_1956-57_33k_ES_PAN_2
  2
NAME
  10
239175.659
  20
4635649.520
 40
34.35634
  0
SEQEND
  0
POLYLINE
  8
Unknown_Area_Type
  70
1
  66
1
  0
VERTEX
  8
Unknown_Area_Type
  10
240416.104
  20
4635210.552
  0
VERTEX
  8
Unknown_Area_Type
  10
237886.063
  20
4635210.552
  0
VERTEX
  8
Unknown_Area_Type
  10
237929.119
  20
4636088.487
  0
VERTEX
  8
Unknown_Area_Type
  10
238776.137
  20
4636057.232
  0
VERTEX
  8
Unknown_Area_Type
  10
240465.512
  20
4635995.716
  0
VERTEX
  8
Unknown_Area_Type
  10
240416.104
  20
4635210.552
  0
SEQEND
  8
Unknown_Area_Type
  0
INSERT
  8
FeatureAttribs
  2
FEATURE
  41
1
  42
1
  43
1
  50
0
  10
239274.074
  20
4637488.478
 66
1
  0
ATTRIB
  8
FeatureAttribs
 70
0
  1
PNOA-H_AMS_1956-57_33k_ES_PAN_2
  2
NAME
  10
239274.074
  20
4637488.478
 40
34.35634
  0
SEQEND
  0
POLYLINE
  8
Unknown_Area_Type
  70
1
  66
1
  0
VERTEX
  8
Unknown_Area_Type
  10
240465.512
  20
4635995.716
  0
VERTEX
  8
Unknown_Area_Type
  10
238776.137
  20
4636057.232
  0
VERTEX
  8
Unknown_Area_Type
  10
237929.119
  20
4636088.487
  0
VERTEX
  8
Unknown_Area_Type
  10
238068.500
  20
4638930.500
  0
VERTEX
  8
Unknown_Area_Type
  10
238208.500
  20
4639002.000
  0
VERTEX
  8
Unknown_Area_Type
  10
239246.000
  20
4638936.000
  0
VERTEX
  8
Unknown_Area_Type
  10
239250.000
  20
4638936.000
  0
VERTEX
  8
Unknown_Area_Type
  10
240645.000
  20
4638848.000
  0
VERTEX
  8
Unknown_Area_Type
  10
240465.512
  20
4635995.716
  0
SEQEND
  8
Unknown_Area_Type
  0
INSERT
  8
FeatureAttribs
  2
FEATURE
  41
1
  42
1
  43
1
  50
0
  10
239274.074
  20
4637488.478
 66
1
  0
ATTRIB
  8
FeatureAttribs
 70
0
  1
PNOA-H_AMS_1956-57_33k_ES_PAN_2
  2
NAME
  10
239274.074
  20
4637488.478
 40
34.35634
  0
SEQEND
  0
POLYLINE
  8
Unknown_Area_Type
  70
1
  66
1
  0
VERTEX
  8
Unknown_Area_Type
  10
240465.512
  20
4635995.716
  0
VERTEX
  8
Unknown_Area_Type
  10
240645.000
  20
4638848.000
  0
VERTEX
  8
Unknown_Area_Type
  10
239250.000
  20
4638936.000
  0
VERTEX
  8
Unknown_Area_Type
  10
239246.000
  20
4638936.000
  0
VERTEX
  8
Unknown_Area_Type
  10
238208.500
  20
4639002.000
  0
VERTEX
  8
Unknown_Area_Type
  10
238068.500
  20
4638930.500
  0
VERTEX
  8
Unknown_Area_Type
  10
237929.119
  20
4636088.487
  0
VERTEX
  8
Unknown_Area_Type
  10
238776.137
  20
4636057.232
  0
VERTEX
  8
Unknown_Area_Type
  10
240465.512
  20
4635995.716
  0
SEQEND
  8
Unknown_Area_Type
  0
INSERT
  8
FeatureAttribs
  2
FEATURE
  41
1
  42
1
  43
1
  50
0
  10
235337.382
  20
4636778.985
 66
1
  0
ATTRIB
  8
FeatureAttribs
 70
0
  1
PNOA-H_AMS_1956-57_33k_ES_PAN_2
  2
NAME
  10
235337.382
  20
4636778.985
 40
34.35634
  0
SEQEND
  0
POLYLINE
  8
Unknown_Area_Type
  70
1
  66
1
  0
VERTEX
  8
Unknown_Area_Type
  10
235359.963
  20
4637373.052
  0
VERTEX
  8
Unknown_Area_Type
  10
235315.823
  20
4636184.918
  0
VERTEX
  8
Unknown_Area_Type
  10
235315.794
  20
4636184.919
  0
VERTEX
  8
Unknown_Area_Type
  10
235315.794
  20
4636236.748
  0
VERTEX
  8
Unknown_Area_Type
  10
235359.963
  20
4637373.052
  0
SEQEND
  8
Unknown_Area_Type
  0
INSERT
  8
FeatureAttribs
  2
FEATURE
  41
1
  42
1
  43
1
  50
0
  10
235315.808
  20
4636184.728
 66
1
  0
ATTRIB
  8
FeatureAttribs
 70
0
  1
PNOA-H_AMS_1956-57_33k_ES_PAN_2
  2
NAME
  10
235315.808
  20
4636184.728
 40
34.35634
  0
SEQEND
  0
POLYLINE
  8
Unknown_Area_Type
  70
1
  66
1
  0
VERTEX
  8
Unknown_Area_Type
  10
235315.794
  20
4636184.919
  0
VERTEX
  8
Unknown_Area_Type
  10
235315.823
  20
4636184.918
  0
VERTEX
  8
Unknown_Area_Type
  10
235315.794
  20
4636184.156
  0
VERTEX
  8
Unknown_Area_Type
  10
235315.794
  20
4636184.919
  0
SEQEND
  8
Unknown_Area_Type
  0
INSERT
  8
FeatureAttribs
  2
FEATURE
  41
1
  42
1
  43
1
  50
0
  10
236612.968
  20
4635697.735
 66
1
  0
ATTRIB
  8
FeatureAttribs
 70
0
  1
PNOA-H_AMS_1956-57_33k_ES_PAN_2
  2
NAME
  10
236612.968
  20
4635697.735
 40
34.35634
  0
SEQEND
  0
POLYLINE
  8
Unknown_Area_Type
  70
1
  66
1
  0
VERTEX
  8
Unknown_Area_Type
  10
237886.278
  20
4635210.552
  0
VERTEX
  8
Unknown_Area_Type
  10
235315.794
  20
4635210.552
  0
VERTEX
  8
Unknown_Area_Type
  10
235315.794
  20
4636184.156
  0
VERTEX
  8
Unknown_Area_Type
  10
235315.823
  20
4636184.918
  0
VERTEX
  8
Unknown_Area_Type
  10
237929.283
  20
4636088.481
  0
VERTEX
  8
Unknown_Area_Type
  10
237886.278
  20
4635210.552
  0
SEQEND
  8
Unknown_Area_Type
  0
INSERT
  8
FeatureAttribs
  2
FEATURE
  41
1
  42
1
  43
1
  50
0
  10
236678.001
  20
4637591.905
 66
1
  0
ATTRIB
  8
FeatureAttribs
 70
0
  1
PNOA-H_AMS_1956-57_33k_ES_PAN_2
  2
NAME
  10
236678.001
  20
4637591.905
 40
34.35634
  0
SEQEND
  0
POLYLINE
  8
Unknown_Area_Type
  70
1
  66
1
  0
VERTEX
  8
Unknown_Area_Type
  10
237929.283
  20
4636088.481
  0
VERTEX
  8
Unknown_Area_Type
  10
235315.823
  20
4636184.918
  0
VERTEX
  8
Unknown_Area_Type
  10
235359.963
  20
4637373.052
  0
VERTEX
  8
Unknown_Area_Type
  10
235424.000
  20
4639020.500
  0
VERTEX
  8
Unknown_Area_Type
  10
235425.000
  20
4639022.000
  0
VERTEX
  8
Unknown_Area_Type
  10
235435.500
  20
4639027.500
  0
VERTEX
  8
Unknown_Area_Type
  10
235654.500
  20
4639140.000
  0
VERTEX
  8
Unknown_Area_Type
  10
235659.500
  20
4639142.500
  0
VERTEX
  8
Unknown_Area_Type
  10
235662.000
  20
4639142.500
  0
VERTEX
  8
Unknown_Area_Type
  10
237200.000
  20
4639006.500
  0
VERTEX
  8
Unknown_Area_Type
  10
237202.000
  20
4639006.500
  0
VERTEX
  8
Unknown_Area_Type
  10
238068.500
  20
4638930.500
  0
VERTEX
  8
Unknown_Area_Type
  10
237929.283
  20
4636088.481
  0
SEQEND
  8
Unknown_Area_Type
  0
INSERT
  8
FeatureAttribs
  2
FEATURE
  41
1
  42
1
  43
1
  50
0
  10
236678.001
  20
4637591.905
 66
1
  0
ATTRIB
  8
FeatureAttribs
 70
0
  1
PNOA-H_AMS_1956-57_33k_ES_PAN_2
  2
NAME
  10
236678.001
  20
4637591.905
 40
34.35634
  0
SEQEND
  0
POLYLINE
  8
Unknown_Area_Type
  70
1
  66
1
  0
VERTEX
  8
Unknown_Area_Type
  10
237929.283
  20
4636088.481
  0
VERTEX
  8
Unknown_Area_Type
  10
238068.500
  20
4638930.500
  0
VERTEX
  8
Unknown_Area_Type
  10
237202.000
  20
4639006.500
  0
VERTEX
  8
Unknown_Area_Type
  10
237200.000
  20
4639006.500
  0
VERTEX
  8
Unknown_Area_Type
  10
235662.000
  20
4639142.500
  0
VERTEX
  8
Unknown_Area_Type
  10
235659.500
  20
4639142.500
  0
VERTEX
  8
Unknown_Area_Type
  10
235654.500
  20
4639140.000
  0
VERTEX
  8
Unknown_Area_Type
  10
235435.500
  20
4639027.500
  0
VERTEX
  8
Unknown_Area_Type
  10
235425.000
  20
4639022.000
  0
VERTEX
  8
Unknown_Area_Type
  10
235424.000
  20
4639020.500
  0
VERTEX
  8
Unknown_Area_Type
  10
235359.963
  20
4637373.052
  0
VERTEX
  8
Unknown_Area_Type
  10
235315.823
  20
4636184.918
  0
VERTEX
  8
Unknown_Area_Type
  10
237929.283
  20
4636088.481
  0
SEQEND
  8
Unknown_Area_Type
  0
INSERT
  8
FeatureAttribs
  2
FEATURE
  41
1
  42
1
  43
1
  50
0
  10
255537.762
  20
4640301.334
 66
1
  0
ATTRIB
  8
FeatureAttribs
 70
0
  1
PNOA-H_AMS_1956-57_33k_ES_PAN_2
  2
NAME
  10
255537.762
  20
4640301.334
 40
34.35634
  0
SEQEND
  0
POLYLINE
  8
Unknown_Area_Type
  70
1
  66
1
  0
VERTEX
  8
Unknown_Area_Type
  10
255634.000
  20
4642528.000
  0
VERTEX
  8
Unknown_Area_Type
  10
256916.000
  20
4642116.000
  0
VERTEX
  8
Unknown_Area_Type
  10
256866.500
  20
4638420.500
  0
VERTEX
  8
Unknown_Area_Type
  10
255892.500
  20
4638042.000
  0
VERTEX
  8
Unknown_Area_Type
  10
254141.500
  20
4638459.000
  0
VERTEX
  8
Unknown_Area_Type
  10
254210.500
  20
4642146.000
  0
VERTEX
  8
Unknown_Area_Type
  10
255417.000
  20
4642597.000
  0
VERTEX
  8
Unknown_Area_Type
  10
255425.000
  20
4642595.500
  0
VERTEX
  8
Unknown_Area_Type
  10
255633.000
  20
4642528.000
  0
VERTEX
  8
Unknown_Area_Type
  10
255634.000
  20
4642528.000
  0
SEQEND
  8
Unknown_Area_Type
  0
INSERT
  8
FeatureAttribs
  2
FEATURE
  41
1
  42
1
  43
1
  50
0
  10
255537.762
  20
4640301.334
 66
1
  0
ATTRIB
  8
FeatureAttribs
 70
0
  1
PNOA-H_AMS_1956-57_33k_ES_PAN_2
  2
NAME
  10
255537.762
  20
4640301.334
 40
34.35634
  0
SEQEND
  0
POLYLINE
  8
Unknown_Area_Type
  70
1
  66
1
  0
VERTEX
  8
Unknown_Area_Type
  10
255634.000
  20
4642528.000
  0
VERTEX
  8
Unknown_Area_Type
  10
255633.000
  20
4642528.000
  0
VERTEX
  8
Unknown_Area_Type
  10
255425.000
  20
4642595.500
  0
VERTEX
  8
Unknown_Area_Type
  10
255417.000
  20
4642597.000
  0
VERTEX
  8
Unknown_Area_Type
  10
254210.500
  20
4642146.000
  0
VERTEX
  8
Unknown_Area_Type
  10
254141.500
  20
4638459.000
  0
VERTEX
  8
Unknown_Area_Type
  10
255892.500
  20
4638042.000
  0
VERTEX
  8
Unknown_Area_Type
  10
256866.500
  20
4638420.500
  0
VERTEX
  8
Unknown_Area_Type
  10
256916.000
  20
4642116.000
  0
VERTEX
  8
Unknown_Area_Type
  10
255634.000
  20
4642528.000
  0
SEQEND
  8
Unknown_Area_Type
  0
INSERT
  8
FeatureAttribs
  2
FEATURE
  41
1
  42
1
  43
1
  50
0
  10
258267.317
  20
4640289.332
 66
1
  0
ATTRIB
  8
FeatureAttribs
 70
0
  1
PNOA-H_AMS_1956-57_33k_ES_PAN_2
  2
NAME
  10
258267.317
  20
4640289.332
 40
34.35634
  0
SEQEND
  0
POLYLINE
  8
Unknown_Area_Type
  70
1
  66
1
  0
VERTEX
  8
Unknown_Area_Type
  10
258259.500
  20
4642588.000
  0
VERTEX
  8
Unknown_Area_Type
  10
258263.000
  20
4642588.000
  0
VERTEX
  8
Unknown_Area_Type
  10
259690.500
  20
4642139.000
  0
VERTEX
  8
Unknown_Area_Type
  10
259555.000
  20
4638358.500
  0
VERTEX
  8
Unknown_Area_Type
  10
258588.500
  20
4637994.500
  0
VERTEX
  8
Unknown_Area_Type
  10
258585.000
  20
4637994.000
  0
VERTEX
  8
Unknown_Area_Type
  10
258542.500
  20
4638004.500
  0
VERTEX
  8
Unknown_Area_Type
  10
256866.500
  20
4638420.500
  0
VERTEX
  8
Unknown_Area_Type
  10
256916.000
  20
4642116.000
  0
VERTEX
  8
Unknown_Area_Type
  10
258258.000
  20
4642587.500
  0
VERTEX
  8
Unknown_Area_Type
  10
258259.500
  20
4642588.000
  0
SEQEND
  8
Unknown_Area_Type
  0
INSERT
  8
FeatureAttribs
  2
FEATURE
  41
1
  42
1
  43
1
  50
0
  10
258267.317
  20
4640289.332
 66
1
  0
ATTRIB
  8
FeatureAttribs
 70
0
  1
PNOA-H_AMS_1956-57_33k_ES_PAN_2
  2
NAME
  10
258267.317
  20
4640289.332
 40
34.35634
  0
SEQEND
  0
POLYLINE
  8
Unknown_Area_Type
  70
1
  66
1
  0
VERTEX
  8
Unknown_Area_Type
  10
258259.500
  20
4642588.000
  0
VERTEX
  8
Unknown_Area_Type
  10
258258.000
  20
4642587.500
  0
VERTEX
  8
Unknown_Area_Type
  10
256916.000
  20
4642116.000
  0
VERTEX
  8
Unknown_Area_Type
  10
256866.500
  20
4638420.500
  0
VERTEX
  8
Unknown_Area_Type
  10
258542.500
  20
4638004.500
  0
VERTEX
  8
Unknown_Area_Type
  10
258585.000
  20
4637994.000
  0
VERTEX
  8
Unknown_Area_Type
  10
258588.500
  20
4637994.500
  0
VERTEX
  8
Unknown_Area_Type
  10
259555.000
  20
4638358.500
  0
VERTEX
  8
Unknown_Area_Type
  10
259690.500
  20
4642139.000
  0
VERTEX
  8
Unknown_Area_Type
  10
258263.000
  20
4642588.000
  0
VERTEX
  8
Unknown_Area_Type
  10
258259.500
  20
4642588.000
  0
SEQEND
  8
Unknown_Area_Type
  0
INSERT
  8
FeatureAttribs
  2
FEATURE
  41
1
  42
1
  43
1
  50
0
  10
244170.143
  20
4635558.545
 66
1
  0
ATTRIB
  8
FeatureAttribs
 70
0
  1
PNOA-H_AMS_1956-57_33k_ES_PAN_2
  2
NAME
  10
244170.143
  20
4635558.545
 40
34.35634
  0
SEQEND
  0
POLYLINE
  8
Unknown_Area_Type
  70
1
  66
1
  0
VERTEX
  8
Unknown_Area_Type
  10
245421.238
  20
4635210.552
  0
VERTEX
  8
Unknown_Area_Type
  10
242889.742
  20
4635210.552
  0
VERTEX
  8
Unknown_Area_Type
  10
242923.708
  20
4635906.538
  0
VERTEX
  8
Unknown_Area_Type
  10
245442.679
  20
4635816.038
  0
VERTEX
  8
Unknown_Area_Type
  10
245421.238
  20
4635210.552
  0
SEQEND
  8
Unknown_Area_Type
  0
INSERT
  8
FeatureAttribs
  2
FEATURE
  41
1
  42
1
  43
1
  50
0
  10
244224.387
  20
4637241.726
 66
1
  0
ATTRIB
  8
FeatureAttribs
 70
0
  1
PNOA-H_AMS_1956-57_33k_ES_PAN_2
  2
NAME
  10
244224.387
  20
4637241.726
 40
34.35634
  0
SEQEND
  0
POLYLINE
  8
Unknown_Area_Type
  70
1
  66
1
  0
VERTEX
  8
Unknown_Area_Type
  10
245442.679
  20
4635816.038
  0
VERTEX
  8
Unknown_Area_Type
  10
242923.708
  20
4635906.538
  0
VERTEX
  8
Unknown_Area_Type
  10
243057.500
  20
4638648.000
  0
VERTEX
  8
Unknown_Area_Type
  10
243058.000
  20
4638652.500
  0
VERTEX
  8
Unknown_Area_Type
  10
243061.500
  20
4638654.500
  0
VERTEX
  8
Unknown_Area_Type
  10
243332.000
  20
4638778.000
  0
VERTEX
  8
Unknown_Area_Type
  10
243333.000
  20
4638778.500
  0
VERTEX
  8
Unknown_Area_Type
  10
245536.000
  20
4638451.500
  0
VERTEX
  8
Unknown_Area_Type
  10
245442.679
  20
4635816.038
  0
SEQEND
  8
Unknown_Area_Type
  0
INSERT
  8
FeatureAttribs
  2
FEATURE
  41
1
  42
1
  43
1
  50
0
  10
244224.387
  20
4637241.726
 66
1
  0
ATTRIB
  8
FeatureAttribs
 70
0
  1
PNOA-H_AMS_1956-57_33k_ES_PAN_2
  2
NAME
  10
244224.387
  20
4637241.726
 40
34.35634
  0
SEQEND
  0
POLYLINE
  8
Unknown_Area_Type
  70
1
  66
1
  0
VERTEX
  8
Unknown_Area_Type
  10
245442.679
  20
4635816.038
  0
VERTEX
  8
Unknown_Area_Type
  10
245536.000
  20
4638451.500
  0
VERTEX
  8
Unknown_Area_Type
  10
243333.000
  20
4638778.500
  0
VERTEX
  8
Unknown_Area_Type
  10
243332.000
  20
4638778.000
  0
VERTEX
  8
Unknown_Area_Type
  10
243061.500
  20
4638654.500
  0
VERTEX
  8
Unknown_Area_Type
  10
243058.000
  20
4638652.500
  0
VERTEX
  8
Unknown_Area_Type
  10
243057.500
  20
4638648.000
  0
VERTEX
  8
Unknown_Area_Type
  10
242923.708
  20
4635906.538
  0
VERTEX
  8
Unknown_Area_Type
  10
245442.679
  20
4635816.038
  0
SEQEND
  8
Unknown_Area_Type
  0
INSERT
  8
FeatureAttribs
  2
FEATURE
  41
1
  42
1
  43
1
  50
0
  10
250138.099
  20
4640420.806
 66
1
  0
ATTRIB
  8
FeatureAttribs
 70
0
  1
PNOA-H_AMS_1956-57_33k_ES_PAN_2
  2
NAME
  10
250138.099
  20
4640420.806
 40
34.35634
  0
SEQEND
  0
POLYLINE
  8
Unknown_Area_Type
  70
1
  66
1
  0
VERTEX
  8
Unknown_Area_Type
  10
249750.500
  20
4642702.000
  0
VERTEX
  8
Unknown_Area_Type
  10
249791.000
  20
4642692.000
  0
VERTEX
  8
Unknown_Area_Type
  10
251506.500
  20
4642233.000
  0
VERTEX
  8
Unknown_Area_Type
  10
251429.500
  20
4638512.000
  0
VERTEX
  8
Unknown_Area_Type
  10
251427.000
  20
4638509.500
  0
VERTEX
  8
Unknown_Area_Type
  10
250630.500
  20
4638186.500
  0
VERTEX
  8
Unknown_Area_Type
  10
248744.500
  20
4638565.000
  0
VERTEX
  8
Unknown_Area_Type
  10
248887.000
  20
4642371.500
  0
VERTEX
  8
Unknown_Area_Type
  10
249749.000
  20
4642701.500
  0
VERTEX
  8
Unknown_Area_Type
  10
249750.500
  20
4642702.000
  0
SEQEND
  8
Unknown_Area_Type
  0
INSERT
  8
FeatureAttribs
  2
FEATURE
  41
1
  42
1
  43
1
  50
0
  10
250138.099
  20
4640420.806
 66
1
  0
ATTRIB
  8
FeatureAttribs
 70
0
  1
PNOA-H_AMS_1956-57_33k_ES_PAN_2
  2
NAME
  10
250138.099
  20
4640420.806
 40
34.35634
  0
SEQEND
  0
POLYLINE
  8
Unknown_Area_Type
  70
1
  66
1
  0
VERTEX
  8
Unknown_Area_Type
  10
249750.500
  20
4642702.000
  0
VERTEX
  8
Unknown_Area_Type
  10
249749.000
  20
4642701.500
  0
VERTEX
  8
Unknown_Area_Type
  10
248887.000
  20
4642371.500
  0
VERTEX
  8
Unknown_Area_Type
  10
248744.500
  20
4638565.000
  0
VERTEX
  8
Unknown_Area_Type
  10
250630.500
  20
4638186.500
  0
VERTEX
  8
Unknown_Area_Type
  10
251427.000
  20
4638509.500
  0
VERTEX
  8
Unknown_Area_Type
  10
251429.500
  20
4638512.000
  0
VERTEX
  8
Unknown_Area_Type
  10
251506.500
  20
4642233.000
  0
VERTEX
  8
Unknown_Area_Type
  10
249791.000
  20
4642692.000
  0
VERTEX
  8
Unknown_Area_Type
  10
249750.500
  20
4642702.000
  0
SEQEND
  8
Unknown_Area_Type
  0
INSERT
  8
FeatureAttribs
  2
FEATURE
  41
1
  42
1
  43
1
  50
0
  10
244812.107
  20
4640669.629
 66
1
  0
ATTRIB
  8
FeatureAttribs
 70
0
  1
PNOA-H_AMS_1956-57_33k_ES_PAN_2
  2
NAME
  10
244812.107
  20
4640669.629
 40
34.35634
  0
SEQEND
  0
POLYLINE
  8
Unknown_Area_Type
  70
1
  66
1
  0
VERTEX
  8
Unknown_Area_Type
  10
246119.000
  20
4640008.000
  0
VERTEX
  8
Unknown_Area_Type
  10
246037.000
  20
4638676.500
  0
VERTEX
  8
Unknown_Area_Type
  10
245536.500
  20
4638451.500
  0
VERTEX
  8
Unknown_Area_Type
  10
243333.500
  20
4638778.500
  0
VERTEX
  8
Unknown_Area_Type
  10
243608.500
  20
4642622.500
  0
VERTEX
  8
Unknown_Area_Type
  10
243609.000
  20
4642629.000
  0
VERTEX
  8
Unknown_Area_Type
  10
243612.000
  20
4642630.500
  0
VERTEX
  8
Unknown_Area_Type
  10
244385.000
  20
4642958.000
  0
VERTEX
  8
Unknown_Area_Type
  10
246271.500
  20
4642485.000
  0
VERTEX
  8
Unknown_Area_Type
  10
246119.000
  20
4640014.500
  0
VERTEX
  8
Unknown_Area_Type
  10
246119.000
  20
4640008.000
  0
SEQEND
  8
Unknown_Area_Type
  0
INSERT
  8
FeatureAttribs
  2
FEATURE
  41
1
  42
1
  43
1
  50
0
  10
244812.107
  20
4640669.629
 66
1
  0
ATTRIB
  8
FeatureAttribs
 70
0
  1
PNOA-H_AMS_1956-57_33k_ES_PAN_2
  2
NAME
  10
244812.107
  20
4640669.629
 40
34.35634
  0
SEQEND
  0
POLYLINE
  8
Unknown_Area_Type
  70
1
  66
1
  0
VERTEX
  8
Unknown_Area_Type
  10
246119.000
  20
4640008.000
  0
VERTEX
  8
Unknown_Area_Type
  10
246119.000
  20
4640014.500
  0
VERTEX
  8
Unknown_Area_Type
  10
246271.500
  20
4642485.000
  0
VERTEX
  8
Unknown_Area_Type
  10
244385.000
  20
4642958.000
  0
VERTEX
  8
Unknown_Area_Type
  10
243612.000
  20
4642630.500
  0
VERTEX
  8
Unknown_Area_Type
  10
243609.000
  20
4642629.000
  0
VERTEX
  8
Unknown_Area_Type
  10
243608.500
  20
4642622.500
  0
VERTEX
  8
Unknown_Area_Type
  10
243333.500
  20
4638778.500
  0
VERTEX
  8
Unknown_Area_Type
  10
245536.500
  20
4638451.500
  0
VERTEX
  8
Unknown_Area_Type
  10
246037.000
  20
4638676.500
  0
VERTEX
  8
Unknown_Area_Type
  10
246119.000
  20
4640008.000
  0
SEQEND
  8
Unknown_Area_Type
  0
INSERT
  8
FeatureAttribs
  2
FEATURE
  41
1
  42
1
  43
1
  50
0
  10
252822.049
  20
4640355.886
 66
1
  0
ATTRIB
  8
FeatureAttribs
 70
0
  1
PNOA-H_AMS_1956-57_33k_ES_PAN_2
  2
NAME
  10
252822.049
  20
4640355.886
 40
34.35634
  0
SEQEND
  0
POLYLINE
  8
Unknown_Area_Type
  70
1
  66
1
  0
VERTEX
  8
Unknown_Area_Type
  10
251537.000
  20
4642245.000
  0
VERTEX
  8
Unknown_Area_Type
  10
252566.500
  20
4642656.000
  0
VERTEX
  8
Unknown_Area_Type
  10
254210.500
  20
4642146.000
  0
VERTEX
  8
Unknown_Area_Type
  10
254142.000
  20
4638460.500
  0
VERTEX
  8
Unknown_Area_Type
  10
254141.000
  20
4638458.500
  0
VERTEX
  8
Unknown_Area_Type
  10
254134.000
  20
4638455.500
  0
VERTEX
  8
Unknown_Area_Type
  10
253245.500
  20
4638096.500
  0
VERTEX
  8
Unknown_Area_Type
  10
253239.500
  20
4638097.000
  0
VERTEX
  8
Unknown_Area_Type
  10
251429.000
  20
4638510.500
  0
VERTEX
  8
Unknown_Area_Type
  10
251506.500
  20
4642232.500
  0
VERTEX
  8
Unknown_Area_Type
  10
251535.500
  20
4642244.500
  0
VERTEX
  8
Unknown_Area_Type
  10
251537.000
  20
4642245.000
  0
SEQEND
  8
Unknown_Area_Type
  0
INSERT
  8
FeatureAttribs
  2
FEATURE
  41
1
  42
1
  43
1
  50
0
  10
252822.049
  20
4640355.886
 66
1
  0
ATTRIB
  8
FeatureAttribs
 70
0
  1
PNOA-H_AMS_1956-57_33k_ES_PAN_2
  2
NAME
  10
252822.049
  20
4640355.886
 40
34.35634
  0
SEQEND
  0
POLYLINE
  8
Unknown_Area_Type
  70
1
  66
1
  0
VERTEX
  8
Unknown_Area_Type
  10
251537.000
  20
4642245.000
  0
VERTEX
  8
Unknown_Area_Type
  10
251535.500
  20
4642244.500
  0
VERTEX
  8
Unknown_Area_Type
  10
251506.500
  20
4642232.500
  0
VERTEX
  8
Unknown_Area_Type
  10
251429.000
  20
4638510.500
  0
VERTEX
  8
Unknown_Area_Type
  10
253239.500
  20
4638097.000
  0
VERTEX
  8
Unknown_Area_Type
  10
253245.500
  20
4638096.500
  0
VERTEX
  8
Unknown_Area_Type
  10
254134.000
  20
4638455.500
  0
VERTEX
  8
Unknown_Area_Type
  10
254141.000
  20
4638458.500
  0
VERTEX
  8
Unknown_Area_Type
  10
254142.000
  20
4638460.500
  0
VERTEX
  8
Unknown_Area_Type
  10
254210.500
  20
4642146.000
  0
VERTEX
  8
Unknown_Area_Type
  10
252566.500
  20
4642656.000
  0
VERTEX
  8
Unknown_Area_Type
  10
251537.000
  20
4642245.000
  0
SEQEND
  8
Unknown_Area_Type
  0
INSERT
  8
FeatureAttribs
  2
FEATURE
  41
1
  42
1
  43
1
  50
0
  10
261025.555
  20
4640245.151
 66
1
  0
ATTRIB
  8
FeatureAttribs
 70
0
  1
PNOA-H_AMS_1956-57_33k_ES_PAN_2
  2
NAME
  10
261025.555
  20
4640245.151
 40
34.35634
  0
SEQEND
  0
POLYLINE
  8
Unknown_Area_Type
  70
1
  66
1
  0
VERTEX
  8
Unknown_Area_Type
  10
259690.000
  20
4642129.000
  0
VERTEX
  8
Unknown_Area_Type
  10
259691.000
  20
4642139.000
  0
VERTEX
  8
Unknown_Area_Type
  10
259727.000
  20
4642151.500
  0
VERTEX
  8
Unknown_Area_Type
  10
259728.500
  20
4642152.000
  0
VERTEX
  8
Unknown_Area_Type
  10
261021.500
  20
4642597.500
  0
VERTEX
  8
Unknown_Area_Type
  10
262479.000
  20
4642154.500
  0
VERTEX
  8
Unknown_Area_Type
  10
262347.500
  20
4638300.000
  0
VERTEX
  8
Unknown_Area_Type
  10
261227.000
  20
4637906.000
  0
VERTEX
  8
Unknown_Area_Type
  10
261221.000
  20
4637904.000
  0
VERTEX
  8
Unknown_Area_Type
  10
261218.500
  20
4637904.500
  0
VERTEX
  8
Unknown_Area_Type
  10
259555.000
  20
4638358.500
  0
VERTEX
  8
Unknown_Area_Type
  10
259690.000
  20
4642129.000
  0
SEQEND
  8
Unknown_Area_Type
  0
INSERT
  8
FeatureAttribs
  2
FEATURE
  41
1
  42
1
  43
1
  50
0
  10
261025.555
  20
4640245.151
 66
1
  0
ATTRIB
  8
FeatureAttribs
 70
0
  1
PNOA-H_AMS_1956-57_33k_ES_PAN_2
  2
NAME
  10
261025.555
  20
4640245.151
 40
34.35634
  0
SEQEND
  0
POLYLINE
  8
Unknown_Area_Type
  70
1
  66
1
  0
VERTEX
  8
Unknown_Area_Type
  10
259690.000
  20
4642129.000
  0
VERTEX
  8
Unknown_Area_Type
  10
259555.000
  20
4638358.500
  0
VERTEX
  8
Unknown_Area_Type
  10
261218.500
  20
4637904.500
  0
VERTEX
  8
Unknown_Area_Type
  10
261221.000
  20
4637904.000
  0
VERTEX
  8
Unknown_Area_Type
  10
261227.000
  20
4637906.000
  0
VERTEX
  8
Unknown_Area_Type
  10
262347.500
  20
4638300.000
  0
VERTEX
  8
Unknown_Area_Type
  10
262479.000
  20
4642154.500
  0
VERTEX
  8
Unknown_Area_Type
  10
261021.500
  20
4642597.500
  0
VERTEX
  8
Unknown_Area_Type
  10
259728.500
  20
4642152.000
  0
VERTEX
  8
Unknown_Area_Type
  10
259727.000
  20
4642151.500
  0
VERTEX
  8
Unknown_Area_Type
  10
259691.000
  20
4642139.000
  0
VERTEX
  8
Unknown_Area_Type
  10
259690.000
  20
4642129.000
  0
SEQEND
  8
Unknown_Area_Type
  0
INSERT
  8
FeatureAttribs
  2
FEATURE
  41
1
  42
1
  43
1
  50
0
  10
239561.958
  20
4640980.000
 66
1
  0
ATTRIB
  8
FeatureAttribs
 70
0
  1
PNOA-H_AMS_1956-57_33k_ES_PAN_2
  2
NAME
  10
239561.958
  20
4640980.000
 40
34.35634
  0
SEQEND
  0
POLYLINE
  8
Unknown_Area_Type
  70
1
  66
1
  0
VERTEX
  8
Unknown_Area_Type
  10
239250.000
  20
4643155.500
  0
VERTEX
  8
Unknown_Area_Type
  10
240974.500
  20
4642774.000
  0
VERTEX
  8
Unknown_Area_Type
  10
240714.000
  20
4638885.000
  0
VERTEX
  8
Unknown_Area_Type
  10
240713.000
  20
4638880.500
  0
VERTEX
  8
Unknown_Area_Type
  10
240646.000
  20
4638848.000
  0
VERTEX
  8
Unknown_Area_Type
  10
238209.000
  20
4639002.000
  0
VERTEX
  8
Unknown_Area_Type
  10
238359.500
  20
4642895.500
  0
VERTEX
  8
Unknown_Area_Type
  10
239042.500
  20
4643201.500
  0
VERTEX
  8
Unknown_Area_Type
  10
239248.500
  20
4643155.500
  0
VERTEX
  8
Unknown_Area_Type
  10
239250.000
  20
4643155.500
  0
SEQEND
  8
Unknown_Area_Type
  0
INSERT
  8
FeatureAttribs
  2
FEATURE
  41
1
  42
1
  43
1
  50
0
  10
239561.958
  20
4640980.000
 66
1
  0
ATTRIB
  8
FeatureAttribs
 70
0
  1
PNOA-H_AMS_1956-57_33k_ES_PAN_2
  2
NAME
  10
239561.958
  20
4640980.000
 40
34.35634
  0
SEQEND
  0
POLYLINE
  8
Unknown_Area_Type
  70
1
  66
1
  0
VERTEX
  8
Unknown_Area_Type
  10
239250.000
  20
4643155.500
  0
VERTEX
  8
Unknown_Area_Type
  10
239248.500
  20
4643155.500
  0
VERTEX
  8
Unknown_Area_Type
  10
239042.500
  20
4643201.500
  0
VERTEX
  8
Unknown_Area_Type
  10
238359.500
  20
4642895.500
  0
VERTEX
  8
Unknown_Area_Type
  10
238209.000
  20
4639002.000
  0
VERTEX
  8
Unknown_Area_Type
  10
240646.000
  20
4638848.000
  0
VERTEX
  8
Unknown_Area_Type
  10
240713.000
  20
4638880.500
  0
VERTEX
  8
Unknown_Area_Type
  10
240714.000
  20
4638885.000
  0
VERTEX
  8
Unknown_Area_Type
  10
240974.500
  20
4642774.000
  0
VERTEX
  8
Unknown_Area_Type
  10
239250.000
  20
4643155.500
  0
SEQEND
  8
Unknown_Area_Type
  0
INSERT
  8
FeatureAttribs
  2
FEATURE
  41
1
  42
1
  43
1
  50
0
  10
236994.981
  20
4641081.569
 66
1
  0
ATTRIB
  8
FeatureAttribs
 70
0
  1
PNOA-H_AMS_1956-57_33k_ES_PAN_2
  2
NAME
  10
236994.981
  20
4641081.569
 40
34.35634
  0
SEQEND
  0
POLYLINE
  8
Unknown_Area_Type
  70
1
  66
1
  0
VERTEX
  8
Unknown_Area_Type
  10
235660.000
  20
4639154.000
  0
VERTEX
  8
Unknown_Area_Type
  10
235760.500
  20
4643014.000
  0
VERTEX
  8
Unknown_Area_Type
  10
236365.000
  20
4643307.500
  0
VERTEX
  8
Unknown_Area_Type
  10
237199.000
  20
4643135.000
  0
VERTEX
  8
Unknown_Area_Type
  10
237202.000
  20
4643134.500
  0
VERTEX
  8
Unknown_Area_Type
  10
238359.500
  20
4642895.500
  0
VERTEX
  8
Unknown_Area_Type
  10
238209.000
  20
4639002.000
  0
VERTEX
  8
Unknown_Area_Type
  10
238069.500
  20
4638930.500
  0
VERTEX
  8
Unknown_Area_Type
  10
238063.000
  20
4638930.500
  0
VERTEX
  8
Unknown_Area_Type
  10
235662.000
  20
4639142.000
  0
VERTEX
  8
Unknown_Area_Type
  10
235660.000
  20
4639142.500
  0
VERTEX
  8
Unknown_Area_Type
  10
235660.000
  20
4639154.000
  0
SEQEND
  8
Unknown_Area_Type
  0
INSERT
  8
FeatureAttribs
  2
FEATURE
  41
1
  42
1
  43
1
  50
0
  10
236994.981
  20
4641081.569
 66
1
  0
ATTRIB
  8
FeatureAttribs
 70
0
  1
PNOA-H_AMS_1956-57_33k_ES_PAN_2
  2
NAME
  10
236994.981
  20
4641081.569
 40
34.35634
  0
SEQEND
  0
POLYLINE
  8
Unknown_Area_Type
  70
1
  66
1
  0
VERTEX
  8
Unknown_Area_Type
  10
235660.000
  20
4639154.000
  0
VERTEX
  8
Unknown_Area_Type
  10
235660.000
  20
4639142.500
  0
VERTEX
  8
Unknown_Area_Type
  10
235662.000
  20
4639142.000
  0
VERTEX
  8
Unknown_Area_Type
  10
238063.000
  20
4638930.500
  0
VERTEX
  8
Unknown_Area_Type
  10
238069.500
  20
4638930.500
  0
VERTEX
  8
Unknown_Area_Type
  10
238209.000
  20
4639002.000
  0
VERTEX
  8
Unknown_Area_Type
  10
238359.500
  20
4642895.500
  0
VERTEX
  8
Unknown_Area_Type
  10
237202.000
  20
4643134.500
  0
VERTEX
  8
Unknown_Area_Type
  10
237199.000
  20
4643135.000
  0
VERTEX
  8
Unknown_Area_Type
  10
236365.000
  20
4643307.500
  0
VERTEX
  8
Unknown_Area_Type
  10
235760.500
  20
4643014.000
  0
VERTEX
  8
Unknown_Area_Type
  10
235660.000
  20
4639154.000
  0
SEQEND
  8
Unknown_Area_Type
  0
INSERT
  8
FeatureAttribs
  2
FEATURE
  41
1
  42
1
  43
1
  50
0
  10
247486.524
  20
4640532.770
 66
1
  0
ATTRIB
  8
FeatureAttribs
 70
0
  1
PNOA-H_AMS_1956-57_33k_ES_PAN_2
  2
NAME
  10
247486.524
  20
4640532.770
 40
34.35634
  0
SEQEND
  0
POLYLINE
  8
Unknown_Area_Type
  70
1
  66
1
  0
VERTEX
  8
Unknown_Area_Type
  10
247442.000
  20
4642736.500
  0
VERTEX
  8
Unknown_Area_Type
  10
248887.000
  20
4642371.500
  0
VERTEX
  8
Unknown_Area_Type
  10
248745.000
  20
4638567.500
  0
VERTEX
  8
Unknown_Area_Type
  10
248744.000
  20
4638564.500
  0
VERTEX
  8
Unknown_Area_Type
  10
248739.500
  20
4638562.500
  0
VERTEX
  8
Unknown_Area_Type
  10
248109.000
  20
4638300.500
  0
VERTEX
  8
Unknown_Area_Type
  10
248102.000
  20
4638301.000
  0
VERTEX
  8
Unknown_Area_Type
  10
246037.000
  20
4638676.500
  0
VERTEX
  8
Unknown_Area_Type
  10
246271.500
  20
4642485.500
  0
VERTEX
  8
Unknown_Area_Type
  10
247099.000
  20
4642823.000
  0
VERTEX
  8
Unknown_Area_Type
  10
247440.500
  20
4642736.500
  0
VERTEX
  8
Unknown_Area_Type
  10
247442.000
  20
4642736.500
  0
SEQEND
  8
Unknown_Area_Type
  0
INSERT
  8
FeatureAttribs
  2
FEATURE
  41
1
  42
1
  43
1
  50
0
  10
247486.524
  20
4640532.770
 66
1
  0
ATTRIB
  8
FeatureAttribs
 70
0
  1
PNOA-H_AMS_1956-57_33k_ES_PAN_2
  2
NAME
  10
247486.524
  20
4640532.770
 40
34.35634
  0
SEQEND
  0
POLYLINE
  8
Unknown_Area_Type
  70
1
  66
1
  0
VERTEX
  8
Unknown_Area_Type
  10
247442.000
  20
4642736.500
  0
VERTEX
  8
Unknown_Area_Type
  10
247440.500
  20
4642736.500
  0
VERTEX
  8
Unknown_Area_Type
  10
247099.000
  20
4642823.000
  0
VERTEX
  8
Unknown_Area_Type
  10
246271.500
  20
4642485.500
  0
VERTEX
  8
Unknown_Area_Type
  10
246037.000
  20
4638676.500
  0
VERTEX
  8
Unknown_Area_Type
  10
248102.000
  20
4638301.000
  0
VERTEX
  8
Unknown_Area_Type
  10
248109.000
  20
4638300.500
  0
VERTEX
  8
Unknown_Area_Type
  10
248739.500
  20
4638562.500
  0
VERTEX
  8
Unknown_Area_Type
  10
248744.000
  20
4638564.500
  0
VERTEX
  8
Unknown_Area_Type
  10
248745.000
  20
4638567.500
  0
VERTEX
  8
Unknown_Area_Type
  10
248887.000
  20
4642371.500
  0
VERTEX
  8
Unknown_Area_Type
  10
247442.000
  20
4642736.500
  0
SEQEND
  8
Unknown_Area_Type
  0
INSERT
  8
FeatureAttribs
  2
FEATURE
  41
1
  42
1
  43
1
  50
0
  10
242156.079
  20
4640822.504
 66
1
  0
ATTRIB
  8
FeatureAttribs
 70
0
  1
PNOA-H_AMS_1956-57_33k_ES_PAN_2
  2
NAME
  10
242156.079
  20
4640822.504
 40
34.35634
  0
SEQEND
  0
POLYLINE
  8
Unknown_Area_Type
  70
1
  66
1
  0
VERTEX
  8
Unknown_Area_Type
  10
241297.000
  20
4642916.000
  0
VERTEX
  8
Unknown_Area_Type
  10
241678.500
  20
4643084.000
  0
VERTEX
  8
Unknown_Area_Type
  10
241683.500
  20
4643084.500
  0
VERTEX
  8
Unknown_Area_Type
  10
243609.000
  20
4642629.000
  0
VERTEX
  8
Unknown_Area_Type
  10
243334.000
  20
4638780.000
  0
VERTEX
  8
Unknown_Area_Type
  10
243332.000
  20
4638777.500
  0
VERTEX
  8
Unknown_Area_Type
  10
243058.500
  20
4638652.500
  0
VERTEX
  8
Unknown_Area_Type
  10
240713.500
  20
4638881.000
  0
VERTEX
  8
Unknown_Area_Type
  10
240974.000
  20
4642772.000
  0
VERTEX
  8
Unknown_Area_Type
  10
240976.000
  20
4642775.000
  0
VERTEX
  8
Unknown_Area_Type
  10
241295.500
  20
4642915.500
  0
VERTEX
  8
Unknown_Area_Type
  10
241297.000
  20
4642916.000
  0
SEQEND
  8
Unknown_Area_Type
  0
INSERT
  8
FeatureAttribs
  2
FEATURE
  41
1
  42
1
  43
1
  50
0
  10
242156.079
  20
4640822.504
 66
1
  0
ATTRIB
  8
FeatureAttribs
 70
0
  1
PNOA-H_AMS_1956-57_33k_ES_PAN_2
  2
NAME
  10
242156.079
  20
4640822.504
 40
34.35634
  0
SEQEND
  0
POLYLINE
  8
Unknown_Area_Type
  70
1
  66
1
  0
VERTEX
  8
Unknown_Area_Type
  10
241297.000
  20
4642916.000
  0
VERTEX
  8
Unknown_Area_Type
  10
241295.500
  20
4642915.500
  0
VERTEX
  8
Unknown_Area_Type
  10
240976.000
  20
4642775.000
  0
VERTEX
  8
Unknown_Area_Type
  10
240974.000
  20
4642772.000
  0
VERTEX
  8
Unknown_Area_Type
  10
240713.500
  20
4638881.000
  0
VERTEX
  8
Unknown_Area_Type
  10
243058.500
  20
4638652.500
  0
VERTEX
  8
Unknown_Area_Type
  10
243332.000
  20
4638777.500
  0
VERTEX
  8
Unknown_Area_Type
  10
243334.000
  20
4638780.000
  0
VERTEX
  8
Unknown_Area_Type
  10
243609.000
  20
4642629.000
  0
VERTEX
  8
Unknown_Area_Type
  10
241683.500
  20
4643084.500
  0
VERTEX
  8
Unknown_Area_Type
  10
241678.500
  20
4643084.000
  0
VERTEX
  8
Unknown_Area_Type
  10
241297.000
  20
4642916.000
  0
SEQEND
  8
Unknown_Area_Type
  0
INSERT
  8
FeatureAttribs
  2
FEATURE
  41
1
  42
1
  43
1
  50
0
  10
263389.393
  20
4640216.065
 66
1
  0
ATTRIB
  8
FeatureAttribs
 70
0
  1
PNOA-H_AMS_1956-57_33k_ES_PAN_2
  2
NAME
  10
263389.393
  20
4640216.065
 40
34.35634
  0
SEQEND
  0
POLYLINE
  8
Unknown_Area_Type
  70
1
  66
1
  0
VERTEX
  8
Unknown_Area_Type
  10
263614.348
  20
4637899.462
  0
VERTEX
  8
Unknown_Area_Type
  10
263092.840
  20
4638064.347
  0
VERTEX
  8
Unknown_Area_Type
  10
263151.830
  20
4639837.294
  0
VERTEX
  8
Unknown_Area_Type
  10
263228.833
  20
4642150.664
  0
VERTEX
  8
Unknown_Area_Type
  10
263237.373
  20
4642407.103
  0
VERTEX
  8
Unknown_Area_Type
  10
263614.348
  20
4642532.668
  0
VERTEX
  8
Unknown_Area_Type
  10
263614.348
  20
4637899.462
  0
SEQEND
  8
Unknown_Area_Type
  0
INSERT
  8
FeatureAttribs
  2
FEATURE
  41
1
  42
1
  43
1
  50
0
  10
262796.586
  20
4640230.022
 66
1
  0
ATTRIB
  8
FeatureAttribs
 70
0
  1
PNOA-H_AMS_1956-57_33k_ES_PAN_2
  2
NAME
  10
262796.586
  20
4640230.022
 40
34.35634
  0
SEQEND
  0
POLYLINE
  8
Unknown_Area_Type
  70
1
  66
1
  0
VERTEX
  8
Unknown_Area_Type
  10
263092.840
  20
4638064.347
  0
VERTEX
  8
Unknown_Area_Type
  10
262347.500
  20
4638300.000
  0
VERTEX
  8
Unknown_Area_Type
  10
262479.000
  20
4642154.500
  0
VERTEX
  8
Unknown_Area_Type
  10
263237.373
  20
4642407.103
  0
VERTEX
  8
Unknown_Area_Type
  10
263228.833
  20
4642150.664
  0
VERTEX
  8
Unknown_Area_Type
  10
263151.830
  20
4639837.294
  0
VERTEX
  8
Unknown_Area_Type
  10
263092.840
  20
4638064.347
  0
SEQEND
  8
Unknown_Area_Type
  0
INSERT
  8
FeatureAttribs
  2
FEATURE
  41
1
  42
1
  43
1
  50
0
  10
262796.586
  20
4640230.022
 66
1
  0
ATTRIB
  8
FeatureAttribs
 70
0
  1
PNOA-H_AMS_1956-57_33k_ES_PAN_2
  2
NAME
  10
262796.586
  20
4640230.022
 40
34.35634
  0
SEQEND
  0
POLYLINE
  8
Unknown_Area_Type
  70
1
  66
1
  0
VERTEX
  8
Unknown_Area_Type
  10
263092.840
  20
4638064.347
  0
VERTEX
  8
Unknown_Area_Type
  10
263151.830
  20
4639837.294
  0
VERTEX
  8
Unknown_Area_Type
  10
263228.833
  20
4642150.664
  0
VERTEX
  8
Unknown_Area_Type
  10
263237.373
  20
4642407.103
  0
VERTEX
  8
Unknown_Area_Type
  10
262479.000
  20
4642154.500
  0
VERTEX
  8
Unknown_Area_Type
  10
262347.500
  20
4638300.000
  0
VERTEX
  8
Unknown_Area_Type
  10
263092.840
  20
4638064.347
  0
SEQEND
  8
Unknown_Area_Type
  0
INSERT
  8
FeatureAttribs
  2
FEATURE
  41
1
  42
1
  43
1
  50
0
  10
235487.346
  20
4645413.935
 66
1
  0
ATTRIB
  8
FeatureAttribs
 70
0
  1
PNOA-H_AMS_1956-57_33k_ES_PAN_2
  2
NAME
  10
235487.346
  20
4645413.935
 40
34.35634
  0
SEQEND
  0
POLYLINE
  8
Unknown_Area_Type
  70
1
  66
1
  0
VERTEX
  8
Unknown_Area_Type
  10
235744.727
  20
4647720.460
  0
VERTEX
  8
Unknown_Area_Type
  10
235659.819
  20
4645438.699
  0
VERTEX
  8
Unknown_Area_Type
  10
235573.767
  20
4643125.245
  0
VERTEX
  8
Unknown_Area_Type
  10
235570.890
  20
4643047.870
  0
VERTEX
  8
Unknown_Area_Type
  10
235315.794
  20
4643094.111
  0
VERTEX
  8
Unknown_Area_Type
  10
235315.794
  20
4647762.018
  0
VERTEX
  8
Unknown_Area_Type
  10
235452.500
  20
4647779.500
  0
VERTEX
  8
Unknown_Area_Type
  10
235456.500
  20
4647780.000
  0
VERTEX
  8
Unknown_Area_Type
  10
235744.727
  20
4647720.460
  0
SEQEND
  8
Unknown_Area_Type
  0
INSERT
  8
FeatureAttribs
  2
FEATURE
  41
1
  42
1
  43
1
  50
0
  10
236060.917
  20
4645412.862
 66
1
  0
ATTRIB
  8
FeatureAttribs
 70
0
  1
PNOA-H_AMS_1956-57_33k_ES_PAN_2
  2
NAME
  10
236060.917
  20
4645412.862
 40
34.35634
  0
SEQEND
  0
POLYLINE
  8
Unknown_Area_Type
  70
1
  66
1
  0
VERTEX
  8
Unknown_Area_Type
  10
235744.727
  20
4647720.460
  0
VERTEX
  8
Unknown_Area_Type
  10
236521.500
  20
4647560.000
  0
VERTEX
  8
Unknown_Area_Type
  10
236590.000
  20
4647531.000
  0
VERTEX
  8
Unknown_Area_Type
  10
236365.500
  20
4643307.500
  0
VERTEX
  8
Unknown_Area_Type
  10
235760.500
  20
4643013.500
  0
VERTEX
  8
Unknown_Area_Type
  10
235570.890
  20
4643047.870
  0
VERTEX
  8
Unknown_Area_Type
  10
235573.767
  20
4643125.245
  0
VERTEX
  8
Unknown_Area_Type
  10
235659.819
  20
4645438.699
  0
VERTEX
  8
Unknown_Area_Type
  10
235744.727
  20
4647720.460
  0
SEQEND
  8
Unknown_Area_Type
  0
INSERT
  8
FeatureAttribs
  2
FEATURE
  41
1
  42
1
  43
1
  50
0
  10
236060.917
  20
4645412.862
 66
1
  0
ATTRIB
  8
FeatureAttribs
 70
0
  1
PNOA-H_AMS_1956-57_33k_ES_PAN_2
  2
NAME
  10
236060.917
  20
4645412.862
 40
34.35634
  0
SEQEND
  0
POLYLINE
  8
Unknown_Area_Type
  70
1
  66
1
  0
VERTEX
  8
Unknown_Area_Type
  10
235744.727
  20
4647720.460
  0
VERTEX
  8
Unknown_Area_Type
  10
235659.819
  20
4645438.699
  0
VERTEX
  8
Unknown_Area_Type
  10
235573.767
  20
4643125.245
  0
VERTEX
  8
Unknown_Area_Type
  10
235570.890
  20
4643047.870
  0
VERTEX
  8
Unknown_Area_Type
  10
235760.500
  20
4643013.500
  0
VERTEX
  8
Unknown_Area_Type
  10
236365.500
  20
4643307.500
  0
VERTEX
  8
Unknown_Area_Type
  10
236590.000
  20
4647531.000
  0
VERTEX
  8
Unknown_Area_Type
  10
236521.500
  20
4647560.000
  0
VERTEX
  8
Unknown_Area_Type
  10
235744.727
  20
4647720.460
  0
SEQEND
  8
Unknown_Area_Type
  0
INSERT
  8
FeatureAttribs
  2
FEATURE
  41
1
  42
1
  43
1
  50
0
  10
237817.283
  20
4645351.272
 66
1
  0
ATTRIB
  8
FeatureAttribs
 70
0
  1
PNOA-H_AMS_1956-57_33k_ES_PAN_2
  2
NAME
  10
237817.283
  20
4645351.272
 40
34.35634
  0
SEQEND
  0
POLYLINE
  8
Unknown_Area_Type
  70
1
  66
1
  0
VERTEX
  8
Unknown_Area_Type
  10
236589.500
  20
4647527.500
  0
VERTEX
  8
Unknown_Area_Type
  10
236590.000
  20
4647531.000
  0
VERTEX
  8
Unknown_Area_Type
  10
236593.500
  20
4647531.500
  0
VERTEX
  8
Unknown_Area_Type
  10
238730.500
  20
4647746.500
  0
VERTEX
  8
Unknown_Area_Type
  10
238735.500
  20
4647747.000
  0
VERTEX
  8
Unknown_Area_Type
  10
238742.000
  20
4647745.500
  0
VERTEX
  8
Unknown_Area_Type
  10
239199.500
  20
4647519.500
  0
VERTEX
  8
Unknown_Area_Type
  10
239043.000
  20
4643204.000
  0
VERTEX
  8
Unknown_Area_Type
  10
239042.500
  20
4643201.000
  0
VERTEX
  8
Unknown_Area_Type
  10
239040.500
  20
4643200.000
  0
VERTEX
  8
Unknown_Area_Type
  10
238360.500
  20
4642895.500
  0
VERTEX
  8
Unknown_Area_Type
  10
236365.500
  20
4643307.500
  0
VERTEX
  8
Unknown_Area_Type
  10
236589.500
  20
4647527.500
  0
SEQEND
  8
Unknown_Area_Type
  0
INSERT
  8
FeatureAttribs
  2
FEATURE
  41
1
  42
1
  43
1
  50
0
  10
237817.283
  20
4645351.272
 66
1
  0
ATTRIB
  8
FeatureAttribs
 70
0
  1
PNOA-H_AMS_1956-57_33k_ES_PAN_2
  2
NAME
  10
237817.283
  20
4645351.272
 40
34.35634
  0
SEQEND
  0
POLYLINE
  8
Unknown_Area_Type
  70
1
  66
1
  0
VERTEX
  8
Unknown_Area_Type
  10
236589.500
  20
4647527.500
  0
VERTEX
  8
Unknown_Area_Type
  10
236365.500
  20
4643307.500
  0
VERTEX
  8
Unknown_Area_Type
  10
238360.500
  20
4642895.500
  0
VERTEX
  8
Unknown_Area_Type
  10
239040.500
  20
4643200.000
  0
VERTEX
  8
Unknown_Area_Type
  10
239042.500
  20
4643201.000
  0
VERTEX
  8
Unknown_Area_Type
  10
239043.000
  20
4643204.000
  0
VERTEX
  8
Unknown_Area_Type
  10
239199.500
  20
4647519.500
  0
VERTEX
  8
Unknown_Area_Type
  10
238742.000
  20
4647745.500
  0
VERTEX
  8
Unknown_Area_Type
  10
238735.500
  20
4647747.000
  0
VERTEX
  8
Unknown_Area_Type
  10
238730.500
  20
4647746.500
  0
VERTEX
  8
Unknown_Area_Type
  10
236593.500
  20
4647531.500
  0
VERTEX
  8
Unknown_Area_Type
  10
236590.000
  20
4647531.000
  0
VERTEX
  8
Unknown_Area_Type
  10
236589.500
  20
4647527.500
  0
SEQEND
  8
Unknown_Area_Type
  0
INSERT
  8
FeatureAttribs
  2
FEATURE
  41
1
  42
1
  43
1
  50
0
  10
243108.057
  20
4645128.636
 66
1
  0
ATTRIB
  8
FeatureAttribs
 70
0
  1
PNOA-H_AMS_1956-57_33k_ES_PAN_2
  2
NAME
  10
243108.057
  20
4645128.636
 40
34.35634
  0
SEQEND
  0
POLYLINE
  8
Unknown_Area_Type
  70
1
  66
1
  0
VERTEX
  8
Unknown_Area_Type
  10
243346.000
  20
4647415.000
  0
VERTEX
  8
Unknown_Area_Type
  10
244523.000
  20
4647365.000
  0
VERTEX
  8
Unknown_Area_Type
  10
244385.000
  20
4642958.000
  0
VERTEX
  8
Unknown_Area_Type
  10
243610.000
  20
4642629.000
  0
VERTEX
  8
Unknown_Area_Type
  10
241681.000
  20
4643084.500
  0
VERTEX
  8
Unknown_Area_Type
  10
241821.500
  20
4647480.000
  0
VERTEX
  8
Unknown_Area_Type
  10
243343.500
  20
4647415.000
  0
VERTEX
  8
Unknown_Area_Type
  10
243346.000
  20
4647415.000
  0
SEQEND
  8
Unknown_Area_Type
  0
INSERT
  8
FeatureAttribs
  2
FEATURE
  41
1
  42
1
  43
1
  50
0
  10
243108.057
  20
4645128.636
 66
1
  0
ATTRIB
  8
FeatureAttribs
 70
0
  1
PNOA-H_AMS_1956-57_33k_ES_PAN_2
  2
NAME
  10
243108.057
  20
4645128.636
 40
34.35634
  0
SEQEND
  0
POLYLINE
  8
Unknown_Area_Type
  70
1
  66
1
  0
VERTEX
  8
Unknown_Area_Type
  10
243346.000
  20
4647415.000
  0
VERTEX
  8
Unknown_Area_Type
  10
243343.500
  20
4647415.000
  0
VERTEX
  8
Unknown_Area_Type
  10
241821.500
  20
4647480.000
  0
VERTEX
  8
Unknown_Area_Type
  10
241681.000
  20
4643084.500
  0
VERTEX
  8
Unknown_Area_Type
  10
243610.000
  20
4642629.000
  0
VERTEX
  8
Unknown_Area_Type
  10
244385.000
  20
4642958.000
  0
VERTEX
  8
Unknown_Area_Type
  10
244523.000
  20
4647365.000
  0
VERTEX
  8
Unknown_Area_Type
  10
243346.000
  20
4647415.000
  0
SEQEND
  8
Unknown_Area_Type
  0
INSERT
  8
FeatureAttribs
  2
FEATURE
  41
1
  42
1
  43
1
  50
0
  10
245813.982
  20
4645000.316
 66
1
  0
ATTRIB
  8
FeatureAttribs
 70
0
  1
PNOA-H_AMS_1956-57_33k_ES_PAN_2
  2
NAME
  10
245813.982
  20
4645000.316
 40
34.35634
  0
SEQEND
  0
POLYLINE
  8
Unknown_Area_Type
  70
1
  66
1
  0
VERTEX
  8
Unknown_Area_Type
  10
245394.000
  20
4647359.500
  0
VERTEX
  8
Unknown_Area_Type
  10
247267.500
  20
4647117.500
  0
VERTEX
  8
Unknown_Area_Type
  10
247099.500
  20
4642823.000
  0
VERTEX
  8
Unknown_Area_Type
  10
246271.500
  20
4642485.000
  0
VERTEX
  8
Unknown_Area_Type
  10
244385.000
  20
4642957.500
  0
VERTEX
  8
Unknown_Area_Type
  10
244523.000
  20
4647365.000
  0
VERTEX
  8
Unknown_Area_Type
  10
244694.500
  20
4647446.500
  0
VERTEX
  8
Unknown_Area_Type
  10
244700.000
  20
4647449.000
  0
VERTEX
  8
Unknown_Area_Type
  10
244704.000
  20
4647449.000
  0
VERTEX
  8
Unknown_Area_Type
  10
245393.000
  20
4647359.500
  0
VERTEX
  8
Unknown_Area_Type
  10
245394.000
  20
4647359.500
  0
SEQEND
  8
Unknown_Area_Type
  0
INSERT
  8
FeatureAttribs
  2
FEATURE
  41
1
  42
1
  43
1
  50
0
  10
245813.982
  20
4645000.316
 66
1
  0
ATTRIB
  8
FeatureAttribs
 70
0
  1
PNOA-H_AMS_1956-57_33k_ES_PAN_2
  2
NAME
  10
245813.982
  20
4645000.316
 40
34.35634
  0
SEQEND
  0
POLYLINE
  8
Unknown_Area_Type
  70
1
  66
1
  0
VERTEX
  8
Unknown_Area_Type
  10
245394.000
  20
4647359.500
  0
VERTEX
  8
Unknown_Area_Type
  10
245393.000
  20
4647359.500
  0
VERTEX
  8
Unknown_Area_Type
  10
244704.000
  20
4647449.000
  0
VERTEX
  8
Unknown_Area_Type
  10
244700.000
  20
4647449.000
  0
VERTEX
  8
Unknown_Area_Type
  10
244694.500
  20
4647446.500
  0
VERTEX
  8
Unknown_Area_Type
  10
244523.000
  20
4647365.000
  0
VERTEX
  8
Unknown_Area_Type
  10
244385.000
  20
4642957.500
  0
VERTEX
  8
Unknown_Area_Type
  10
246271.500
  20
4642485.000
  0
VERTEX
  8
Unknown_Area_Type
  10
247099.500
  20
4642823.000
  0
VERTEX
  8
Unknown_Area_Type
  10
247267.500
  20
4647117.500
  0
VERTEX
  8
Unknown_Area_Type
  10
245394.000
  20
4647359.500
  0
SEQEND
  8
Unknown_Area_Type
  0
INSERT
  8
FeatureAttribs
  2
FEATURE
  41
1
  42
1
  43
1
  50
0
  10
251241.256
  20
4644700.573
 66
1
  0
ATTRIB
  8
FeatureAttribs
 70
0
  1
PNOA-H_AMS_1956-57_33k_ES_PAN_2
  2
NAME
  10
251241.256
  20
4644700.573
 40
34.35634
  0
SEQEND
  0
POLYLINE
  8
Unknown_Area_Type
  70
1
  66
1
  0
VERTEX
  8
Unknown_Area_Type
  10
251538.000
  20
4647003.000
  0
VERTEX
  8
Unknown_Area_Type
  10
252681.500
  20
4646694.000
  0
VERTEX
  8
Unknown_Area_Type
  10
252686.000
  20
4646692.500
  0
VERTEX
  8
Unknown_Area_Type
  10
252686.000
  20
4646680.500
  0
VERTEX
  8
Unknown_Area_Type
  10
252566.500
  20
4642656.000
  0
VERTEX
  8
Unknown_Area_Type
  10
251506.500
  20
4642232.500
  0
VERTEX
  8
Unknown_Area_Type
  10
249755.000
  20
4642701.000
  0
VERTEX
  8
Unknown_Area_Type
  10
249751.500
  20
4642702.000
  0
VERTEX
  8
Unknown_Area_Type
  10
249751.500
  20
4642704.000
  0
VERTEX
  8
Unknown_Area_Type
  10
250012.000
  20
4646930.500
  0
VERTEX
  8
Unknown_Area_Type
  10
250810.500
  20
4647200.000
  0
VERTEX
  8
Unknown_Area_Type
  10
251536.000
  20
4647003.500
  0
VERTEX
  8
Unknown_Area_Type
  10
251538.000
  20
4647003.000
  0
SEQEND
  8
Unknown_Area_Type
  0
INSERT
  8
FeatureAttribs
  2
FEATURE
  41
1
  42
1
  43
1
  50
0
  10
251241.256
  20
4644700.573
 66
1
  0
ATTRIB
  8
FeatureAttribs
 70
0
  1
PNOA-H_AMS_1956-57_33k_ES_PAN_2
  2
NAME
  10
251241.256
  20
4644700.573
 40
34.35634
  0
SEQEND
  0
POLYLINE
  8
Unknown_Area_Type
  70
1
  66
1
  0
VERTEX
  8
Unknown_Area_Type
  10
251538.000
  20
4647003.000
  0
VERTEX
  8
Unknown_Area_Type
  10
251536.000
  20
4647003.500
  0
VERTEX
  8
Unknown_Area_Type
  10
250810.500
  20
4647200.000
  0
VERTEX
  8
Unknown_Area_Type
  10
250012.000
  20
4646930.500
  0
VERTEX
  8
Unknown_Area_Type
  10
249751.500
  20
4642704.000
  0
VERTEX
  8
Unknown_Area_Type
  10
249751.500
  20
4642702.000
  0
VERTEX
  8
Unknown_Area_Type
  10
249755.000
  20
4642701.000
  0
VERTEX
  8
Unknown_Area_Type
  10
251506.500
  20
4642232.500
  0
VERTEX
  8
Unknown_Area_Type
  10
252566.500
  20
4642656.000
  0
VERTEX
  8
Unknown_Area_Type
  10
252686.000
  20
4646680.500
  0
VERTEX
  8
Unknown_Area_Type
  10
252686.000
  20
4646692.500
  0
VERTEX
  8
Unknown_Area_Type
  10
252681.500
  20
4646694.000
  0
VERTEX
  8
Unknown_Area_Type
  10
251538.000
  20
4647003.000
  0
SEQEND
  8
Unknown_Area_Type
  0
INSERT
  8
FeatureAttribs
  2
FEATURE
  41
1
  42
1
  43
1
  50
0
  10
254027.441
  20
4644598.456
 66
1
  0
ATTRIB
  8
FeatureAttribs
 70
0
  1
PNOA-H_AMS_1956-57_33k_ES_PAN_2
  2
NAME
  10
254027.441
  20
4644598.456
 40
34.35634
  0
SEQEND
  0
POLYLINE
  8
Unknown_Area_Type
  70
1
  66
1
  0
VERTEX
  8
Unknown_Area_Type
  10
253867.000
  20
4647050.500
  0
VERTEX
  8
Unknown_Area_Type
  10
253872.000
  20
4647050.000
  0
VERTEX
  8
Unknown_Area_Type
  10
253886.500
  20
4647045.500
  0
VERTEX
  8
Unknown_Area_Type
  10
255454.000
  20
4646557.500
  0
VERTEX
  8
Unknown_Area_Type
  10
255418.500
  20
4642597.000
  0
VERTEX
  8
Unknown_Area_Type
  10
254211.000
  20
4642146.000
  0
VERTEX
  8
Unknown_Area_Type
  10
252566.500
  20
4642655.500
  0
VERTEX
  8
Unknown_Area_Type
  10
252686.000
  20
4646692.500
  0
VERTEX
  8
Unknown_Area_Type
  10
253865.000
  20
4647050.000
  0
VERTEX
  8
Unknown_Area_Type
  10
253867.000
  20
4647050.500
  0
SEQEND
  8
Unknown_Area_Type
  0
INSERT
  8
FeatureAttribs
  2
FEATURE
  41
1
  42
1
  43
1
  50
0
  10
254027.441
  20
4644598.456
 66
1
  0
ATTRIB
  8
FeatureAttribs
 70
0
  1
PNOA-H_AMS_1956-57_33k_ES_PAN_2
  2
NAME
  10
254027.441
  20
4644598.456
 40
34.35634
  0
SEQEND
  0
POLYLINE
  8
Unknown_Area_Type
  70
1
  66
1
  0
VERTEX
  8
Unknown_Area_Type
  10
253867.000
  20
4647050.500
  0
VERTEX
  8
Unknown_Area_Type
  10
253865.000
  20
4647050.000
  0
VERTEX
  8
Unknown_Area_Type
  10
252686.000
  20
4646692.500
  0
VERTEX
  8
Unknown_Area_Type
  10
252566.500
  20
4642655.500
  0
VERTEX
  8
Unknown_Area_Type
  10
254211.000
  20
4642146.000
  0
VERTEX
  8
Unknown_Area_Type
  10
255418.500
  20
4642597.000
  0
VERTEX
  8
Unknown_Area_Type
  10
255454.000
  20
4646557.500
  0
VERTEX
  8
Unknown_Area_Type
  10
253886.500
  20
4647045.500
  0
VERTEX
  8
Unknown_Area_Type
  10
253872.000
  20
4647050.000
  0
VERTEX
  8
Unknown_Area_Type
  10
253867.000
  20
4647050.500
  0
SEQEND
  8
Unknown_Area_Type
  0
INSERT
  8
FeatureAttribs
  2
FEATURE
  41
1
  42
1
  43
1
  50
0
  10
240447.672
  20
4645245.732
 66
1
  0
ATTRIB
  8
FeatureAttribs
 70
0
  1
PNOA-H_AMS_1956-57_33k_ES_PAN_2
  2
NAME
  10
240447.672
  20
4645245.732
 40
34.35634
  0
SEQEND
  0
POLYLINE
  8
Unknown_Area_Type
  70
1
  66
1
  0
VERTEX
  8
Unknown_Area_Type
  10
239199.500
  20
4647519.500
  0
VERTEX
  8
Unknown_Area_Type
  10
241718.500
  20
4647538.500
  0
VERTEX
  8
Unknown_Area_Type
  10
241821.500
  20
4647480.000
  0
VERTEX
  8
Unknown_Area_Type
  10
241681.000
  20
4643084.500
  0
VERTEX
  8
Unknown_Area_Type
  10
240981.000
  20
4642776.500
  0
VERTEX
  8
Unknown_Area_Type
  10
240973.000
  20
4642774.000
  0
VERTEX
  8
Unknown_Area_Type
  10
239042.500
  20
4643201.500
  0
VERTEX
  8
Unknown_Area_Type
  10
239199.500
  20
4647510.500
  0
VERTEX
  8
Unknown_Area_Type
  10
239199.500
  20
4647519.500
  0
SEQEND
  8
Unknown_Area_Type
  0
INSERT
  8
FeatureAttribs
  2
FEATURE
  41
1
  42
1
  43
1
  50
0
  10
240447.672
  20
4645245.732
 66
1
  0
ATTRIB
  8
FeatureAttribs
 70
0
  1
PNOA-H_AMS_1956-57_33k_ES_PAN_2
  2
NAME
  10
240447.672
  20
4645245.732
 40
34.35634
  0
SEQEND
  0
POLYLINE
  8
Unknown_Area_Type
  70
1
  66
1
  0
VERTEX
  8
Unknown_Area_Type
  10
239199.500
  20
4647519.500
  0
VERTEX
  8
Unknown_Area_Type
  10
239199.500
  20
4647510.500
  0
VERTEX
  8
Unknown_Area_Type
  10
239042.500
  20
4643201.500
  0
VERTEX
  8
Unknown_Area_Type
  10
240973.000
  20
4642774.000
  0
VERTEX
  8
Unknown_Area_Type
  10
240981.000
  20
4642776.500
  0
VERTEX
  8
Unknown_Area_Type
  10
241681.000
  20
4643084.500
  0
VERTEX
  8
Unknown_Area_Type
  10
241821.500
  20
4647480.000
  0
VERTEX
  8
Unknown_Area_Type
  10
241718.500
  20
4647538.500
  0
VERTEX
  8
Unknown_Area_Type
  10
239199.500
  20
4647519.500
  0
SEQEND
  8
Unknown_Area_Type
  0
INSERT
  8
FeatureAttribs
  2
FEATURE
  41
1
  42
1
  43
1
  50
0
  10
259566.162
  20
4644543.818
 66
1
  0
ATTRIB
  8
FeatureAttribs
 70
0
  1
PNOA-H_AMS_1956-57_33k_ES_PAN_2
  2
NAME
  10
259566.162
  20
4644543.818
 40
34.35634
  0
SEQEND
  0
POLYLINE
  8
Unknown_Area_Type
  70
1
  66
1
  0
VERTEX
  8
Unknown_Area_Type
  10
259893.500
  20
4646931.000
  0
VERTEX
  8
Unknown_Area_Type
  10
259897.500
  20
4646930.500
  0
VERTEX
  8
Unknown_Area_Type
  10
259909.500
  20
4646925.500
  0
VERTEX
  8
Unknown_Area_Type
  10
260850.500
  20
4646531.000
  0
VERTEX
  8
Unknown_Area_Type
  10
261022.000
  20
4642597.500
  0
VERTEX
  8
Unknown_Area_Type
  10
259691.000
  20
4642138.500
  0
VERTEX
  8
Unknown_Area_Type
  10
258261.000
  20
4642588.000
  0
VERTEX
  8
Unknown_Area_Type
  10
258097.500
  20
4646512.000
  0
VERTEX
  8
Unknown_Area_Type
  10
259891.500
  20
4646930.500
  0
VERTEX
  8
Unknown_Area_Type
  10
259893.500
  20
4646931.000
  0
SEQEND
  8
Unknown_Area_Type
  0
INSERT
  8
FeatureAttribs
  2
FEATURE
  41
1
  42
1
  43
1
  50
0
  10
259566.162
  20
4644543.818
 66
1
  0
ATTRIB
  8
FeatureAttribs
 70
0
  1
PNOA-H_AMS_1956-57_33k_ES_PAN_2
  2
NAME
  10
259566.162
  20
4644543.818
 40
34.35634
  0
SEQEND
  0
POLYLINE
  8
Unknown_Area_Type
  70
1
  66
1
  0
VERTEX
  8
Unknown_Area_Type
  10
259893.500
  20
4646931.000
  0
VERTEX
  8
Unknown_Area_Type
  10
259891.500
  20
4646930.500
  0
VERTEX
  8
Unknown_Area_Type
  10
258097.500
  20
4646512.000
  0
VERTEX
  8
Unknown_Area_Type
  10
258261.000
  20
4642588.000
  0
VERTEX
  8
Unknown_Area_Type
  10
259691.000
  20
4642138.500
  0
VERTEX
  8
Unknown_Area_Type
  10
261022.000
  20
4642597.500
  0
VERTEX
  8
Unknown_Area_Type
  10
260850.500
  20
4646531.000
  0
VERTEX
  8
Unknown_Area_Type
  10
259909.500
  20
4646925.500
  0
VERTEX
  8
Unknown_Area_Type
  10
259897.500
  20
4646930.500
  0
VERTEX
  8
Unknown_Area_Type
  10
259893.500
  20
4646931.000
  0
SEQEND
  8
Unknown_Area_Type
  0
INSERT
  8
FeatureAttribs
  2
FEATURE
  41
1
  42
1
  43
1
  50
0
  10
263461.709
  20
4644560.151
 66
1
  0
ATTRIB
  8
FeatureAttribs
 70
0
  1
PNOA-H_AMS_1956-57_33k_ES_PAN_2
  2
NAME
  10
263461.709
  20
4644560.151
 40
34.35634
  0
SEQEND
  0
POLYLINE
  8
Unknown_Area_Type
  70
1
  66
1
  0
VERTEX
  8
Unknown_Area_Type
  10
263614.348
  20
4642532.311
  0
VERTEX
  8
Unknown_Area_Type
  10
263237.359
  20
4642406.694
  0
VERTEX
  8
Unknown_Area_Type
  10
263305.868
  20
4644464.041
  0
VERTEX
  8
Unknown_Area_Type
  10
263380.808
  20
4646713.609
  0
VERTEX
  8
Unknown_Area_Type
  10
263614.348
  20
4646599.254
  0
VERTEX
  8
Unknown_Area_Type
  10
263614.348
  20
4642532.311
  0
SEQEND
  8
Unknown_Area_Type
  0
INSERT
  8
FeatureAttribs
  2
FEATURE
  41
1
  42
1
  43
1
  50
0
  10
262151.660
  20
4644606.123
 66
1
  0
ATTRIB
  8
FeatureAttribs
 70
0
  1
PNOA-H_AMS_1956-57_33k_ES_PAN_2
  2
NAME
  10
262151.660
  20
4644606.123
 40
34.35634
  0
SEQEND
  0
POLYLINE
  8
Unknown_Area_Type
  70
1
  66
1
  0
VERTEX
  8
Unknown_Area_Type
  10
263237.359
  20
4642406.694
  0
VERTEX
  8
Unknown_Area_Type
  10
262480.500
  20
4642154.500
  0
VERTEX
  8
Unknown_Area_Type
  10
262454.500
  20
4642161.500
  0
VERTEX
  8
Unknown_Area_Type
  10
261027.000
  20
4642595.500
  0
VERTEX
  8
Unknown_Area_Type
  10
261021.500
  20
4642598.000
  0
VERTEX
  8
Unknown_Area_Type
  10
260850.500
  20
4646526.500
  0
VERTEX
  8
Unknown_Area_Type
  10
260850.500
  20
4646530.500
  0
VERTEX
  8
Unknown_Area_Type
  10
260855.500
  20
4646532.000
  0
VERTEX
  8
Unknown_Area_Type
  10
262873.500
  20
4646961.000
  0
VERTEX
  8
Unknown_Area_Type
  10
262875.500
  20
4646961.000
  0
VERTEX
  8
Unknown_Area_Type
  10
262896.000
  20
4646951.000
  0
VERTEX
  8
Unknown_Area_Type
  10
263380.808
  20
4646713.609
  0
VERTEX
  8
Unknown_Area_Type
  10
263305.868
  20
4644464.041
  0
VERTEX
  8
Unknown_Area_Type
  10
263237.359
  20
4642406.694
  0
SEQEND
  8
Unknown_Area_Type
  0
INSERT
  8
FeatureAttribs
  2
FEATURE
  41
1
  42
1
  43
1
  50
0
  10
262151.660
  20
4644606.123
 66
1
  0
ATTRIB
  8
FeatureAttribs
 70
0
  1
PNOA-H_AMS_1956-57_33k_ES_PAN_2
  2
NAME
  10
262151.660
  20
4644606.123
 40
34.35634
  0
SEQEND
  0
POLYLINE
  8
Unknown_Area_Type
  70
1
  66
1
  0
VERTEX
  8
Unknown_Area_Type
  10
263237.359
  20
4642406.694
  0
VERTEX
  8
Unknown_Area_Type
  10
263305.868
  20
4644464.041
  0
VERTEX
  8
Unknown_Area_Type
  10
263380.808
  20
4646713.609
  0
VERTEX
  8
Unknown_Area_Type
  10
262896.000
  20
4646951.000
  0
VERTEX
  8
Unknown_Area_Type
  10
262875.500
  20
4646961.000
  0
VERTEX
  8
Unknown_Area_Type
  10
262873.500
  20
4646961.000
  0
VERTEX
  8
Unknown_Area_Type
  10
260855.500
  20
4646532.000
  0
VERTEX
  8
Unknown_Area_Type
  10
260850.500
  20
4646530.500
  0
VERTEX
  8
Unknown_Area_Type
  10
260850.500
  20
4646526.500
  0
VERTEX
  8
Unknown_Area_Type
  10
261021.500
  20
4642598.000
  0
VERTEX
  8
Unknown_Area_Type
  10
261027.000
  20
4642595.500
  0
VERTEX
  8
Unknown_Area_Type
  10
262454.500
  20
4642161.500
  0
VERTEX
  8
Unknown_Area_Type
  10
262480.500
  20
4642154.500
  0
VERTEX
  8
Unknown_Area_Type
  10
263237.359
  20
4642406.694
  0
SEQEND
  8
Unknown_Area_Type
  0
INSERT
  8
FeatureAttribs
  2
FEATURE
  41
1
  42
1
  43
1
  50
0
  10
248527.265
  20
4644878.890
 66
1
  0
ATTRIB
  8
FeatureAttribs
 70
0
  1
PNOA-H_AMS_1956-57_33k_ES_PAN_2
  2
NAME
  10
248527.265
  20
4644878.890
 40
34.35634
  0
SEQEND
  0
POLYLINE
  8
Unknown_Area_Type
  70
1
  66
1
  0
VERTEX
  8
Unknown_Area_Type
  10
247440.500
  20
4647187.000
  0
VERTEX
  8
Unknown_Area_Type
  10
247815.500
  20
4647336.000
  0
VERTEX
  8
Unknown_Area_Type
  10
250012.000
  20
4646930.500
  0
VERTEX
  8
Unknown_Area_Type
  10
249751.500
  20
4642702.000
  0
VERTEX
  8
Unknown_Area_Type
  10
248900.000
  20
4642376.000
  0
VERTEX
  8
Unknown_Area_Type
  10
248886.000
  20
4642371.500
  0
VERTEX
  8
Unknown_Area_Type
  10
247099.500
  20
4642823.000
  0
VERTEX
  8
Unknown_Area_Type
  10
247267.000
  20
4647111.500
  0
VERTEX
  8
Unknown_Area_Type
  10
247268.000
  20
4647118.000
  0
VERTEX
  8
Unknown_Area_Type
  10
247439.500
  20
4647186.500
  0
VERTEX
  8
Unknown_Area_Type
  10
247440.500
  20
4647187.000
  0
SEQEND
  8
Unknown_Area_Type
  0
INSERT
  8
FeatureAttribs
  2
FEATURE
  41
1
  42
1
  43
1
  50
0
  10
248527.265
  20
4644878.890
 66
1
  0
ATTRIB
  8
FeatureAttribs
 70
0
  1
PNOA-H_AMS_1956-57_33k_ES_PAN_2
  2
NAME
  10
248527.265
  20
4644878.890
 40
34.35634
  0
SEQEND
  0
POLYLINE
  8
Unknown_Area_Type
  70
1
  66
1
  0
VERTEX
  8
Unknown_Area_Type
  10
247440.500
  20
4647187.000
  0
VERTEX
  8
Unknown_Area_Type
  10
247439.500
  20
4647186.500
  0
VERTEX
  8
Unknown_Area_Type
  10
247268.000
  20
4647118.000
  0
VERTEX
  8
Unknown_Area_Type
  10
247267.000
  20
4647111.500
  0
VERTEX
  8
Unknown_Area_Type
  10
247099.500
  20
4642823.000
  0
VERTEX
  8
Unknown_Area_Type
  10
248886.000
  20
4642371.500
  0
VERTEX
  8
Unknown_Area_Type
  10
248900.000
  20
4642376.000
  0
VERTEX
  8
Unknown_Area_Type
  10
249751.500
  20
4642702.000
  0
VERTEX
  8
Unknown_Area_Type
  10
250012.000
  20
4646930.500
  0
VERTEX
  8
Unknown_Area_Type
  10
247815.500
  20
4647336.000
  0
VERTEX
  8
Unknown_Area_Type
  10
247440.500
  20
4647187.000
  0
SEQEND
  8
Unknown_Area_Type
  0
INSERT
  8
FeatureAttribs
  2
FEATURE
  41
1
  42
1
  43
1
  50
0
  10
256809.607
  20
4644517.648
 66
1
  0
ATTRIB
  8
FeatureAttribs
 70
0
  1
PNOA-H_AMS_1956-57_33k_ES_PAN_2
  2
NAME
  10
256809.607
  20
4644517.648
 40
34.35634
  0
SEQEND
  0
POLYLINE
  8
Unknown_Area_Type
  70
1
  66
1
  0
VERTEX
  8
Unknown_Area_Type
  10
255632.500
  20
4646606.000
  0
VERTEX
  8
Unknown_Area_Type
  10
256890.000
  20
4646944.500
  0
VERTEX
  8
Unknown_Area_Type
  10
258097.500
  20
4646512.500
  0
VERTEX
  8
Unknown_Area_Type
  10
258261.000
  20
4642588.000
  0
VERTEX
  8
Unknown_Area_Type
  10
256920.000
  20
4642117.000
  0
VERTEX
  8
Unknown_Area_Type
  10
256914.500
  20
4642116.000
  0
VERTEX
  8
Unknown_Area_Type
  10
256905.000
  20
4642119.000
  0
VERTEX
  8
Unknown_Area_Type
  10
255418.500
  20
4642597.000
  0
VERTEX
  8
Unknown_Area_Type
  10
255454.000
  20
4646557.500
  0
VERTEX
  8
Unknown_Area_Type
  10
255631.000
  20
4646605.500
  0
VERTEX
  8
Unknown_Area_Type
  10
255632.500
  20
4646606.000
  0
SEQEND
  8
Unknown_Area_Type
  0
INSERT
  8
FeatureAttribs
  2
FEATURE
  41
1
  42
1
  43
1
  50
0
  10
256809.607
  20
4644517.648
 66
1
  0
ATTRIB
  8
FeatureAttribs
 70
0
  1
PNOA-H_AMS_1956-57_33k_ES_PAN_2
  2
NAME
  10
256809.607
  20
4644517.648
 40
34.35634
  0
SEQEND
  0
POLYLINE
  8
Unknown_Area_Type
  70
1
  66
1
  0
VERTEX
  8
Unknown_Area_Type
  10
255632.500
  20
4646606.000
  0
VERTEX
  8
Unknown_Area_Type
  10
255631.000
  20
4646605.500
  0
VERTEX
  8
Unknown_Area_Type
  10
255454.000
  20
4646557.500
  0
VERTEX
  8
Unknown_Area_Type
  10
255418.500
  20
4642597.000
  0
VERTEX
  8
Unknown_Area_Type
  10
256905.000
  20
4642119.000
  0
VERTEX
  8
Unknown_Area_Type
  10
256914.500
  20
4642116.000
  0
VERTEX
  8
Unknown_Area_Type
  10
256920.000
  20
4642117.000
  0
VERTEX
  8
Unknown_Area_Type
  10
258261.000
  20
4642588.000
  0
VERTEX
  8
Unknown_Area_Type
  10
258097.500
  20
4646512.500
  0
VERTEX
  8
Unknown_Area_Type
  10
256890.000
  20
4646944.500
  0
VERTEX
  8
Unknown_Area_Type
  10
255632.500
  20
4646606.000
  0
SEQEND
  8
Unknown_Area_Type
  0
INSERT
  8
FeatureAttribs
  2
FEATURE
  41
1
  42
1
  43
1
  50
0
  10
235579.922
  20
4650257.621
 66
1
  0
ATTRIB
  8
FeatureAttribs
 70
0
  1
PNOA-H_AMS_1956-57_33k_ES_PAN_2
  2
NAME
  10
235579.922
  20
4650257.621
 40
34.35634
  0
SEQEND
  0
POLYLINE
  8
Unknown_Area_Type
  70
1
  66
1
  0
VERTEX
  8
Unknown_Area_Type
  10
235933.675
  20
4652794.861
  0
VERTEX
  8
Unknown_Area_Type
  10
235918.185
  20
4652379.096
  0
VERTEX
  8
Unknown_Area_Type
  10
235832.028
  20
4650065.624
  0
VERTEX
  8
Unknown_Area_Type
  10
235745.906
  20
4647752.159
  0
VERTEX
  8
Unknown_Area_Type
  10
235744.724
  20
4647720.382
  0
VERTEX
  8
Unknown_Area_Type
  10
235456.500
  20
4647780.000
  0
VERTEX
  8
Unknown_Area_Type
  10
235315.794
  20
4650346.462
  0
VERTEX
  8
Unknown_Area_Type
  10
235315.794
  20
4652765.736
  0
VERTEX
  8
Unknown_Area_Type
  10
235933.675
  20
4652794.861
  0
SEQEND
  8
Unknown_Area_Type
  0
INSERT
  8
FeatureAttribs
  2
FEATURE
  41
1
  42
1
  43
1
  50
0
  10
236290.573
  20
4650327.465
 66
1
  0
ATTRIB
  8
FeatureAttribs
 70
0
  1
PNOA-H_AMS_1956-57_33k_ES_PAN_2
  2
NAME
  10
236290.573
  20
4650327.465
 40
34.35634
  0
SEQEND
  0
POLYLINE
  8
Unknown_Area_Type
  70
1
  66
1
  0
VERTEX
  8
Unknown_Area_Type
  10
235933.675
  20
4652794.861
  0
VERTEX
  8
Unknown_Area_Type
  10
236912.500
  20
4652841.000
  0
VERTEX
  8
Unknown_Area_Type
  10
236923.000
  20
4652841.500
  0
VERTEX
  8
Unknown_Area_Type
  10
236926.000
  20
4652841.500
  0
VERTEX
  8
Unknown_Area_Type
  10
236926.000
  20
4652838.000
  0
VERTEX
  8
Unknown_Area_Type
  10
236522.500
  20
4647559.500
  0
VERTEX
  8
Unknown_Area_Type
  10
235744.724
  20
4647720.382
  0
VERTEX
  8
Unknown_Area_Type
  10
235745.906
  20
4647752.159
  0
VERTEX
  8
Unknown_Area_Type
  10
235832.028
  20
4650065.624
  0
VERTEX
  8
Unknown_Area_Type
  10
235918.185
  20
4652379.096
  0
VERTEX
  8
Unknown_Area_Type
  10
235933.675
  20
4652794.861
  0
SEQEND
  8
Unknown_Area_Type
  0
INSERT
  8
FeatureAttribs
  2
FEATURE
  41
1
  42
1
  43
1
  50
0
  10
236290.573
  20
4650327.465
 66
1
  0
ATTRIB
  8
FeatureAttribs
 70
0
  1
PNOA-H_AMS_1956-57_33k_ES_PAN_2
  2
NAME
  10
236290.573
  20
4650327.465
 40
34.35634
  0
SEQEND
  0
POLYLINE
  8
Unknown_Area_Type
  70
1
  66
1
  0
VERTEX
  8
Unknown_Area_Type
  10
235933.675
  20
4652794.861
  0
VERTEX
  8
Unknown_Area_Type
  10
235918.185
  20
4652379.096
  0
VERTEX
  8
Unknown_Area_Type
  10
235832.028
  20
4650065.624
  0
VERTEX
  8
Unknown_Area_Type
  10
235745.906
  20
4647752.159
  0
VERTEX
  8
Unknown_Area_Type
  10
235744.724
  20
4647720.382
  0
VERTEX
  8
Unknown_Area_Type
  10
236522.500
  20
4647559.500
  0
VERTEX
  8
Unknown_Area_Type
  10
236926.000
  20
4652838.000
  0
VERTEX
  8
Unknown_Area_Type
  10
236926.000
  20
4652841.500
  0
VERTEX
  8
Unknown_Area_Type
  10
236923.000
  20
4652841.500
  0
VERTEX
  8
Unknown_Area_Type
  10
236912.500
  20
4652841.000
  0
VERTEX
  8
Unknown_Area_Type
  10
235933.675
  20
4652794.861
  0
SEQEND
  8
Unknown_Area_Type
  0
ENDSEC
  0
EOF
