  0
SECTION
  2
HEADER
  9
$ACADVER
  1
AC1009
  9
$LUNITS
  70
2
  9
$LIMMIN
  10
207632.704
  20
4636184.899
  9
$LIMMAX
  10
236004.405
  20
4655775.407
  9
$EXTMIN
  10
207632.704
  20
4636184.899
  9
$EXTMAX
  10
236004.405
  20
4655775.407
  999
Created by Global Mapper
  999
Projection: UTM
  999
Datum: ETRS89
  999
Ground Units: meters
  999
ZONE: 30
  0
ENDSEC
  0
SECTION
  2
TABLES
  0
ENDSEC
  0
SECTION
  2
BLOCKS
  0
BLOCK
  8
FeatureAttribs
  70
0
  2
FEATURE
  3
FEATURE
  10
0.00000000
  20
0.00000000
  0
ATTDEF
  8
FeatureAttribs
  70
0
  1
 
  2
NAME
  3
NAME
  10
0.00000000
  20
0.00000000
  40
1.00000000
  0
ENDBLK
  0
ENDSEC
  0
SECTION
  2
ENTITIES
  0
INSERT
  8
FeatureAttribs
  2
FEATURE
  41
1
  42
1
  43
1
  50
0
  10
207808.435
  20
4654805.280
 66
1
  0
ATTRIB
  8
FeatureAttribs
 70
0
  1
PNOA-H_AMS_1956-57_33k_ES_PAN_2
  2
NAME
  10
207808.435
  20
4654805.280
 40
34.47813
  0
SEQEND
  0
POLYLINE
  8
Unknown_Area_Type
  70
1
  66
1
  0
VERTEX
  8
Unknown_Area_Type
  10
207981.285
  20
4655775.407
  0
VERTEX
  8
Unknown_Area_Type
  10
207986.500
  20
4654019.500
  0
VERTEX
  8
Unknown_Area_Type
  10
207632.704
  20
4653835.154
  0
VERTEX
  8
Unknown_Area_Type
  10
207632.704
  20
4655775.407
  0
VERTEX
  8
Unknown_Area_Type
  10
207981.285
  20
4655775.407
  0
SEQEND
  8
Unknown_Area_Type
  0
INSERT
  8
FeatureAttribs
  2
FEATURE
  41
1
  42
1
  43
1
  50
0
  10
232870.019
  20
4653895.845
 66
1
  0
ATTRIB
  8
FeatureAttribs
 70
0
  1
PNOA-H_AMS_1956-57_33k_ES_PAN_2
  2
NAME
  10
232870.019
  20
4653895.845
 40
34.47813
  0
SEQEND
  0
POLYLINE
  8
Unknown_Area_Type
  70
1
  66
1
  0
VERTEX
  8
Unknown_Area_Type
  10
234430.977
  20
4654751.588
  0
VERTEX
  8
Unknown_Area_Type
  10
234326.500
  20
4653036.500
  0
VERTEX
  8
Unknown_Area_Type
  10
232217.500
  20
4652879.500
  0
VERTEX
  8
Unknown_Area_Type
  10
231999.000
  20
4652934.500
  0
VERTEX
  8
Unknown_Area_Type
  10
231332.500
  20
4653268.500
  0
VERTEX
  8
Unknown_Area_Type
  10
231427.279
  20
4654864.800
  0
VERTEX
  8
Unknown_Area_Type
  10
232553.070
  20
4654822.025
  0
VERTEX
  8
Unknown_Area_Type
  10
234430.977
  20
4654751.588
  0
SEQEND
  8
Unknown_Area_Type
  0
INSERT
  8
FeatureAttribs
  2
FEATURE
  41
1
  42
1
  43
1
  50
0
  10
232870.019
  20
4653895.845
 66
1
  0
ATTRIB
  8
FeatureAttribs
 70
0
  1
PNOA-H_AMS_1956-57_33k_ES_PAN_2
  2
NAME
  10
232870.019
  20
4653895.845
 40
34.47813
  0
SEQEND
  0
POLYLINE
  8
Unknown_Area_Type
  70
1
  66
1
  0
VERTEX
  8
Unknown_Area_Type
  10
234430.977
  20
4654751.588
  0
VERTEX
  8
Unknown_Area_Type
  10
232553.070
  20
4654822.025
  0
VERTEX
  8
Unknown_Area_Type
  10
231427.279
  20
4654864.800
  0
VERTEX
  8
Unknown_Area_Type
  10
231332.500
  20
4653268.500
  0
VERTEX
  8
Unknown_Area_Type
  10
231999.000
  20
4652934.500
  0
VERTEX
  8
Unknown_Area_Type
  10
232217.500
  20
4652879.500
  0
VERTEX
  8
Unknown_Area_Type
  10
234326.500
  20
4653036.500
  0
VERTEX
  8
Unknown_Area_Type
  10
234430.977
  20
4654751.588
  0
SEQEND
  8
Unknown_Area_Type
  0
INSERT
  8
FeatureAttribs
  2
FEATURE
  41
1
  42
1
  43
1
  50
0
  10
226890.788
  20
4654188.647
 66
1
  0
ATTRIB
  8
FeatureAttribs
 70
0
  1
PNOA-H_AMS_1956-57_33k_ES_PAN_2
  2
NAME
  10
226890.788
  20
4654188.647
 40
34.47813
  0
SEQEND
  0
POLYLINE
  8
Unknown_Area_Type
  70
1
  66
1
  0
VERTEX
  8
Unknown_Area_Type
  10
228413.497
  20
4654979.649
  0
VERTEX
  8
Unknown_Area_Type
  10
228335.000
  20
4653472.500
  0
VERTEX
  8
Unknown_Area_Type
  10
228334.000
  20
4653468.500
  0
VERTEX
  8
Unknown_Area_Type
  10
226622.500
  20
4653160.000
  0
VERTEX
  8
Unknown_Area_Type
  10
225398.000
  20
4653614.500
  0
VERTEX
  8
Unknown_Area_Type
  10
225450.343
  20
4655093.782
  0
VERTEX
  8
Unknown_Area_Type
  10
225650.411
  20
4655085.985
  0
VERTEX
  8
Unknown_Area_Type
  10
228413.497
  20
4654979.649
  0
SEQEND
  8
Unknown_Area_Type
  0
INSERT
  8
FeatureAttribs
  2
FEATURE
  41
1
  42
1
  43
1
  50
0
  10
226890.788
  20
4654188.647
 66
1
  0
ATTRIB
  8
FeatureAttribs
 70
0
  1
PNOA-H_AMS_1956-57_33k_ES_PAN_2
  2
NAME
  10
226890.788
  20
4654188.647
 40
34.47813
  0
SEQEND
  0
POLYLINE
  8
Unknown_Area_Type
  70
1
  66
1
  0
VERTEX
  8
Unknown_Area_Type
  10
228413.497
  20
4654979.649
  0
VERTEX
  8
Unknown_Area_Type
  10
225650.411
  20
4655085.985
  0
VERTEX
  8
Unknown_Area_Type
  10
225450.343
  20
4655093.782
  0
VERTEX
  8
Unknown_Area_Type
  10
225398.000
  20
4653614.500
  0
VERTEX
  8
Unknown_Area_Type
  10
226622.500
  20
4653160.000
  0
VERTEX
  8
Unknown_Area_Type
  10
228334.000
  20
4653468.500
  0
VERTEX
  8
Unknown_Area_Type
  10
228335.000
  20
4653472.500
  0
VERTEX
  8
Unknown_Area_Type
  10
228413.497
  20
4654979.649
  0
SEQEND
  8
Unknown_Area_Type
  0
INSERT
  8
FeatureAttribs
  2
FEATURE
  41
1
  42
1
  43
1
  50
0
  10
212367.536
  20
4654725.894
 66
1
  0
ATTRIB
  8
FeatureAttribs
 70
0
  1
PNOA-H_AMS_1956-57_33k_ES_PAN_2
  2
NAME
  10
212367.536
  20
4654725.894
 40
34.47813
  0
SEQEND
  0
POLYLINE
  8
Unknown_Area_Type
  70
1
  66
1
  0
VERTEX
  8
Unknown_Area_Type
  10
213830.459
  20
4655553.843
  0
VERTEX
  8
Unknown_Area_Type
  10
213810.500
  20
4653972.000
  0
VERTEX
  8
Unknown_Area_Type
  10
213062.500
  20
4653671.000
  0
VERTEX
  8
Unknown_Area_Type
  10
210888.500
  20
4654026.500
  0
VERTEX
  8
Unknown_Area_Type
  10
210893.995
  20
4655673.052
  0
VERTEX
  8
Unknown_Area_Type
  10
211844.910
  20
4655634.134
  0
VERTEX
  8
Unknown_Area_Type
  10
213830.459
  20
4655553.843
  0
SEQEND
  8
Unknown_Area_Type
  0
INSERT
  8
FeatureAttribs
  2
FEATURE
  41
1
  42
1
  43
1
  50
0
  10
212367.536
  20
4654725.894
 66
1
  0
ATTRIB
  8
FeatureAttribs
 70
0
  1
PNOA-H_AMS_1956-57_33k_ES_PAN_2
  2
NAME
  10
212367.536
  20
4654725.894
 40
34.47813
  0
SEQEND
  0
POLYLINE
  8
Unknown_Area_Type
  70
1
  66
1
  0
VERTEX
  8
Unknown_Area_Type
  10
213830.459
  20
4655553.843
  0
VERTEX
  8
Unknown_Area_Type
  10
211844.910
  20
4655634.134
  0
VERTEX
  8
Unknown_Area_Type
  10
210893.995
  20
4655673.052
  0
VERTEX
  8
Unknown_Area_Type
  10
210888.500
  20
4654026.500
  0
VERTEX
  8
Unknown_Area_Type
  10
213062.500
  20
4653671.000
  0
VERTEX
  8
Unknown_Area_Type
  10
213810.500
  20
4653972.000
  0
VERTEX
  8
Unknown_Area_Type
  10
213830.459
  20
4655553.843
  0
SEQEND
  8
Unknown_Area_Type
  0
INSERT
  8
FeatureAttribs
  2
FEATURE
  41
1
  42
1
  43
1
  50
0
  10
221023.447
  20
4654410.275
 66
1
  0
ATTRIB
  8
FeatureAttribs
 70
0
  1
PNOA-H_AMS_1956-57_33k_ES_PAN_2
  2
NAME
  10
221023.447
  20
4654410.275
 40
34.47813
  0
SEQEND
  0
POLYLINE
  8
Unknown_Area_Type
  70
1
  66
1
  0
VERTEX
  8
Unknown_Area_Type
  10
222505.858
  20
4655208.536
  0
VERTEX
  8
Unknown_Area_Type
  10
222460.000
  20
4653714.000
  0
VERTEX
  8
Unknown_Area_Type
  10
221162.000
  20
4653355.500
  0
VERTEX
  8
Unknown_Area_Type
  10
219545.000
  20
4653808.500
  0
VERTEX
  8
Unknown_Area_Type
  10
219579.045
  20
4655323.881
  0
VERTEX
  8
Unknown_Area_Type
  10
222199.059
  20
4655220.493
  0
VERTEX
  8
Unknown_Area_Type
  10
222505.858
  20
4655208.536
  0
SEQEND
  8
Unknown_Area_Type
  0
INSERT
  8
FeatureAttribs
  2
FEATURE
  41
1
  42
1
  43
1
  50
0
  10
221023.447
  20
4654410.275
 66
1
  0
ATTRIB
  8
FeatureAttribs
 70
0
  1
PNOA-H_AMS_1956-57_33k_ES_PAN_2
  2
NAME
  10
221023.447
  20
4654410.275
 40
34.47813
  0
SEQEND
  0
POLYLINE
  8
Unknown_Area_Type
  70
1
  66
1
  0
VERTEX
  8
Unknown_Area_Type
  10
222505.858
  20
4655208.536
  0
VERTEX
  8
Unknown_Area_Type
  10
222199.059
  20
4655220.493
  0
VERTEX
  8
Unknown_Area_Type
  10
219579.045
  20
4655323.881
  0
VERTEX
  8
Unknown_Area_Type
  10
219545.000
  20
4653808.500
  0
VERTEX
  8
Unknown_Area_Type
  10
221162.000
  20
4653355.500
  0
VERTEX
  8
Unknown_Area_Type
  10
222460.000
  20
4653714.000
  0
VERTEX
  8
Unknown_Area_Type
  10
222505.858
  20
4655208.536
  0
SEQEND
  8
Unknown_Area_Type
  0
INSERT
  8
FeatureAttribs
  2
FEATURE
  41
1
  42
1
  43
1
  50
0
  10
218125.183
  20
4654518.134
 66
1
  0
ATTRIB
  8
FeatureAttribs
 70
0
  1
PNOA-H_AMS_1956-57_33k_ES_PAN_2
  2
NAME
  10
218125.183
  20
4654518.134
 40
34.47813
  0
SEQEND
  0
POLYLINE
  8
Unknown_Area_Type
  70
1
  66
1
  0
VERTEX
  8
Unknown_Area_Type
  10
219579.049
  20
4655323.881
  0
VERTEX
  8
Unknown_Area_Type
  10
219545.000
  20
4653808.500
  0
VERTEX
  8
Unknown_Area_Type
  10
218500.500
  20
4653469.500
  0
VERTEX
  8
Unknown_Area_Type
  10
216660.500
  20
4653878.500
  0
VERTEX
  8
Unknown_Area_Type
  10
216692.147
  20
4655438.805
  0
VERTEX
  8
Unknown_Area_Type
  10
218747.692
  20
4655356.687
  0
VERTEX
  8
Unknown_Area_Type
  10
219579.049
  20
4655323.881
  0
SEQEND
  8
Unknown_Area_Type
  0
INSERT
  8
FeatureAttribs
  2
FEATURE
  41
1
  42
1
  43
1
  50
0
  10
218125.183
  20
4654518.134
 66
1
  0
ATTRIB
  8
FeatureAttribs
 70
0
  1
PNOA-H_AMS_1956-57_33k_ES_PAN_2
  2
NAME
  10
218125.183
  20
4654518.134
 40
34.47813
  0
SEQEND
  0
POLYLINE
  8
Unknown_Area_Type
  70
1
  66
1
  0
VERTEX
  8
Unknown_Area_Type
  10
219579.049
  20
4655323.881
  0
VERTEX
  8
Unknown_Area_Type
  10
218747.692
  20
4655356.687
  0
VERTEX
  8
Unknown_Area_Type
  10
216692.147
  20
4655438.805
  0
VERTEX
  8
Unknown_Area_Type
  10
216660.500
  20
4653878.500
  0
VERTEX
  8
Unknown_Area_Type
  10
218500.500
  20
4653469.500
  0
VERTEX
  8
Unknown_Area_Type
  10
219545.000
  20
4653808.500
  0
VERTEX
  8
Unknown_Area_Type
  10
219579.049
  20
4655323.881
  0
SEQEND
  8
Unknown_Area_Type
  0
INSERT
  8
FeatureAttribs
  2
FEATURE
  41
1
  42
1
  43
1
  50
0
  10
215263.140
  20
4654618.896
 66
1
  0
ATTRIB
  8
FeatureAttribs
 70
0
  1
PNOA-H_AMS_1956-57_33k_ES_PAN_2
  2
NAME
  10
215263.140
  20
4654618.896
 40
34.47813
  0
SEQEND
  0
POLYLINE
  8
Unknown_Area_Type
  70
1
  66
1
  0
VERTEX
  8
Unknown_Area_Type
  10
216692.139
  20
4655438.805
  0
VERTEX
  8
Unknown_Area_Type
  10
216660.500
  20
4653878.500
  0
VERTEX
  8
Unknown_Area_Type
  10
215798.500
  20
4653552.500
  0
VERTEX
  8
Unknown_Area_Type
  10
215792.000
  20
4653551.500
  0
VERTEX
  8
Unknown_Area_Type
  10
213810.500
  20
4653972.000
  0
VERTEX
  8
Unknown_Area_Type
  10
213830.462
  20
4655553.843
  0
VERTEX
  8
Unknown_Area_Type
  10
215296.309
  20
4655494.568
  0
VERTEX
  8
Unknown_Area_Type
  10
216692.139
  20
4655438.805
  0
SEQEND
  8
Unknown_Area_Type
  0
INSERT
  8
FeatureAttribs
  2
FEATURE
  41
1
  42
1
  43
1
  50
0
  10
215263.140
  20
4654618.896
 66
1
  0
ATTRIB
  8
FeatureAttribs
 70
0
  1
PNOA-H_AMS_1956-57_33k_ES_PAN_2
  2
NAME
  10
215263.140
  20
4654618.896
 40
34.47813
  0
SEQEND
  0
POLYLINE
  8
Unknown_Area_Type
  70
1
  66
1
  0
VERTEX
  8
Unknown_Area_Type
  10
216692.139
  20
4655438.805
  0
VERTEX
  8
Unknown_Area_Type
  10
215296.309
  20
4655494.568
  0
VERTEX
  8
Unknown_Area_Type
  10
213830.462
  20
4655553.843
  0
VERTEX
  8
Unknown_Area_Type
  10
213810.500
  20
4653972.000
  0
VERTEX
  8
Unknown_Area_Type
  10
215792.000
  20
4653551.500
  0
VERTEX
  8
Unknown_Area_Type
  10
215798.500
  20
4653552.500
  0
VERTEX
  8
Unknown_Area_Type
  10
216660.500
  20
4653878.500
  0
VERTEX
  8
Unknown_Area_Type
  10
216692.139
  20
4655438.805
  0
SEQEND
  8
Unknown_Area_Type
  0
INSERT
  8
FeatureAttribs
  2
FEATURE
  41
1
  42
1
  43
1
  50
0
  10
208170.280
  20
4654879.406
 66
1
  0
ATTRIB
  8
FeatureAttribs
 70
0
  1
PNOA-H_AMS_1956-57_33k_ES_PAN_2
  2
NAME
  10
208170.280
  20
4654879.406
 40
34.47813
  0
SEQEND
  0
POLYLINE
  8
Unknown_Area_Type
  70
1
  66
1
  0
VERTEX
  8
Unknown_Area_Type
  10
208319.733
  20
4653983.404
  0
VERTEX
  8
Unknown_Area_Type
  10
207986.500
  20
4654019.500
  0
VERTEX
  8
Unknown_Area_Type
  10
207981.284
  20
4655775.407
  0
VERTEX
  8
Unknown_Area_Type
  10
208393.022
  20
4655775.407
  0
VERTEX
  8
Unknown_Area_Type
  10
208393.495
  20
4655775.387
  0
VERTEX
  8
Unknown_Area_Type
  10
208319.733
  20
4653983.404
  0
SEQEND
  8
Unknown_Area_Type
  0
INSERT
  8
FeatureAttribs
  2
FEATURE
  41
1
  42
1
  43
1
  50
0
  10
209623.214
  20
4654795.765
 66
1
  0
ATTRIB
  8
FeatureAttribs
 70
0
  1
PNOA-H_AMS_1956-57_33k_ES_PAN_2
  2
NAME
  10
209623.214
  20
4654795.765
 40
34.47813
  0
SEQEND
  0
POLYLINE
  8
Unknown_Area_Type
  70
1
  66
1
  0
VERTEX
  8
Unknown_Area_Type
  10
210893.995
  20
4655673.052
  0
VERTEX
  8
Unknown_Area_Type
  10
210888.500
  20
4654026.500
  0
VERTEX
  8
Unknown_Area_Type
  10
210354.500
  20
4653763.000
  0
VERTEX
  8
Unknown_Area_Type
  10
208319.733
  20
4653983.404
  0
VERTEX
  8
Unknown_Area_Type
  10
208393.495
  20
4655775.387
  0
VERTEX
  8
Unknown_Area_Type
  10
210893.995
  20
4655673.052
  0
SEQEND
  8
Unknown_Area_Type
  0
INSERT
  8
FeatureAttribs
  2
FEATURE
  41
1
  42
1
  43
1
  50
0
  10
209623.214
  20
4654795.765
 66
1
  0
ATTRIB
  8
FeatureAttribs
 70
0
  1
PNOA-H_AMS_1956-57_33k_ES_PAN_2
  2
NAME
  10
209623.214
  20
4654795.765
 40
34.47813
  0
SEQEND
  0
POLYLINE
  8
Unknown_Area_Type
  70
1
  66
1
  0
VERTEX
  8
Unknown_Area_Type
  10
210893.995
  20
4655673.052
  0
VERTEX
  8
Unknown_Area_Type
  10
208393.495
  20
4655775.387
  0
VERTEX
  8
Unknown_Area_Type
  10
208319.733
  20
4653983.404
  0
VERTEX
  8
Unknown_Area_Type
  10
210354.500
  20
4653763.000
  0
VERTEX
  8
Unknown_Area_Type
  10
210888.500
  20
4654026.500
  0
VERTEX
  8
Unknown_Area_Type
  10
210893.995
  20
4655673.052
  0
SEQEND
  8
Unknown_Area_Type
  0
INSERT
  8
FeatureAttribs
  2
FEATURE
  41
1
  42
1
  43
1
  50
0
  10
223945.525
  20
4654300.164
 66
1
  0
ATTRIB
  8
FeatureAttribs
 70
0
  1
PNOA-H_AMS_1956-57_33k_ES_PAN_2
  2
NAME
  10
223945.525
  20
4654300.164
 40
34.47813
  0
SEQEND
  0
POLYLINE
  8
Unknown_Area_Type
  70
1
  66
1
  0
VERTEX
  8
Unknown_Area_Type
  10
225450.343
  20
4655093.782
  0
VERTEX
  8
Unknown_Area_Type
  10
225398.000
  20
4653614.500
  0
VERTEX
  8
Unknown_Area_Type
  10
223860.500
  20
4653251.000
  0
VERTEX
  8
Unknown_Area_Type
  10
222460.000
  20
4653713.500
  0
VERTEX
  8
Unknown_Area_Type
  10
222505.868
  20
4655208.536
  0
VERTEX
  8
Unknown_Area_Type
  10
225450.343
  20
4655093.782
  0
SEQEND
  8
Unknown_Area_Type
  0
INSERT
  8
FeatureAttribs
  2
FEATURE
  41
1
  42
1
  43
1
  50
0
  10
223945.525
  20
4654300.164
 66
1
  0
ATTRIB
  8
FeatureAttribs
 70
0
  1
PNOA-H_AMS_1956-57_33k_ES_PAN_2
  2
NAME
  10
223945.525
  20
4654300.164
 40
34.47813
  0
SEQEND
  0
POLYLINE
  8
Unknown_Area_Type
  70
1
  66
1
  0
VERTEX
  8
Unknown_Area_Type
  10
225450.343
  20
4655093.782
  0
VERTEX
  8
Unknown_Area_Type
  10
222505.868
  20
4655208.536
  0
VERTEX
  8
Unknown_Area_Type
  10
222460.000
  20
4653713.500
  0
VERTEX
  8
Unknown_Area_Type
  10
223860.500
  20
4653251.000
  0
VERTEX
  8
Unknown_Area_Type
  10
225398.000
  20
4653614.500
  0
VERTEX
  8
Unknown_Area_Type
  10
225450.343
  20
4655093.782
  0
SEQEND
  8
Unknown_Area_Type
  0
INSERT
  8
FeatureAttribs
  2
FEATURE
  41
1
  42
1
  43
1
  50
0
  10
229867.153
  20
4654047.888
 66
1
  0
ATTRIB
  8
FeatureAttribs
 70
0
  1
PNOA-H_AMS_1956-57_33k_ES_PAN_2
  2
NAME
  10
229867.153
  20
4654047.888
 40
34.47813
  0
SEQEND
  0
POLYLINE
  8
Unknown_Area_Type
  70
1
  66
1
  0
VERTEX
  8
Unknown_Area_Type
  10
231427.113
  20
4654864.807
  0
VERTEX
  8
Unknown_Area_Type
  10
231332.000
  20
4653268.500
  0
VERTEX
  8
Unknown_Area_Type
  10
229358.500
  20
4653018.500
  0
VERTEX
  8
Unknown_Area_Type
  10
228334.500
  20
4653469.000
  0
VERTEX
  8
Unknown_Area_Type
  10
228413.151
  20
4654979.662
  0
VERTEX
  8
Unknown_Area_Type
  10
229101.748
  20
4654953.162
  0
VERTEX
  8
Unknown_Area_Type
  10
231427.113
  20
4654864.807
  0
SEQEND
  8
Unknown_Area_Type
  0
INSERT
  8
FeatureAttribs
  2
FEATURE
  41
1
  42
1
  43
1
  50
0
  10
229867.153
  20
4654047.888
 66
1
  0
ATTRIB
  8
FeatureAttribs
 70
0
  1
PNOA-H_AMS_1956-57_33k_ES_PAN_2
  2
NAME
  10
229867.153
  20
4654047.888
 40
34.47813
  0
SEQEND
  0
POLYLINE
  8
Unknown_Area_Type
  70
1
  66
1
  0
VERTEX
  8
Unknown_Area_Type
  10
231427.113
  20
4654864.807
  0
VERTEX
  8
Unknown_Area_Type
  10
229101.748
  20
4654953.162
  0
VERTEX
  8
Unknown_Area_Type
  10
228413.151
  20
4654979.662
  0
VERTEX
  8
Unknown_Area_Type
  10
228334.500
  20
4653469.000
  0
VERTEX
  8
Unknown_Area_Type
  10
229358.500
  20
4653018.500
  0
VERTEX
  8
Unknown_Area_Type
  10
231332.000
  20
4653268.500
  0
VERTEX
  8
Unknown_Area_Type
  10
231427.113
  20
4654864.807
  0
SEQEND
  8
Unknown_Area_Type
  0
INSERT
  8
FeatureAttribs
  2
FEATURE
  41
1
  42
1
  43
1
  50
0
  10
235986.714
  20
4653743.623
 66
1
  0
ATTRIB
  8
FeatureAttribs
 70
0
  1
PNOA-H_AMS_1956-57_33k_ES_PAN_2
  2
NAME
  10
235986.714
  20
4653743.623
 40
34.47813
  0
SEQEND
  0
POLYLINE
  8
Unknown_Area_Type
  70
1
  66
1
  0
VERTEX
  8
Unknown_Area_Type
  10
236004.405
  20
4652797.986
  0
VERTEX
  8
Unknown_Area_Type
  10
235933.668
  20
4652794.674
  0
VERTEX
  8
Unknown_Area_Type
  10
236004.377
  20
4654692.573
  0
VERTEX
  8
Unknown_Area_Type
  10
236004.405
  20
4654692.572
  0
VERTEX
  8
Unknown_Area_Type
  10
236004.405
  20
4652797.986
  0
SEQEND
  8
Unknown_Area_Type
  0
INSERT
  8
FeatureAttribs
  2
FEATURE
  41
1
  42
1
  43
1
  50
0
  10
235183.807
  20
4653773.678
 66
1
  0
ATTRIB
  8
FeatureAttribs
 70
0
  1
PNOA-H_AMS_1956-57_33k_ES_PAN_2
  2
NAME
  10
235183.807
  20
4653773.678
 40
34.47813
  0
SEQEND
  0
POLYLINE
  8
Unknown_Area_Type
  70
1
  66
1
  0
VERTEX
  8
Unknown_Area_Type
  10
235933.668
  20
4652794.674
  0
VERTEX
  8
Unknown_Area_Type
  10
235182.500
  20
4652759.500
  0
VERTEX
  8
Unknown_Area_Type
  10
234409.500
  20
4652991.000
  0
VERTEX
  8
Unknown_Area_Type
  10
234326.500
  20
4653036.000
  0
VERTEX
  8
Unknown_Area_Type
  10
234430.996
  20
4654751.587
  0
VERTEX
  8
Unknown_Area_Type
  10
236004.377
  20
4654692.573
  0
VERTEX
  8
Unknown_Area_Type
  10
235933.668
  20
4652794.674
  0
SEQEND
  8
Unknown_Area_Type
  0
INSERT
  8
FeatureAttribs
  2
FEATURE
  41
1
  42
1
  43
1
  50
0
  10
235183.807
  20
4653773.678
 66
1
  0
ATTRIB
  8
FeatureAttribs
 70
0
  1
PNOA-H_AMS_1956-57_33k_ES_PAN_2
  2
NAME
  10
235183.807
  20
4653773.678
 40
34.47813
  0
SEQEND
  0
POLYLINE
  8
Unknown_Area_Type
  70
1
  66
1
  0
VERTEX
  8
Unknown_Area_Type
  10
235933.668
  20
4652794.674
  0
VERTEX
  8
Unknown_Area_Type
  10
236004.377
  20
4654692.573
  0
VERTEX
  8
Unknown_Area_Type
  10
234430.996
  20
4654751.587
  0
VERTEX
  8
Unknown_Area_Type
  10
234326.500
  20
4653036.000
  0
VERTEX
  8
Unknown_Area_Type
  10
234409.500
  20
4652991.000
  0
VERTEX
  8
Unknown_Area_Type
  10
235182.500
  20
4652759.500
  0
VERTEX
  8
Unknown_Area_Type
  10
235933.668
  20
4652794.674
  0
SEQEND
  8
Unknown_Area_Type
  0
INSERT
  8
FeatureAttribs
  2
FEATURE
  41
1
  42
1
  43
1
  50
0
  10
213919.829
  20
4649892.799
 66
1
  0
ATTRIB
  8
FeatureAttribs
 70
0
  1
PNOA-H_AMS_1956-57_33k_ES_PAN_2
  2
NAME
  10
213919.829
  20
4649892.799
 40
34.47813
  0
SEQEND
  0
POLYLINE
  8
Unknown_Area_Type
  70
1
  66
1
  0
VERTEX
  8
Unknown_Area_Type
  10
214674.000
  20
4650917.000
  0
VERTEX
  8
Unknown_Area_Type
  10
215485.000
  20
4650611.000
  0
VERTEX
  8
Unknown_Area_Type
  10
215493.000
  20
4648759.000
  0
VERTEX
  8
Unknown_Area_Type
  10
213108.000
  20
4648634.000
  0
VERTEX
  8
Unknown_Area_Type
  10
212208.500
  20
4649195.000
  0
VERTEX
  8
Unknown_Area_Type
  10
212971.500
  20
4651559.000
  0
VERTEX
  8
Unknown_Area_Type
  10
212973.500
  20
4651559.500
  0
VERTEX
  8
Unknown_Area_Type
  10
212991.000
  20
4651553.000
  0
VERTEX
  8
Unknown_Area_Type
  10
214672.000
  20
4650917.500
  0
VERTEX
  8
Unknown_Area_Type
  10
214674.000
  20
4650917.000
  0
SEQEND
  8
Unknown_Area_Type
  0
INSERT
  8
FeatureAttribs
  2
FEATURE
  41
1
  42
1
  43
1
  50
0
  10
213919.829
  20
4649892.799
 66
1
  0
ATTRIB
  8
FeatureAttribs
 70
0
  1
PNOA-H_AMS_1956-57_33k_ES_PAN_2
  2
NAME
  10
213919.829
  20
4649892.799
 40
34.47813
  0
SEQEND
  0
POLYLINE
  8
Unknown_Area_Type
  70
1
  66
1
  0
VERTEX
  8
Unknown_Area_Type
  10
214674.000
  20
4650917.000
  0
VERTEX
  8
Unknown_Area_Type
  10
214672.000
  20
4650917.500
  0
VERTEX
  8
Unknown_Area_Type
  10
212991.000
  20
4651553.000
  0
VERTEX
  8
Unknown_Area_Type
  10
212973.500
  20
4651559.500
  0
VERTEX
  8
Unknown_Area_Type
  10
212971.500
  20
4651559.000
  0
VERTEX
  8
Unknown_Area_Type
  10
212208.500
  20
4649195.000
  0
VERTEX
  8
Unknown_Area_Type
  10
213108.000
  20
4648634.000
  0
VERTEX
  8
Unknown_Area_Type
  10
215493.000
  20
4648759.000
  0
VERTEX
  8
Unknown_Area_Type
  10
215485.000
  20
4650611.000
  0
VERTEX
  8
Unknown_Area_Type
  10
214674.000
  20
4650917.000
  0
SEQEND
  8
Unknown_Area_Type
  0
INSERT
  8
FeatureAttribs
  2
FEATURE
  41
1
  42
1
  43
1
  50
0
  10
216856.794
  20
4649830.957
 66
1
  0
ATTRIB
  8
FeatureAttribs
 70
0
  1
PNOA-H_AMS_1956-57_33k_ES_PAN_2
  2
NAME
  10
216856.794
  20
4649830.957
 40
34.47813
  0
SEQEND
  0
POLYLINE
  8
Unknown_Area_Type
  70
1
  66
1
  0
VERTEX
  8
Unknown_Area_Type
  10
215689.000
  20
4651445.000
  0
VERTEX
  8
Unknown_Area_Type
  10
218369.500
  20
4650634.500
  0
VERTEX
  8
Unknown_Area_Type
  10
218384.000
  20
4650530.500
  0
VERTEX
  8
Unknown_Area_Type
  10
218384.000
  20
4650522.500
  0
VERTEX
  8
Unknown_Area_Type
  10
218306.500
  20
4648576.000
  0
VERTEX
  8
Unknown_Area_Type
  10
215767.500
  20
4648584.000
  0
VERTEX
  8
Unknown_Area_Type
  10
215493.000
  20
4648759.000
  0
VERTEX
  8
Unknown_Area_Type
  10
215485.000
  20
4650613.000
  0
VERTEX
  8
Unknown_Area_Type
  10
215688.500
  20
4651442.500
  0
VERTEX
  8
Unknown_Area_Type
  10
215689.000
  20
4651445.000
  0
SEQEND
  8
Unknown_Area_Type
  0
INSERT
  8
FeatureAttribs
  2
FEATURE
  41
1
  42
1
  43
1
  50
0
  10
216856.794
  20
4649830.957
 66
1
  0
ATTRIB
  8
FeatureAttribs
 70
0
  1
PNOA-H_AMS_1956-57_33k_ES_PAN_2
  2
NAME
  10
216856.794
  20
4649830.957
 40
34.47813
  0
SEQEND
  0
POLYLINE
  8
Unknown_Area_Type
  70
1
  66
1
  0
VERTEX
  8
Unknown_Area_Type
  10
215689.000
  20
4651445.000
  0
VERTEX
  8
Unknown_Area_Type
  10
215688.500
  20
4651442.500
  0
VERTEX
  8
Unknown_Area_Type
  10
215485.000
  20
4650613.000
  0
VERTEX
  8
Unknown_Area_Type
  10
215493.000
  20
4648759.000
  0
VERTEX
  8
Unknown_Area_Type
  10
215767.500
  20
4648584.000
  0
VERTEX
  8
Unknown_Area_Type
  10
218306.500
  20
4648576.000
  0
VERTEX
  8
Unknown_Area_Type
  10
218384.000
  20
4650522.500
  0
VERTEX
  8
Unknown_Area_Type
  10
218384.000
  20
4650530.500
  0
VERTEX
  8
Unknown_Area_Type
  10
218369.500
  20
4650634.500
  0
VERTEX
  8
Unknown_Area_Type
  10
215689.000
  20
4651445.000
  0
SEQEND
  8
Unknown_Area_Type
  0
INSERT
  8
FeatureAttribs
  2
FEATURE
  41
1
  42
1
  43
1
  50
0
  10
219845.594
  20
4649664.026
 66
1
  0
ATTRIB
  8
FeatureAttribs
 70
0
  1
PNOA-H_AMS_1956-57_33k_ES_PAN_2
  2
NAME
  10
219845.594
  20
4649664.026
 40
34.47813
  0
SEQEND
  0
POLYLINE
  8
Unknown_Area_Type
  70
1
  66
1
  0
VERTEX
  8
Unknown_Area_Type
  10
221068.000
  20
4651295.500
  0
VERTEX
  8
Unknown_Area_Type
  10
221070.500
  20
4651284.000
  0
VERTEX
  8
Unknown_Area_Type
  10
221232.500
  20
4650190.500
  0
VERTEX
  8
Unknown_Area_Type
  10
221233.500
  20
4650177.000
  0
VERTEX
  8
Unknown_Area_Type
  10
221103.500
  20
4648330.500
  0
VERTEX
  8
Unknown_Area_Type
  10
221057.500
  20
4648308.000
  0
VERTEX
  8
Unknown_Area_Type
  10
218450.500
  20
4648477.500
  0
VERTEX
  8
Unknown_Area_Type
  10
218308.000
  20
4648574.500
  0
VERTEX
  8
Unknown_Area_Type
  10
218306.500
  20
4648576.000
  0
VERTEX
  8
Unknown_Area_Type
  10
218306.500
  20
4648582.500
  0
VERTEX
  8
Unknown_Area_Type
  10
218384.000
  20
4650529.000
  0
VERTEX
  8
Unknown_Area_Type
  10
221066.500
  20
4651295.000
  0
VERTEX
  8
Unknown_Area_Type
  10
221068.000
  20
4651295.500
  0
SEQEND
  8
Unknown_Area_Type
  0
INSERT
  8
FeatureAttribs
  2
FEATURE
  41
1
  42
1
  43
1
  50
0
  10
219845.594
  20
4649664.026
 66
1
  0
ATTRIB
  8
FeatureAttribs
 70
0
  1
PNOA-H_AMS_1956-57_33k_ES_PAN_2
  2
NAME
  10
219845.594
  20
4649664.026
 40
34.47813
  0
SEQEND
  0
POLYLINE
  8
Unknown_Area_Type
  70
1
  66
1
  0
VERTEX
  8
Unknown_Area_Type
  10
221068.000
  20
4651295.500
  0
VERTEX
  8
Unknown_Area_Type
  10
221066.500
  20
4651295.000
  0
VERTEX
  8
Unknown_Area_Type
  10
218384.000
  20
4650529.000
  0
VERTEX
  8
Unknown_Area_Type
  10
218306.500
  20
4648582.500
  0
VERTEX
  8
Unknown_Area_Type
  10
218306.500
  20
4648576.000
  0
VERTEX
  8
Unknown_Area_Type
  10
218308.000
  20
4648574.500
  0
VERTEX
  8
Unknown_Area_Type
  10
218450.500
  20
4648477.500
  0
VERTEX
  8
Unknown_Area_Type
  10
221057.500
  20
4648308.000
  0
VERTEX
  8
Unknown_Area_Type
  10
221103.500
  20
4648330.500
  0
VERTEX
  8
Unknown_Area_Type
  10
221233.500
  20
4650177.000
  0
VERTEX
  8
Unknown_Area_Type
  10
221232.500
  20
4650190.500
  0
VERTEX
  8
Unknown_Area_Type
  10
221070.500
  20
4651284.000
  0
VERTEX
  8
Unknown_Area_Type
  10
221068.000
  20
4651295.500
  0
SEQEND
  8
Unknown_Area_Type
  0
INSERT
  8
FeatureAttribs
  2
FEATURE
  41
1
  42
1
  43
1
  50
0
  10
222719.538
  20
4649480.678
 66
1
  0
ATTRIB
  8
FeatureAttribs
 70
0
  1
PNOA-H_AMS_1956-57_33k_ES_PAN_2
  2
NAME
  10
222719.538
  20
4649480.678
 40
34.47813
  0
SEQEND
  0
POLYLINE
  8
Unknown_Area_Type
  70
1
  66
1
  0
VERTEX
  8
Unknown_Area_Type
  10
223797.000
  20
4651332.000
  0
VERTEX
  8
Unknown_Area_Type
  10
223798.500
  20
4651332.000
  0
VERTEX
  8
Unknown_Area_Type
  10
224087.500
  20
4649848.500
  0
VERTEX
  8
Unknown_Area_Type
  10
224094.500
  20
4649812.500
  0
VERTEX
  8
Unknown_Area_Type
  10
224094.500
  20
4649804.500
  0
VERTEX
  8
Unknown_Area_Type
  10
224004.500
  20
4648226.500
  0
VERTEX
  8
Unknown_Area_Type
  10
223641.000
  20
4648055.500
  0
VERTEX
  8
Unknown_Area_Type
  10
221110.000
  20
4648329.500
  0
VERTEX
  8
Unknown_Area_Type
  10
221103.500
  20
4648330.500
  0
VERTEX
  8
Unknown_Area_Type
  10
221103.500
  20
4648336.000
  0
VERTEX
  8
Unknown_Area_Type
  10
221233.500
  20
4650181.500
  0
VERTEX
  8
Unknown_Area_Type
  10
223795.500
  20
4651331.500
  0
VERTEX
  8
Unknown_Area_Type
  10
223797.000
  20
4651332.000
  0
SEQEND
  8
Unknown_Area_Type
  0
INSERT
  8
FeatureAttribs
  2
FEATURE
  41
1
  42
1
  43
1
  50
0
  10
222719.538
  20
4649480.678
 66
1
  0
ATTRIB
  8
FeatureAttribs
 70
0
  1
PNOA-H_AMS_1956-57_33k_ES_PAN_2
  2
NAME
  10
222719.538
  20
4649480.678
 40
34.47813
  0
SEQEND
  0
POLYLINE
  8
Unknown_Area_Type
  70
1
  66
1
  0
VERTEX
  8
Unknown_Area_Type
  10
223797.000
  20
4651332.000
  0
VERTEX
  8
Unknown_Area_Type
  10
223795.500
  20
4651331.500
  0
VERTEX
  8
Unknown_Area_Type
  10
221233.500
  20
4650181.500
  0
VERTEX
  8
Unknown_Area_Type
  10
221103.500
  20
4648336.000
  0
VERTEX
  8
Unknown_Area_Type
  10
221103.500
  20
4648330.500
  0
VERTEX
  8
Unknown_Area_Type
  10
221110.000
  20
4648329.500
  0
VERTEX
  8
Unknown_Area_Type
  10
223641.000
  20
4648055.500
  0
VERTEX
  8
Unknown_Area_Type
  10
224004.500
  20
4648226.500
  0
VERTEX
  8
Unknown_Area_Type
  10
224094.500
  20
4649804.500
  0
VERTEX
  8
Unknown_Area_Type
  10
224094.500
  20
4649812.500
  0
VERTEX
  8
Unknown_Area_Type
  10
224087.500
  20
4649848.500
  0
VERTEX
  8
Unknown_Area_Type
  10
223798.500
  20
4651332.000
  0
VERTEX
  8
Unknown_Area_Type
  10
223797.000
  20
4651332.000
  0
SEQEND
  8
Unknown_Area_Type
  0
INSERT
  8
FeatureAttribs
  2
FEATURE
  41
1
  42
1
  43
1
  50
0
  10
225646.713
  20
4649329.177
 66
1
  0
ATTRIB
  8
FeatureAttribs
 70
0
  1
PNOA-H_AMS_1956-57_33k_ES_PAN_2
  2
NAME
  10
225646.713
  20
4649329.177
 40
34.47813
  0
SEQEND
  0
POLYLINE
  8
Unknown_Area_Type
  70
1
  66
1
  0
VERTEX
  8
Unknown_Area_Type
  10
224913.000
  20
4650340.000
  0
VERTEX
  8
Unknown_Area_Type
  10
226530.500
  20
4651385.500
  0
VERTEX
  8
Unknown_Area_Type
  10
227066.500
  20
4649021.500
  0
VERTEX
  8
Unknown_Area_Type
  10
227041.500
  20
4648151.500
  0
VERTEX
  8
Unknown_Area_Type
  10
226352.500
  20
4647867.000
  0
VERTEX
  8
Unknown_Area_Type
  10
226348.000
  20
4647866.000
  0
VERTEX
  8
Unknown_Area_Type
  10
224004.500
  20
4648226.500
  0
VERTEX
  8
Unknown_Area_Type
  10
224094.500
  20
4649810.500
  0
VERTEX
  8
Unknown_Area_Type
  10
224912.500
  20
4650339.000
  0
VERTEX
  8
Unknown_Area_Type
  10
224913.000
  20
4650340.000
  0
SEQEND
  8
Unknown_Area_Type
  0
INSERT
  8
FeatureAttribs
  2
FEATURE
  41
1
  42
1
  43
1
  50
0
  10
225646.713
  20
4649329.177
 66
1
  0
ATTRIB
  8
FeatureAttribs
 70
0
  1
PNOA-H_AMS_1956-57_33k_ES_PAN_2
  2
NAME
  10
225646.713
  20
4649329.177
 40
34.47813
  0
SEQEND
  0
POLYLINE
  8
Unknown_Area_Type
  70
1
  66
1
  0
VERTEX
  8
Unknown_Area_Type
  10
224913.000
  20
4650340.000
  0
VERTEX
  8
Unknown_Area_Type
  10
224912.500
  20
4650339.000
  0
VERTEX
  8
Unknown_Area_Type
  10
224094.500
  20
4649810.500
  0
VERTEX
  8
Unknown_Area_Type
  10
224004.500
  20
4648226.500
  0
VERTEX
  8
Unknown_Area_Type
  10
226348.000
  20
4647866.000
  0
VERTEX
  8
Unknown_Area_Type
  10
226352.500
  20
4647867.000
  0
VERTEX
  8
Unknown_Area_Type
  10
227041.500
  20
4648151.500
  0
VERTEX
  8
Unknown_Area_Type
  10
227066.500
  20
4649021.500
  0
VERTEX
  8
Unknown_Area_Type
  10
226530.500
  20
4651385.500
  0
VERTEX
  8
Unknown_Area_Type
  10
224913.000
  20
4650340.000
  0
SEQEND
  8
Unknown_Area_Type
  0
INSERT
  8
FeatureAttribs
  2
FEATURE
  41
1
  42
1
  43
1
  50
0
  10
231736.019
  20
4649640.418
 66
1
  0
ATTRIB
  8
FeatureAttribs
 70
0
  1
PNOA-H_AMS_1956-57_33k_ES_PAN_2
  2
NAME
  10
231736.019
  20
4649640.418
 40
34.47813
  0
SEQEND
  0
POLYLINE
  8
Unknown_Area_Type
  70
1
  66
1
  0
VERTEX
  8
Unknown_Area_Type
  10
231998.500
  20
4652935.000
  0
VERTEX
  8
Unknown_Area_Type
  10
232210.000
  20
4652882.000
  0
VERTEX
  8
Unknown_Area_Type
  10
232217.500
  20
4652880.000
  0
VERTEX
  8
Unknown_Area_Type
  10
232219.000
  20
4652877.500
  0
VERTEX
  8
Unknown_Area_Type
  10
232809.000
  20
4647890.500
  0
VERTEX
  8
Unknown_Area_Type
  10
231509.500
  20
4647642.000
  0
VERTEX
  8
Unknown_Area_Type
  10
230286.000
  20
4648040.500
  0
VERTEX
  8
Unknown_Area_Type
  10
231998.500
  20
4652934.000
  0
VERTEX
  8
Unknown_Area_Type
  10
231998.500
  20
4652935.000
  0
SEQEND
  8
Unknown_Area_Type
  0
INSERT
  8
FeatureAttribs
  2
FEATURE
  41
1
  42
1
  43
1
  50
0
  10
231736.019
  20
4649640.418
 66
1
  0
ATTRIB
  8
FeatureAttribs
 70
0
  1
PNOA-H_AMS_1956-57_33k_ES_PAN_2
  2
NAME
  10
231736.019
  20
4649640.418
 40
34.47813
  0
SEQEND
  0
POLYLINE
  8
Unknown_Area_Type
  70
1
  66
1
  0
VERTEX
  8
Unknown_Area_Type
  10
231998.500
  20
4652935.000
  0
VERTEX
  8
Unknown_Area_Type
  10
231998.500
  20
4652934.000
  0
VERTEX
  8
Unknown_Area_Type
  10
230286.000
  20
4648040.500
  0
VERTEX
  8
Unknown_Area_Type
  10
231509.500
  20
4647642.000
  0
VERTEX
  8
Unknown_Area_Type
  10
232809.000
  20
4647890.500
  0
VERTEX
  8
Unknown_Area_Type
  10
232219.000
  20
4652877.500
  0
VERTEX
  8
Unknown_Area_Type
  10
232217.500
  20
4652880.000
  0
VERTEX
  8
Unknown_Area_Type
  10
232210.000
  20
4652882.000
  0
VERTEX
  8
Unknown_Area_Type
  10
231998.500
  20
4652935.000
  0
SEQEND
  8
Unknown_Area_Type
  0
INSERT
  8
FeatureAttribs
  2
FEATURE
  41
1
  42
1
  43
1
  50
0
  10
228676.869
  20
4649292.274
 66
1
  0
ATTRIB
  8
FeatureAttribs
 70
0
  1
PNOA-H_AMS_1956-57_33k_ES_PAN_2
  2
NAME
  10
228676.869
  20
4649292.274
 40
34.47813
  0
SEQEND
  0
POLYLINE
  8
Unknown_Area_Type
  70
1
  66
1
  0
VERTEX
  8
Unknown_Area_Type
  10
229286.500
  20
4651889.000
  0
VERTEX
  8
Unknown_Area_Type
  10
230113.000
  20
4648056.500
  0
VERTEX
  8
Unknown_Area_Type
  10
228969.000
  20
4647702.500
  0
VERTEX
  8
Unknown_Area_Type
  10
228962.000
  20
4647701.500
  0
VERTEX
  8
Unknown_Area_Type
  10
227041.500
  20
4648151.000
  0
VERTEX
  8
Unknown_Area_Type
  10
227066.500
  20
4649021.500
  0
VERTEX
  8
Unknown_Area_Type
  10
229286.000
  20
4651887.500
  0
VERTEX
  8
Unknown_Area_Type
  10
229286.500
  20
4651889.000
  0
SEQEND
  8
Unknown_Area_Type
  0
INSERT
  8
FeatureAttribs
  2
FEATURE
  41
1
  42
1
  43
1
  50
0
  10
228676.869
  20
4649292.274
 66
1
  0
ATTRIB
  8
FeatureAttribs
 70
0
  1
PNOA-H_AMS_1956-57_33k_ES_PAN_2
  2
NAME
  10
228676.869
  20
4649292.274
 40
34.47813
  0
SEQEND
  0
POLYLINE
  8
Unknown_Area_Type
  70
1
  66
1
  0
VERTEX
  8
Unknown_Area_Type
  10
229286.500
  20
4651889.000
  0
VERTEX
  8
Unknown_Area_Type
  10
229286.000
  20
4651887.500
  0
VERTEX
  8
Unknown_Area_Type
  10
227066.500
  20
4649021.500
  0
VERTEX
  8
Unknown_Area_Type
  10
227041.500
  20
4648151.000
  0
VERTEX
  8
Unknown_Area_Type
  10
228962.000
  20
4647701.500
  0
VERTEX
  8
Unknown_Area_Type
  10
228969.000
  20
4647702.500
  0
VERTEX
  8
Unknown_Area_Type
  10
230113.000
  20
4648056.500
  0
VERTEX
  8
Unknown_Area_Type
  10
229286.500
  20
4651889.000
  0
SEQEND
  8
Unknown_Area_Type
  0
INSERT
  8
FeatureAttribs
  2
FEATURE
  41
1
  42
1
  43
1
  50
0
  10
234573.308
  20
4649896.795
 66
1
  0
ATTRIB
  8
FeatureAttribs
 70
0
  1
PNOA-H_AMS_1956-57_33k_ES_PAN_2
  2
NAME
  10
234573.308
  20
4649896.795
 40
34.47813
  0
SEQEND
  0
POLYLINE
  8
Unknown_Area_Type
  70
1
  66
1
  0
VERTEX
  8
Unknown_Area_Type
  10
234409.000
  20
4652988.000
  0
VERTEX
  8
Unknown_Area_Type
  10
234409.500
  20
4652991.000
  0
VERTEX
  8
Unknown_Area_Type
  10
235183.500
  20
4652759.500
  0
VERTEX
  8
Unknown_Area_Type
  10
235456.500
  20
4647779.500
  0
VERTEX
  8
Unknown_Area_Type
  10
233997.500
  20
4647593.500
  0
VERTEX
  8
Unknown_Area_Type
  10
233413.000
  20
4647807.000
  0
VERTEX
  8
Unknown_Area_Type
  10
234409.000
  20
4652988.000
  0
SEQEND
  8
Unknown_Area_Type
  0
INSERT
  8
FeatureAttribs
  2
FEATURE
  41
1
  42
1
  43
1
  50
0
  10
234573.308
  20
4649896.795
 66
1
  0
ATTRIB
  8
FeatureAttribs
 70
0
  1
PNOA-H_AMS_1956-57_33k_ES_PAN_2
  2
NAME
  10
234573.308
  20
4649896.795
 40
34.47813
  0
SEQEND
  0
POLYLINE
  8
Unknown_Area_Type
  70
1
  66
1
  0
VERTEX
  8
Unknown_Area_Type
  10
234409.000
  20
4652988.000
  0
VERTEX
  8
Unknown_Area_Type
  10
233413.000
  20
4647807.000
  0
VERTEX
  8
Unknown_Area_Type
  10
233997.500
  20
4647593.500
  0
VERTEX
  8
Unknown_Area_Type
  10
235456.500
  20
4647779.500
  0
VERTEX
  8
Unknown_Area_Type
  10
235183.500
  20
4652759.500
  0
VERTEX
  8
Unknown_Area_Type
  10
234409.500
  20
4652991.000
  0
VERTEX
  8
Unknown_Area_Type
  10
234409.000
  20
4652988.000
  0
SEQEND
  8
Unknown_Area_Type
  0
INSERT
  8
FeatureAttribs
  2
FEATURE
  41
1
  42
1
  43
1
  50
0
  10
207928.740
  20
4651675.750
 66
1
  0
ATTRIB
  8
FeatureAttribs
 70
0
  1
PNOA-H_AMS_1956-57_33k_ES_PAN_2
  2
NAME
  10
207928.740
  20
4651675.750
 40
34.47813
  0
SEQEND
  0
POLYLINE
  8
Unknown_Area_Type
  70
1
  66
1
  0
VERTEX
  8
Unknown_Area_Type
  10
208128.597
  20
4649337.496
  0
VERTEX
  8
Unknown_Area_Type
  10
207984.500
  20
4649332.000
  0
VERTEX
  8
Unknown_Area_Type
  10
207971.500
  20
4649332.000
  0
VERTEX
  8
Unknown_Area_Type
  10
207968.000
  20
4649334.000
  0
VERTEX
  8
Unknown_Area_Type
  10
207632.704
  20
4649531.330
  0
VERTEX
  8
Unknown_Area_Type
  10
207632.704
  20
4653835.656
  0
VERTEX
  8
Unknown_Area_Type
  10
207986.000
  20
4654019.500
  0
VERTEX
  8
Unknown_Area_Type
  10
208319.725
  20
4653983.205
  0
VERTEX
  8
Unknown_Area_Type
  10
208298.264
  20
4653461.827
  0
VERTEX
  8
Unknown_Area_Type
  10
208203.072
  20
4651148.272
  0
VERTEX
  8
Unknown_Area_Type
  10
208128.597
  20
4649337.496
  0
SEQEND
  8
Unknown_Area_Type
  0
INSERT
  8
FeatureAttribs
  2
FEATURE
  41
1
  42
1
  43
1
  50
0
  10
209238.841
  20
4651620.691
 66
1
  0
ATTRIB
  8
FeatureAttribs
 70
0
  1
PNOA-H_AMS_1956-57_33k_ES_PAN_2
  2
NAME
  10
209238.841
  20
4651620.691
 40
34.47813
  0
SEQEND
  0
POLYLINE
  8
Unknown_Area_Type
  70
1
  66
1
  0
VERTEX
  8
Unknown_Area_Type
  10
208319.725
  20
4653983.205
  0
VERTEX
  8
Unknown_Area_Type
  10
208528.500
  20
4653960.500
  0
VERTEX
  8
Unknown_Area_Type
  10
208530.000
  20
4653960.500
  0
VERTEX
  8
Unknown_Area_Type
  10
210353.500
  20
4653763.000
  0
VERTEX
  8
Unknown_Area_Type
  10
210200.000
  20
4649417.500
  0
VERTEX
  8
Unknown_Area_Type
  10
210199.500
  20
4649416.500
  0
VERTEX
  8
Unknown_Area_Type
  10
210187.000
  20
4649416.000
  0
VERTEX
  8
Unknown_Area_Type
  10
208128.597
  20
4649337.496
  0
VERTEX
  8
Unknown_Area_Type
  10
208203.072
  20
4651148.272
  0
VERTEX
  8
Unknown_Area_Type
  10
208298.264
  20
4653461.827
  0
VERTEX
  8
Unknown_Area_Type
  10
208319.725
  20
4653983.205
  0
SEQEND
  8
Unknown_Area_Type
  0
INSERT
  8
FeatureAttribs
  2
FEATURE
  41
1
  42
1
  43
1
  50
0
  10
209238.841
  20
4651620.691
 66
1
  0
ATTRIB
  8
FeatureAttribs
 70
0
  1
PNOA-H_AMS_1956-57_33k_ES_PAN_2
  2
NAME
  10
209238.841
  20
4651620.691
 40
34.47813
  0
SEQEND
  0
POLYLINE
  8
Unknown_Area_Type
  70
1
  66
1
  0
VERTEX
  8
Unknown_Area_Type
  10
208319.725
  20
4653983.205
  0
VERTEX
  8
Unknown_Area_Type
  10
208298.264
  20
4653461.827
  0
VERTEX
  8
Unknown_Area_Type
  10
208203.072
  20
4651148.272
  0
VERTEX
  8
Unknown_Area_Type
  10
208128.597
  20
4649337.496
  0
VERTEX
  8
Unknown_Area_Type
  10
210187.000
  20
4649416.000
  0
VERTEX
  8
Unknown_Area_Type
  10
210199.500
  20
4649416.500
  0
VERTEX
  8
Unknown_Area_Type
  10
210200.000
  20
4649417.500
  0
VERTEX
  8
Unknown_Area_Type
  10
210353.500
  20
4653763.000
  0
VERTEX
  8
Unknown_Area_Type
  10
208530.000
  20
4653960.500
  0
VERTEX
  8
Unknown_Area_Type
  10
208528.500
  20
4653960.500
  0
VERTEX
  8
Unknown_Area_Type
  10
208319.725
  20
4653983.205
  0
SEQEND
  8
Unknown_Area_Type
  0
INSERT
  8
FeatureAttribs
  2
FEATURE
  41
1
  42
1
  43
1
  50
0
  10
211543.434
  20
4651647.861
 66
1
  0
ATTRIB
  8
FeatureAttribs
 70
0
  1
PNOA-H_AMS_1956-57_33k_ES_PAN_2
  2
NAME
  10
211543.434
  20
4651647.861
 40
34.47813
  0
SEQEND
  0
POLYLINE
  8
Unknown_Area_Type
  70
1
  66
1
  0
VERTEX
  8
Unknown_Area_Type
  10
210353.500
  20
4653763.000
  0
VERTEX
  8
Unknown_Area_Type
  10
210576.500
  20
4653873.000
  0
VERTEX
  8
Unknown_Area_Type
  10
210577.500
  20
4653873.500
  0
VERTEX
  8
Unknown_Area_Type
  10
210887.500
  20
4654026.500
  0
VERTEX
  8
Unknown_Area_Type
  10
210891.500
  20
4654026.500
  0
VERTEX
  8
Unknown_Area_Type
  10
213061.500
  20
4653671.000
  0
VERTEX
  8
Unknown_Area_Type
  10
212972.000
  20
4651559.000
  0
VERTEX
  8
Unknown_Area_Type
  10
212208.500
  20
4649195.500
  0
VERTEX
  8
Unknown_Area_Type
  10
210544.000
  20
4649217.500
  0
VERTEX
  8
Unknown_Area_Type
  10
210199.500
  20
4649416.500
  0
VERTEX
  8
Unknown_Area_Type
  10
210353.500
  20
4653763.000
  0
SEQEND
  8
Unknown_Area_Type
  0
INSERT
  8
FeatureAttribs
  2
FEATURE
  41
1
  42
1
  43
1
  50
0
  10
211543.434
  20
4651647.861
 66
1
  0
ATTRIB
  8
FeatureAttribs
 70
0
  1
PNOA-H_AMS_1956-57_33k_ES_PAN_2
  2
NAME
  10
211543.434
  20
4651647.861
 40
34.47813
  0
SEQEND
  0
POLYLINE
  8
Unknown_Area_Type
  70
1
  66
1
  0
VERTEX
  8
Unknown_Area_Type
  10
210353.500
  20
4653763.000
  0
VERTEX
  8
Unknown_Area_Type
  10
210199.500
  20
4649416.500
  0
VERTEX
  8
Unknown_Area_Type
  10
210544.000
  20
4649217.500
  0
VERTEX
  8
Unknown_Area_Type
  10
212208.500
  20
4649195.500
  0
VERTEX
  8
Unknown_Area_Type
  10
212972.000
  20
4651559.000
  0
VERTEX
  8
Unknown_Area_Type
  10
213061.500
  20
4653671.000
  0
VERTEX
  8
Unknown_Area_Type
  10
210891.500
  20
4654026.500
  0
VERTEX
  8
Unknown_Area_Type
  10
210887.500
  20
4654026.500
  0
VERTEX
  8
Unknown_Area_Type
  10
210577.500
  20
4653873.500
  0
VERTEX
  8
Unknown_Area_Type
  10
210576.500
  20
4653873.000
  0
VERTEX
  8
Unknown_Area_Type
  10
210353.500
  20
4653763.000
  0
SEQEND
  8
Unknown_Area_Type
  0
INSERT
  8
FeatureAttribs
  2
FEATURE
  41
1
  42
1
  43
1
  50
0
  10
226294.744
  20
4636380.790
 66
1
  0
ATTRIB
  8
FeatureAttribs
 70
0
  1
PNOA-H_AMS_1956-57_33k_ES_PAN_2
  2
NAME
  10
226294.744
  20
4636380.790
 40
34.47813
  0
SEQEND
  0
POLYLINE
  8
Unknown_Area_Type
  70
1
  66
1
  0
VERTEX
  8
Unknown_Area_Type
  10
227619.454
  20
4636184.899
  0
VERTEX
  8
Unknown_Area_Type
  10
224950.832
  20
4636184.899
  0
VERTEX
  8
Unknown_Area_Type
  10
224971.352
  20
4636576.680
  0
VERTEX
  8
Unknown_Area_Type
  10
227632.677
  20
4636474.592
  0
VERTEX
  8
Unknown_Area_Type
  10
227619.454
  20
4636184.899
  0
SEQEND
  8
Unknown_Area_Type
  0
INSERT
  8
FeatureAttribs
  2
FEATURE
  41
1
  42
1
  43
1
  50
0
  10
226370.756
  20
4638004.553
 66
1
  0
ATTRIB
  8
FeatureAttribs
 70
0
  1
PNOA-H_AMS_1956-57_33k_ES_PAN_2
  2
NAME
  10
226370.756
  20
4638004.553
 40
34.47813
  0
SEQEND
  0
POLYLINE
  8
Unknown_Area_Type
  70
1
  66
1
  0
VERTEX
  8
Unknown_Area_Type
  10
227632.677
  20
4636474.592
  0
VERTEX
  8
Unknown_Area_Type
  10
224971.352
  20
4636576.680
  0
VERTEX
  8
Unknown_Area_Type
  10
225123.500
  20
4639481.500
  0
VERTEX
  8
Unknown_Area_Type
  10
225125.500
  20
4639484.500
  0
VERTEX
  8
Unknown_Area_Type
  10
225267.000
  20
4639563.000
  0
VERTEX
  8
Unknown_Area_Type
  10
227766.500
  20
4639406.500
  0
VERTEX
  8
Unknown_Area_Type
  10
227632.677
  20
4636474.592
  0
SEQEND
  8
Unknown_Area_Type
  0
INSERT
  8
FeatureAttribs
  2
FEATURE
  41
1
  42
1
  43
1
  50
0
  10
226370.756
  20
4638004.553
 66
1
  0
ATTRIB
  8
FeatureAttribs
 70
0
  1
PNOA-H_AMS_1956-57_33k_ES_PAN_2
  2
NAME
  10
226370.756
  20
4638004.553
 40
34.47813
  0
SEQEND
  0
POLYLINE
  8
Unknown_Area_Type
  70
1
  66
1
  0
VERTEX
  8
Unknown_Area_Type
  10
227632.677
  20
4636474.592
  0
VERTEX
  8
Unknown_Area_Type
  10
227766.500
  20
4639406.500
  0
VERTEX
  8
Unknown_Area_Type
  10
225267.000
  20
4639563.000
  0
VERTEX
  8
Unknown_Area_Type
  10
225125.500
  20
4639484.500
  0
VERTEX
  8
Unknown_Area_Type
  10
225123.500
  20
4639481.500
  0
VERTEX
  8
Unknown_Area_Type
  10
224971.352
  20
4636576.680
  0
VERTEX
  8
Unknown_Area_Type
  10
227632.677
  20
4636474.592
  0
SEQEND
  8
Unknown_Area_Type
  0
INSERT
  8
FeatureAttribs
  2
FEATURE
  41
1
  42
1
  43
1
  50
0
  10
231450.008
  20
4636281.253
 66
1
  0
ATTRIB
  8
FeatureAttribs
 70
0
  1
PNOA-H_AMS_1956-57_33k_ES_PAN_2
  2
NAME
  10
231450.008
  20
4636281.253
 40
34.47813
  0
SEQEND
  0
POLYLINE
  8
Unknown_Area_Type
  70
1
  66
1
  0
VERTEX
  8
Unknown_Area_Type
  10
232720.145
  20
4636281.962
  0
VERTEX
  8
Unknown_Area_Type
  10
232716.083
  20
4636184.899
  0
VERTEX
  8
Unknown_Area_Type
  10
230176.146
  20
4636184.899
  0
VERTEX
  8
Unknown_Area_Type
  10
230183.656
  20
4636377.607
  0
VERTEX
  8
Unknown_Area_Type
  10
231855.493
  20
4636314.289
  0
VERTEX
  8
Unknown_Area_Type
  10
232720.145
  20
4636281.962
  0
SEQEND
  8
Unknown_Area_Type
  0
INSERT
  8
FeatureAttribs
  2
FEATURE
  41
1
  42
1
  43
1
  50
0
  10
231503.159
  20
4637791.656
 66
1
  0
ATTRIB
  8
FeatureAttribs
 70
0
  1
PNOA-H_AMS_1956-57_33k_ES_PAN_2
  2
NAME
  10
231503.159
  20
4637791.656
 40
34.47813
  0
SEQEND
  0
POLYLINE
  8
Unknown_Area_Type
  70
1
  66
1
  0
VERTEX
  8
Unknown_Area_Type
  10
232720.145
  20
4636281.962
  0
VERTEX
  8
Unknown_Area_Type
  10
231855.493
  20
4636314.289
  0
VERTEX
  8
Unknown_Area_Type
  10
230183.656
  20
4636377.607
  0
VERTEX
  8
Unknown_Area_Type
  10
230297.000
  20
4639286.000
  0
VERTEX
  8
Unknown_Area_Type
  10
230427.000
  20
4639349.500
  0
VERTEX
  8
Unknown_Area_Type
  10
231052.000
  20
4639296.500
  0
VERTEX
  8
Unknown_Area_Type
  10
231058.000
  20
4639296.000
  0
VERTEX
  8
Unknown_Area_Type
  10
232840.000
  20
4639146.000
  0
VERTEX
  8
Unknown_Area_Type
  10
232720.145
  20
4636281.962
  0
SEQEND
  8
Unknown_Area_Type
  0
INSERT
  8
FeatureAttribs
  2
FEATURE
  41
1
  42
1
  43
1
  50
0
  10
231503.159
  20
4637791.656
 66
1
  0
ATTRIB
  8
FeatureAttribs
 70
0
  1
PNOA-H_AMS_1956-57_33k_ES_PAN_2
  2
NAME
  10
231503.159
  20
4637791.656
 40
34.47813
  0
SEQEND
  0
POLYLINE
  8
Unknown_Area_Type
  70
1
  66
1
  0
VERTEX
  8
Unknown_Area_Type
  10
232720.145
  20
4636281.962
  0
VERTEX
  8
Unknown_Area_Type
  10
232840.000
  20
4639146.000
  0
VERTEX
  8
Unknown_Area_Type
  10
231058.000
  20
4639296.000
  0
VERTEX
  8
Unknown_Area_Type
  10
231052.000
  20
4639296.500
  0
VERTEX
  8
Unknown_Area_Type
  10
230427.000
  20
4639349.500
  0
VERTEX
  8
Unknown_Area_Type
  10
230297.000
  20
4639286.000
  0
VERTEX
  8
Unknown_Area_Type
  10
230183.656
  20
4636377.607
  0
VERTEX
  8
Unknown_Area_Type
  10
231855.493
  20
4636314.289
  0
VERTEX
  8
Unknown_Area_Type
  10
232720.145
  20
4636281.962
  0
SEQEND
  8
Unknown_Area_Type
  0
INSERT
  8
FeatureAttribs
  2
FEATURE
  41
1
  42
1
  43
1
  50
0
  10
220969.668
  20
4636483.719
 66
1
  0
ATTRIB
  8
FeatureAttribs
 70
0
  1
PNOA-H_AMS_1956-57_33k_ES_PAN_2
  2
NAME
  10
220969.668
  20
4636483.719
 40
34.47813
  0
SEQEND
  0
POLYLINE
  8
Unknown_Area_Type
  70
1
  66
1
  0
VERTEX
  8
Unknown_Area_Type
  10
222241.038
  20
4636184.899
  0
VERTEX
  8
Unknown_Area_Type
  10
219664.802
  20
4636184.899
  0
VERTEX
  8
Unknown_Area_Type
  10
219693.939
  20
4636782.539
  0
VERTEX
  8
Unknown_Area_Type
  10
221474.408
  20
4636712.507
  0
VERTEX
  8
Unknown_Area_Type
  10
222272.495
  20
4636681.504
  0
VERTEX
  8
Unknown_Area_Type
  10
222241.038
  20
4636184.899
  0
SEQEND
  8
Unknown_Area_Type
  0
INSERT
  8
FeatureAttribs
  2
FEATURE
  41
1
  42
1
  43
1
  50
0
  10
221060.376
  20
4638222.640
 66
1
  0
ATTRIB
  8
FeatureAttribs
 70
0
  1
PNOA-H_AMS_1956-57_33k_ES_PAN_2
  2
NAME
  10
221060.376
  20
4638222.640
 40
34.47813
  0
SEQEND
  0
POLYLINE
  8
Unknown_Area_Type
  70
1
  66
1
  0
VERTEX
  8
Unknown_Area_Type
  10
222272.495
  20
4636681.504
  0
VERTEX
  8
Unknown_Area_Type
  10
221474.408
  20
4636712.507
  0
VERTEX
  8
Unknown_Area_Type
  10
219693.939
  20
4636782.539
  0
VERTEX
  8
Unknown_Area_Type
  10
219841.000
  20
4639799.000
  0
VERTEX
  8
Unknown_Area_Type
  10
220812.500
  20
4639728.500
  0
VERTEX
  8
Unknown_Area_Type
  10
220818.000
  20
4639728.500
  0
VERTEX
  8
Unknown_Area_Type
  10
222458.000
  20
4639610.000
  0
VERTEX
  8
Unknown_Area_Type
  10
222272.495
  20
4636681.504
  0
SEQEND
  8
Unknown_Area_Type
  0
INSERT
  8
FeatureAttribs
  2
FEATURE
  41
1
  42
1
  43
1
  50
0
  10
221060.376
  20
4638222.640
 66
1
  0
ATTRIB
  8
FeatureAttribs
 70
0
  1
PNOA-H_AMS_1956-57_33k_ES_PAN_2
  2
NAME
  10
221060.376
  20
4638222.640
 40
34.47813
  0
SEQEND
  0
POLYLINE
  8
Unknown_Area_Type
  70
1
  66
1
  0
VERTEX
  8
Unknown_Area_Type
  10
222272.495
  20
4636681.504
  0
VERTEX
  8
Unknown_Area_Type
  10
222458.000
  20
4639610.000
  0
VERTEX
  8
Unknown_Area_Type
  10
220818.000
  20
4639728.500
  0
VERTEX
  8
Unknown_Area_Type
  10
220812.500
  20
4639728.500
  0
VERTEX
  8
Unknown_Area_Type
  10
219841.000
  20
4639799.000
  0
VERTEX
  8
Unknown_Area_Type
  10
219693.939
  20
4636782.539
  0
VERTEX
  8
Unknown_Area_Type
  10
221474.408
  20
4636712.507
  0
VERTEX
  8
Unknown_Area_Type
  10
222272.495
  20
4636681.504
  0
SEQEND
  8
Unknown_Area_Type
  0
INSERT
  8
FeatureAttribs
  2
FEATURE
  41
1
  42
1
  43
1
  50
0
  10
207745.020
  20
4642737.476
 66
1
  0
ATTRIB
  8
FeatureAttribs
 70
0
  1
PNOA-H_AMS_1956-57_33k_ES_PAN_2
  2
NAME
  10
207745.020
  20
4642737.476
 40
34.47813
  0
SEQEND
  0
POLYLINE
  8
Unknown_Area_Type
  70
1
  66
1
  0
VERTEX
  8
Unknown_Area_Type
  10
207946.593
  20
4644910.033
  0
VERTEX
  8
Unknown_Area_Type
  10
207917.728
  20
4644207.639
  0
VERTEX
  8
Unknown_Area_Type
  10
207822.691
  20
4641894.105
  0
VERTEX
  8
Unknown_Area_Type
  10
207764.538
  20
4640477.901
  0
VERTEX
  8
Unknown_Area_Type
  10
207632.704
  20
4640464.241
  0
VERTEX
  8
Unknown_Area_Type
  10
207632.704
  20
4645010.710
  0
VERTEX
  8
Unknown_Area_Type
  10
207946.593
  20
4644910.033
  0
SEQEND
  8
Unknown_Area_Type
  0
INSERT
  8
FeatureAttribs
  2
FEATURE
  41
1
  42
1
  43
1
  50
0
  10
208331.117
  20
4642654.735
 66
1
  0
ATTRIB
  8
FeatureAttribs
 70
0
  1
PNOA-H_AMS_1956-57_33k_ES_PAN_2
  2
NAME
  10
208331.117
  20
4642654.735
 40
34.47813
  0
SEQEND
  0
POLYLINE
  8
Unknown_Area_Type
  70
1
  66
1
  0
VERTEX
  8
Unknown_Area_Type
  10
207946.593
  20
4644910.033
  0
VERTEX
  8
Unknown_Area_Type
  10
208921.000
  20
4644597.500
  0
VERTEX
  8
Unknown_Area_Type
  10
208721.000
  20
4640577.000
  0
VERTEX
  8
Unknown_Area_Type
  10
207764.538
  20
4640477.901
  0
VERTEX
  8
Unknown_Area_Type
  10
207822.691
  20
4641894.105
  0
VERTEX
  8
Unknown_Area_Type
  10
207917.728
  20
4644207.639
  0
VERTEX
  8
Unknown_Area_Type
  10
207946.593
  20
4644910.033
  0
SEQEND
  8
Unknown_Area_Type
  0
INSERT
  8
FeatureAttribs
  2
FEATURE
  41
1
  42
1
  43
1
  50
0
  10
208331.117
  20
4642654.735
 66
1
  0
ATTRIB
  8
FeatureAttribs
 70
0
  1
PNOA-H_AMS_1956-57_33k_ES_PAN_2
  2
NAME
  10
208331.117
  20
4642654.735
 40
34.47813
  0
SEQEND
  0
POLYLINE
  8
Unknown_Area_Type
  70
1
  66
1
  0
VERTEX
  8
Unknown_Area_Type
  10
207946.593
  20
4644910.033
  0
VERTEX
  8
Unknown_Area_Type
  10
207917.728
  20
4644207.639
  0
VERTEX
  8
Unknown_Area_Type
  10
207822.691
  20
4641894.105
  0
VERTEX
  8
Unknown_Area_Type
  10
207764.538
  20
4640477.901
  0
VERTEX
  8
Unknown_Area_Type
  10
208721.000
  20
4640577.000
  0
VERTEX
  8
Unknown_Area_Type
  10
208921.000
  20
4644597.500
  0
VERTEX
  8
Unknown_Area_Type
  10
207946.593
  20
4644910.033
  0
SEQEND
  8
Unknown_Area_Type
  0
INSERT
  8
FeatureAttribs
  2
FEATURE
  41
1
  42
1
  43
1
  50
0
  10
218394.163
  20
4636534.312
 66
1
  0
ATTRIB
  8
FeatureAttribs
 70
0
  1
PNOA-H_AMS_1956-57_33k_ES_PAN_2
  2
NAME
  10
218394.163
  20
4636534.312
 40
34.47813
  0
SEQEND
  0
POLYLINE
  8
Unknown_Area_Type
  70
1
  66
1
  0
VERTEX
  8
Unknown_Area_Type
  10
219665.011
  20
4636184.899
  0
VERTEX
  8
Unknown_Area_Type
  10
217080.291
  20
4636184.899
  0
VERTEX
  8
Unknown_Area_Type
  10
217132.310
  20
4636883.725
  0
VERTEX
  8
Unknown_Area_Type
  10
218014.014
  20
4636848.616
  0
VERTEX
  8
Unknown_Area_Type
  10
219694.113
  20
4636782.532
  0
VERTEX
  8
Unknown_Area_Type
  10
219665.011
  20
4636184.899
  0
SEQEND
  8
Unknown_Area_Type
  0
INSERT
  8
FeatureAttribs
  2
FEATURE
  41
1
  42
1
  43
1
  50
0
  10
218508.600
  20
4638322.102
 66
1
  0
ATTRIB
  8
FeatureAttribs
 70
0
  1
PNOA-H_AMS_1956-57_33k_ES_PAN_2
  2
NAME
  10
218508.600
  20
4638322.102
 40
34.47813
  0
SEQEND
  0
POLYLINE
  8
Unknown_Area_Type
  70
1
  66
1
  0
VERTEX
  8
Unknown_Area_Type
  10
219694.113
  20
4636782.532
  0
VERTEX
  8
Unknown_Area_Type
  10
218014.014
  20
4636848.616
  0
VERTEX
  8
Unknown_Area_Type
  10
217132.310
  20
4636883.725
  0
VERTEX
  8
Unknown_Area_Type
  10
217353.000
  20
4639848.500
  0
VERTEX
  8
Unknown_Area_Type
  10
218767.500
  20
4639823.500
  0
VERTEX
  8
Unknown_Area_Type
  10
218770.000
  20
4639823.500
  0
VERTEX
  8
Unknown_Area_Type
  10
219819.000
  20
4639805.500
  0
VERTEX
  8
Unknown_Area_Type
  10
219833.000
  20
4639805.000
  0
VERTEX
  8
Unknown_Area_Type
  10
219841.000
  20
4639799.000
  0
VERTEX
  8
Unknown_Area_Type
  10
219694.113
  20
4636782.532
  0
SEQEND
  8
Unknown_Area_Type
  0
INSERT
  8
FeatureAttribs
  2
FEATURE
  41
1
  42
1
  43
1
  50
0
  10
218508.600
  20
4638322.102
 66
1
  0
ATTRIB
  8
FeatureAttribs
 70
0
  1
PNOA-H_AMS_1956-57_33k_ES_PAN_2
  2
NAME
  10
218508.600
  20
4638322.102
 40
34.47813
  0
SEQEND
  0
POLYLINE
  8
Unknown_Area_Type
  70
1
  66
1
  0
VERTEX
  8
Unknown_Area_Type
  10
219694.113
  20
4636782.532
  0
VERTEX
  8
Unknown_Area_Type
  10
219841.000
  20
4639799.000
  0
VERTEX
  8
Unknown_Area_Type
  10
219833.000
  20
4639805.000
  0
VERTEX
  8
Unknown_Area_Type
  10
219819.000
  20
4639805.500
  0
VERTEX
  8
Unknown_Area_Type
  10
218770.000
  20
4639823.500
  0
VERTEX
  8
Unknown_Area_Type
  10
218767.500
  20
4639823.500
  0
VERTEX
  8
Unknown_Area_Type
  10
217353.000
  20
4639848.500
  0
VERTEX
  8
Unknown_Area_Type
  10
217132.310
  20
4636883.725
  0
VERTEX
  8
Unknown_Area_Type
  10
218014.014
  20
4636848.616
  0
VERTEX
  8
Unknown_Area_Type
  10
219694.113
  20
4636782.532
  0
SEQEND
  8
Unknown_Area_Type
  0
INSERT
  8
FeatureAttribs
  2
FEATURE
  41
1
  42
1
  43
1
  50
0
  10
228903.942
  20
4636329.745
 66
1
  0
ATTRIB
  8
FeatureAttribs
 70
0
  1
PNOA-H_AMS_1956-57_33k_ES_PAN_2
  2
NAME
  10
228903.942
  20
4636329.745
 40
34.47813
  0
SEQEND
  0
POLYLINE
  8
Unknown_Area_Type
  70
1
  66
1
  0
VERTEX
  8
Unknown_Area_Type
  10
230176.146
  20
4636184.899
  0
VERTEX
  8
Unknown_Area_Type
  10
227619.483
  20
4636184.899
  0
VERTEX
  8
Unknown_Area_Type
  10
227632.703
  20
4636474.591
  0
VERTEX
  8
Unknown_Area_Type
  10
228395.147
  20
4636445.344
  0
VERTEX
  8
Unknown_Area_Type
  10
230183.656
  20
4636377.607
  0
VERTEX
  8
Unknown_Area_Type
  10
230176.146
  20
4636184.899
  0
SEQEND
  8
Unknown_Area_Type
  0
INSERT
  8
FeatureAttribs
  2
FEATURE
  41
1
  42
1
  43
1
  50
0
  10
228964.551
  20
4637901.025
 66
1
  0
ATTRIB
  8
FeatureAttribs
 70
0
  1
PNOA-H_AMS_1956-57_33k_ES_PAN_2
  2
NAME
  10
228964.551
  20
4637901.025
 40
34.47813
  0
SEQEND
  0
POLYLINE
  8
Unknown_Area_Type
  70
1
  66
1
  0
VERTEX
  8
Unknown_Area_Type
  10
230183.656
  20
4636377.607
  0
VERTEX
  8
Unknown_Area_Type
  10
228395.147
  20
4636445.344
  0
VERTEX
  8
Unknown_Area_Type
  10
227632.703
  20
4636474.591
  0
VERTEX
  8
Unknown_Area_Type
  10
227766.500
  20
4639406.500
  0
VERTEX
  8
Unknown_Area_Type
  10
227879.000
  20
4639465.500
  0
VERTEX
  8
Unknown_Area_Type
  10
227882.000
  20
4639467.000
  0
VERTEX
  8
Unknown_Area_Type
  10
227886.000
  20
4639467.000
  0
VERTEX
  8
Unknown_Area_Type
  10
229006.000
  20
4639382.500
  0
VERTEX
  8
Unknown_Area_Type
  10
229010.000
  20
4639382.500
  0
VERTEX
  8
Unknown_Area_Type
  10
230297.000
  20
4639286.000
  0
VERTEX
  8
Unknown_Area_Type
  10
230183.656
  20
4636377.607
  0
SEQEND
  8
Unknown_Area_Type
  0
INSERT
  8
FeatureAttribs
  2
FEATURE
  41
1
  42
1
  43
1
  50
0
  10
228964.551
  20
4637901.025
 66
1
  0
ATTRIB
  8
FeatureAttribs
 70
0
  1
PNOA-H_AMS_1956-57_33k_ES_PAN_2
  2
NAME
  10
228964.551
  20
4637901.025
 40
34.47813
  0
SEQEND
  0
POLYLINE
  8
Unknown_Area_Type
  70
1
  66
1
  0
VERTEX
  8
Unknown_Area_Type
  10
230183.656
  20
4636377.607
  0
VERTEX
  8
Unknown_Area_Type
  10
230297.000
  20
4639286.000
  0
VERTEX
  8
Unknown_Area_Type
  10
229010.000
  20
4639382.500
  0
VERTEX
  8
Unknown_Area_Type
  10
229006.000
  20
4639382.500
  0
VERTEX
  8
Unknown_Area_Type
  10
227886.000
  20
4639467.000
  0
VERTEX
  8
Unknown_Area_Type
  10
227882.000
  20
4639467.000
  0
VERTEX
  8
Unknown_Area_Type
  10
227879.000
  20
4639465.500
  0
VERTEX
  8
Unknown_Area_Type
  10
227766.500
  20
4639406.500
  0
VERTEX
  8
Unknown_Area_Type
  10
227632.703
  20
4636474.591
  0
VERTEX
  8
Unknown_Area_Type
  10
228395.147
  20
4636445.344
  0
VERTEX
  8
Unknown_Area_Type
  10
230183.656
  20
4636377.607
  0
SEQEND
  8
Unknown_Area_Type
  0
INSERT
  8
FeatureAttribs
  2
FEATURE
  41
1
  42
1
  43
1
  50
0
  10
235391.211
  20
4638191.978
 66
1
  0
ATTRIB
  8
FeatureAttribs
 70
0
  1
PNOA-H_AMS_1956-57_33k_ES_PAN_2
  2
NAME
  10
235391.211
  20
4638191.978
 40
34.47813
  0
SEQEND
  0
POLYLINE
  8
Unknown_Area_Type
  70
1
  66
1
  0
VERTEX
  8
Unknown_Area_Type
  10
235421.223
  20
4639021.779
  0
VERTEX
  8
Unknown_Area_Type
  10
235424.500
  20
4639021.500
  0
VERTEX
  8
Unknown_Area_Type
  10
235357.921
  20
4637318.103
  0
VERTEX
  8
Unknown_Area_Type
  10
235401.769
  20
4638498.355
  0
VERTEX
  8
Unknown_Area_Type
  10
235421.223
  20
4639021.779
  0
SEQEND
  8
Unknown_Area_Type
  0
INSERT
  8
FeatureAttribs
  2
FEATURE
  41
1
  42
1
  43
1
  50
0
  10
233367.842
  20
4636233.439
 66
1
  0
ATTRIB
  8
FeatureAttribs
 70
0
  1
PNOA-H_AMS_1956-57_33k_ES_PAN_2
  2
NAME
  10
233367.842
  20
4636233.439
 40
34.47813
  0
SEQEND
  0
POLYLINE
  8
Unknown_Area_Type
  70
1
  66
1
  0
VERTEX
  8
Unknown_Area_Type
  10
235313.633
  20
4636185.000
  0
VERTEX
  8
Unknown_Area_Type
  10
235313.629
  20
4636184.899
  0
VERTEX
  8
Unknown_Area_Type
  10
232715.631
  20
4636184.899
  0
VERTEX
  8
Unknown_Area_Type
  10
232719.696
  20
4636281.979
  0
VERTEX
  8
Unknown_Area_Type
  10
235313.633
  20
4636185.000
  0
SEQEND
  8
Unknown_Area_Type
  0
INSERT
  8
FeatureAttribs
  2
FEATURE
  41
1
  42
1
  43
1
  50
0
  10
234066.844
  20
4637680.345
 66
1
  0
ATTRIB
  8
FeatureAttribs
 70
0
  1
PNOA-H_AMS_1956-57_33k_ES_PAN_2
  2
NAME
  10
234066.844
  20
4637680.345
 40
34.47813
  0
SEQEND
  0
POLYLINE
  8
Unknown_Area_Type
  70
1
  66
1
  0
VERTEX
  8
Unknown_Area_Type
  10
235421.223
  20
4639021.779
  0
VERTEX
  8
Unknown_Area_Type
  10
235401.769
  20
4638498.355
  0
VERTEX
  8
Unknown_Area_Type
  10
235357.921
  20
4637318.103
  0
VERTEX
  8
Unknown_Area_Type
  10
235313.633
  20
4636185.000
  0
VERTEX
  8
Unknown_Area_Type
  10
232719.696
  20
4636281.979
  0
VERTEX
  8
Unknown_Area_Type
  10
232839.500
  20
4639143.500
  0
VERTEX
  8
Unknown_Area_Type
  10
232840.000
  20
4639146.500
  0
VERTEX
  8
Unknown_Area_Type
  10
233000.000
  20
4639227.000
  0
VERTEX
  8
Unknown_Area_Type
  10
233001.000
  20
4639227.500
  0
VERTEX
  8
Unknown_Area_Type
  10
235421.223
  20
4639021.779
  0
SEQEND
  8
Unknown_Area_Type
  0
INSERT
  8
FeatureAttribs
  2
FEATURE
  41
1
  42
1
  43
1
  50
0
  10
234066.844
  20
4637680.345
 66
1
  0
ATTRIB
  8
FeatureAttribs
 70
0
  1
PNOA-H_AMS_1956-57_33k_ES_PAN_2
  2
NAME
  10
234066.844
  20
4637680.345
 40
34.47813
  0
SEQEND
  0
POLYLINE
  8
Unknown_Area_Type
  70
1
  66
1
  0
VERTEX
  8
Unknown_Area_Type
  10
235421.223
  20
4639021.779
  0
VERTEX
  8
Unknown_Area_Type
  10
233001.000
  20
4639227.500
  0
VERTEX
  8
Unknown_Area_Type
  10
233000.000
  20
4639227.000
  0
VERTEX
  8
Unknown_Area_Type
  10
232840.000
  20
4639146.500
  0
VERTEX
  8
Unknown_Area_Type
  10
232839.500
  20
4639143.500
  0
VERTEX
  8
Unknown_Area_Type
  10
232719.696
  20
4636281.979
  0
VERTEX
  8
Unknown_Area_Type
  10
235313.633
  20
4636185.000
  0
VERTEX
  8
Unknown_Area_Type
  10
235357.921
  20
4637318.103
  0
VERTEX
  8
Unknown_Area_Type
  10
235401.769
  20
4638498.355
  0
VERTEX
  8
Unknown_Area_Type
  10
235421.223
  20
4639021.779
  0
SEQEND
  8
Unknown_Area_Type
  0
INSERT
  8
FeatureAttribs
  2
FEATURE
  41
1
  42
1
  43
1
  50
0
  10
223610.429
  20
4636433.203
 66
1
  0
ATTRIB
  8
FeatureAttribs
 70
0
  1
PNOA-H_AMS_1956-57_33k_ES_PAN_2
  2
NAME
  10
223610.429
  20
4636433.203
 40
34.47813
  0
SEQEND
  0
POLYLINE
  8
Unknown_Area_Type
  70
1
  66
1
  0
VERTEX
  8
Unknown_Area_Type
  10
224951.152
  20
4636184.899
  0
VERTEX
  8
Unknown_Area_Type
  10
222240.973
  20
4636184.899
  0
VERTEX
  8
Unknown_Area_Type
  10
222272.414
  20
4636681.507
  0
VERTEX
  8
Unknown_Area_Type
  10
224934.786
  20
4636578.083
  0
VERTEX
  8
Unknown_Area_Type
  10
224971.684
  20
4636576.668
  0
VERTEX
  8
Unknown_Area_Type
  10
224951.152
  20
4636184.899
  0
SEQEND
  8
Unknown_Area_Type
  0
INSERT
  8
FeatureAttribs
  2
FEATURE
  41
1
  42
1
  43
1
  50
0
  10
223701.621
  20
4638098.168
 66
1
  0
ATTRIB
  8
FeatureAttribs
 70
0
  1
PNOA-H_AMS_1956-57_33k_ES_PAN_2
  2
NAME
  10
223701.621
  20
4638098.168
 40
34.47813
  0
SEQEND
  0
POLYLINE
  8
Unknown_Area_Type
  70
1
  66
1
  0
VERTEX
  8
Unknown_Area_Type
  10
224971.684
  20
4636576.668
  0
VERTEX
  8
Unknown_Area_Type
  10
224934.786
  20
4636578.083
  0
VERTEX
  8
Unknown_Area_Type
  10
222272.414
  20
4636681.507
  0
VERTEX
  8
Unknown_Area_Type
  10
222457.500
  20
4639605.000
  0
VERTEX
  8
Unknown_Area_Type
  10
222458.000
  20
4639610.000
  0
VERTEX
  8
Unknown_Area_Type
  10
222459.500
  20
4639611.000
  0
VERTEX
  8
Unknown_Area_Type
  10
222545.000
  20
4639657.500
  0
VERTEX
  8
Unknown_Area_Type
  10
222546.000
  20
4639658.000
  0
VERTEX
  8
Unknown_Area_Type
  10
225124.000
  20
4639483.000
  0
VERTEX
  8
Unknown_Area_Type
  10
224971.684
  20
4636576.668
  0
SEQEND
  8
Unknown_Area_Type
  0
INSERT
  8
FeatureAttribs
  2
FEATURE
  41
1
  42
1
  43
1
  50
0
  10
223701.621
  20
4638098.168
 66
1
  0
ATTRIB
  8
FeatureAttribs
 70
0
  1
PNOA-H_AMS_1956-57_33k_ES_PAN_2
  2
NAME
  10
223701.621
  20
4638098.168
 40
34.47813
  0
SEQEND
  0
POLYLINE
  8
Unknown_Area_Type
  70
1
  66
1
  0
VERTEX
  8
Unknown_Area_Type
  10
224971.684
  20
4636576.668
  0
VERTEX
  8
Unknown_Area_Type
  10
225124.000
  20
4639483.000
  0
VERTEX
  8
Unknown_Area_Type
  10
222546.000
  20
4639658.000
  0
VERTEX
  8
Unknown_Area_Type
  10
222545.000
  20
4639657.500
  0
VERTEX
  8
Unknown_Area_Type
  10
222459.500
  20
4639611.000
  0
VERTEX
  8
Unknown_Area_Type
  10
222458.000
  20
4639610.000
  0
VERTEX
  8
Unknown_Area_Type
  10
222457.500
  20
4639605.000
  0
VERTEX
  8
Unknown_Area_Type
  10
222272.414
  20
4636681.507
  0
VERTEX
  8
Unknown_Area_Type
  10
224934.786
  20
4636578.083
  0
VERTEX
  8
Unknown_Area_Type
  10
224971.684
  20
4636576.668
  0
SEQEND
  8
Unknown_Area_Type
  0
INSERT
  8
FeatureAttribs
  2
FEATURE
  41
1
  42
1
  43
1
  50
0
  10
215850.223
  20
4636584.168
 66
1
  0
ATTRIB
  8
FeatureAttribs
 70
0
  1
PNOA-H_AMS_1956-57_33k_ES_PAN_2
  2
NAME
  10
215850.223
  20
4636584.168
 40
34.47813
  0
SEQEND
  0
POLYLINE
  8
Unknown_Area_Type
  70
1
  66
1
  0
VERTEX
  8
Unknown_Area_Type
  10
217080.537
  20
4636184.899
  0
VERTEX
  8
Unknown_Area_Type
  10
214552.198
  20
4636184.899
  0
VERTEX
  8
Unknown_Area_Type
  10
214628.241
  20
4636983.438
  0
VERTEX
  8
Unknown_Area_Type
  10
217132.501
  20
4636883.718
  0
VERTEX
  8
Unknown_Area_Type
  10
217080.537
  20
4636184.899
  0
SEQEND
  8
Unknown_Area_Type
  0
INSERT
  8
FeatureAttribs
  2
FEATURE
  41
1
  42
1
  43
1
  50
0
  10
216016.964
  20
4638453.933
 66
1
  0
ATTRIB
  8
FeatureAttribs
 70
0
  1
PNOA-H_AMS_1956-57_33k_ES_PAN_2
  2
NAME
  10
216016.964
  20
4638453.933
 40
34.47813
  0
SEQEND
  0
POLYLINE
  8
Unknown_Area_Type
  70
1
  66
1
  0
VERTEX
  8
Unknown_Area_Type
  10
217132.501
  20
4636883.718
  0
VERTEX
  8
Unknown_Area_Type
  10
214628.241
  20
4636983.438
  0
VERTEX
  8
Unknown_Area_Type
  10
214911.500
  20
4639958.000
  0
VERTEX
  8
Unknown_Area_Type
  10
216703.000
  20
4640017.000
  0
VERTEX
  8
Unknown_Area_Type
  10
216718.000
  20
4640017.500
  0
VERTEX
  8
Unknown_Area_Type
  10
217080.500
  20
4640029.000
  0
VERTEX
  8
Unknown_Area_Type
  10
217353.000
  20
4639849.000
  0
VERTEX
  8
Unknown_Area_Type
  10
217132.501
  20
4636883.718
  0
SEQEND
  8
Unknown_Area_Type
  0
INSERT
  8
FeatureAttribs
  2
FEATURE
  41
1
  42
1
  43
1
  50
0
  10
216016.964
  20
4638453.933
 66
1
  0
ATTRIB
  8
FeatureAttribs
 70
0
  1
PNOA-H_AMS_1956-57_33k_ES_PAN_2
  2
NAME
  10
216016.964
  20
4638453.933
 40
34.47813
  0
SEQEND
  0
POLYLINE
  8
Unknown_Area_Type
  70
1
  66
1
  0
VERTEX
  8
Unknown_Area_Type
  10
217132.501
  20
4636883.718
  0
VERTEX
  8
Unknown_Area_Type
  10
217353.000
  20
4639849.000
  0
VERTEX
  8
Unknown_Area_Type
  10
217080.500
  20
4640029.000
  0
VERTEX
  8
Unknown_Area_Type
  10
216718.000
  20
4640017.500
  0
VERTEX
  8
Unknown_Area_Type
  10
216703.000
  20
4640017.000
  0
VERTEX
  8
Unknown_Area_Type
  10
214911.500
  20
4639958.000
  0
VERTEX
  8
Unknown_Area_Type
  10
214628.241
  20
4636983.438
  0
VERTEX
  8
Unknown_Area_Type
  10
217132.501
  20
4636883.718
  0
SEQEND
  8
Unknown_Area_Type
  0
INSERT
  8
FeatureAttribs
  2
FEATURE
  41
1
  42
1
  43
1
  50
0
  10
210608.790
  20
4636692.792
 66
1
  0
ATTRIB
  8
FeatureAttribs
 70
0
  1
PNOA-H_AMS_1956-57_33k_ES_PAN_2
  2
NAME
  10
210608.790
  20
4636692.792
 40
34.47813
  0
SEQEND
  0
POLYLINE
  8
Unknown_Area_Type
  70
1
  66
1
  0
VERTEX
  8
Unknown_Area_Type
  10
211952.243
  20
4636184.899
  0
VERTEX
  8
Unknown_Area_Type
  10
209206.937
  20
4636184.899
  0
VERTEX
  8
Unknown_Area_Type
  10
209259.638
  20
4637200.685
  0
VERTEX
  8
Unknown_Area_Type
  10
211093.177
  20
4637125.889
  0
VERTEX
  8
Unknown_Area_Type
  10
212009.293
  20
4637088.963
  0
VERTEX
  8
Unknown_Area_Type
  10
211952.243
  20
4636184.899
  0
SEQEND
  8
Unknown_Area_Type
  0
INSERT
  8
FeatureAttribs
  2
FEATURE
  41
1
  42
1
  43
1
  50
0
  10
210738.363
  20
4638752.494
 66
1
  0
ATTRIB
  8
FeatureAttribs
 70
0
  1
PNOA-H_AMS_1956-57_33k_ES_PAN_2
  2
NAME
  10
210738.363
  20
4638752.494
 40
34.47813
  0
SEQEND
  0
POLYLINE
  8
Unknown_Area_Type
  70
1
  66
1
  0
VERTEX
  8
Unknown_Area_Type
  10
212009.293
  20
4637088.963
  0
VERTEX
  8
Unknown_Area_Type
  10
211093.177
  20
4637125.889
  0
VERTEX
  8
Unknown_Area_Type
  10
209259.638
  20
4637200.685
  0
VERTEX
  8
Unknown_Area_Type
  10
209416.000
  20
4640214.500
  0
VERTEX
  8
Unknown_Area_Type
  10
210573.500
  20
4640390.000
  0
VERTEX
  8
Unknown_Area_Type
  10
210577.000
  20
4640390.500
  0
VERTEX
  8
Unknown_Area_Type
  10
211474.500
  20
4640526.000
  0
VERTEX
  8
Unknown_Area_Type
  10
212197.000
  20
4640063.500
  0
VERTEX
  8
Unknown_Area_Type
  10
212009.293
  20
4637088.963
  0
SEQEND
  8
Unknown_Area_Type
  0
INSERT
  8
FeatureAttribs
  2
FEATURE
  41
1
  42
1
  43
1
  50
0
  10
210738.363
  20
4638752.494
 66
1
  0
ATTRIB
  8
FeatureAttribs
 70
0
  1
PNOA-H_AMS_1956-57_33k_ES_PAN_2
  2
NAME
  10
210738.363
  20
4638752.494
 40
34.47813
  0
SEQEND
  0
POLYLINE
  8
Unknown_Area_Type
  70
1
  66
1
  0
VERTEX
  8
Unknown_Area_Type
  10
212009.293
  20
4637088.963
  0
VERTEX
  8
Unknown_Area_Type
  10
212197.000
  20
4640063.500
  0
VERTEX
  8
Unknown_Area_Type
  10
211474.500
  20
4640526.000
  0
VERTEX
  8
Unknown_Area_Type
  10
210577.000
  20
4640390.500
  0
VERTEX
  8
Unknown_Area_Type
  10
210573.500
  20
4640390.000
  0
VERTEX
  8
Unknown_Area_Type
  10
209416.000
  20
4640214.500
  0
VERTEX
  8
Unknown_Area_Type
  10
209259.638
  20
4637200.685
  0
VERTEX
  8
Unknown_Area_Type
  10
211093.177
  20
4637125.889
  0
VERTEX
  8
Unknown_Area_Type
  10
212009.293
  20
4637088.963
  0
SEQEND
  8
Unknown_Area_Type
  0
INSERT
  8
FeatureAttribs
  2
FEATURE
  41
1
  42
1
  43
1
  50
0
  10
213287.980
  20
4636636.931
 66
1
  0
ATTRIB
  8
FeatureAttribs
 70
0
  1
PNOA-H_AMS_1956-57_33k_ES_PAN_2
  2
NAME
  10
213287.980
  20
4636636.931
 40
34.47813
  0
SEQEND
  0
POLYLINE
  8
Unknown_Area_Type
  70
1
  66
1
  0
VERTEX
  8
Unknown_Area_Type
  10
214552.192
  20
4636184.899
  0
VERTEX
  8
Unknown_Area_Type
  10
211952.192
  20
4636184.899
  0
VERTEX
  8
Unknown_Area_Type
  10
212009.262
  20
4637088.964
  0
VERTEX
  8
Unknown_Area_Type
  10
214553.604
  20
4636986.410
  0
VERTEX
  8
Unknown_Area_Type
  10
214628.226
  20
4636983.438
  0
VERTEX
  8
Unknown_Area_Type
  10
214552.192
  20
4636184.899
  0
SEQEND
  8
Unknown_Area_Type
  0
INSERT
  8
FeatureAttribs
  2
FEATURE
  41
1
  42
1
  43
1
  50
0
  10
213456.695
  20
4638611.699
 66
1
  0
ATTRIB
  8
FeatureAttribs
 70
0
  1
PNOA-H_AMS_1956-57_33k_ES_PAN_2
  2
NAME
  10
213456.695
  20
4638611.699
 40
34.47813
  0
SEQEND
  0
POLYLINE
  8
Unknown_Area_Type
  70
1
  66
1
  0
VERTEX
  8
Unknown_Area_Type
  10
214628.226
  20
4636983.438
  0
VERTEX
  8
Unknown_Area_Type
  10
214553.604
  20
4636986.410
  0
VERTEX
  8
Unknown_Area_Type
  10
212009.262
  20
4637088.964
  0
VERTEX
  8
Unknown_Area_Type
  10
212197.000
  20
4640063.000
  0
VERTEX
  8
Unknown_Area_Type
  10
214334.000
  20
4640291.500
  0
VERTEX
  8
Unknown_Area_Type
  10
214338.500
  20
4640292.000
  0
VERTEX
  8
Unknown_Area_Type
  10
214342.500
  20
4640291.500
  0
VERTEX
  8
Unknown_Area_Type
  10
214911.500
  20
4639958.500
  0
VERTEX
  8
Unknown_Area_Type
  10
214628.226
  20
4636983.438
  0
SEQEND
  8
Unknown_Area_Type
  0
INSERT
  8
FeatureAttribs
  2
FEATURE
  41
1
  42
1
  43
1
  50
0
  10
213456.695
  20
4638611.699
 66
1
  0
ATTRIB
  8
FeatureAttribs
 70
0
  1
PNOA-H_AMS_1956-57_33k_ES_PAN_2
  2
NAME
  10
213456.695
  20
4638611.699
 40
34.47813
  0
SEQEND
  0
POLYLINE
  8
Unknown_Area_Type
  70
1
  66
1
  0
VERTEX
  8
Unknown_Area_Type
  10
214628.226
  20
4636983.438
  0
VERTEX
  8
Unknown_Area_Type
  10
214911.500
  20
4639958.500
  0
VERTEX
  8
Unknown_Area_Type
  10
214342.500
  20
4640291.500
  0
VERTEX
  8
Unknown_Area_Type
  10
214338.500
  20
4640292.000
  0
VERTEX
  8
Unknown_Area_Type
  10
214334.000
  20
4640291.500
  0
VERTEX
  8
Unknown_Area_Type
  10
212197.000
  20
4640063.000
  0
VERTEX
  8
Unknown_Area_Type
  10
212009.262
  20
4637088.964
  0
VERTEX
  8
Unknown_Area_Type
  10
214553.604
  20
4636986.410
  0
VERTEX
  8
Unknown_Area_Type
  10
214628.226
  20
4636983.438
  0
SEQEND
  8
Unknown_Area_Type
  0
INSERT
  8
FeatureAttribs
  2
FEATURE
  41
1
  42
1
  43
1
  50
0
  10
207665.668
  20
4638872.582
 66
1
  0
ATTRIB
  8
FeatureAttribs
 70
0
  1
PNOA-H_AMS_1956-57_33k_ES_PAN_2
  2
NAME
  10
207665.668
  20
4638872.582
 40
34.47813
  0
SEQEND
  0
POLYLINE
  8
Unknown_Area_Type
  70
1
  66
1
  0
VERTEX
  8
Unknown_Area_Type
  10
207764.547
  20
4640478.111
  0
VERTEX
  8
Unknown_Area_Type
  10
207727.692
  20
4639580.576
  0
VERTEX
  8
Unknown_Area_Type
  10
207632.733
  20
4637267.053
  0
VERTEX
  8
Unknown_Area_Type
  10
207632.704
  20
4637267.054
  0
VERTEX
  8
Unknown_Area_Type
  10
207632.704
  20
4640464.425
  0
VERTEX
  8
Unknown_Area_Type
  10
207764.547
  20
4640478.111
  0
SEQEND
  8
Unknown_Area_Type
  0
INSERT
  8
FeatureAttribs
  2
FEATURE
  41
1
  42
1
  43
1
  50
0
  10
207632.718
  20
4637266.880
 66
1
  0
ATTRIB
  8
FeatureAttribs
 70
0
  1
PNOA-H_AMS_1956-57_33k_ES_PAN_2
  2
NAME
  10
207632.718
  20
4637266.880
 40
34.47813
  0
SEQEND
  0
POLYLINE
  8
Unknown_Area_Type
  70
1
  66
1
  0
VERTEX
  8
Unknown_Area_Type
  10
207632.704
  20
4637267.054
  0
VERTEX
  8
Unknown_Area_Type
  10
207632.733
  20
4637267.053
  0
VERTEX
  8
Unknown_Area_Type
  10
207632.704
  20
4637266.361
  0
VERTEX
  8
Unknown_Area_Type
  10
207632.704
  20
4637267.054
  0
SEQEND
  8
Unknown_Area_Type
  0
INSERT
  8
FeatureAttribs
  2
FEATURE
  41
1
  42
1
  43
1
  50
0
  10
208434.009
  20
4636725.976
 66
1
  0
ATTRIB
  8
FeatureAttribs
 70
0
  1
PNOA-H_AMS_1956-57_33k_ES_PAN_2
  2
NAME
  10
208434.009
  20
4636725.976
 40
34.47813
  0
SEQEND
  0
POLYLINE
  8
Unknown_Area_Type
  70
1
  66
1
  0
VERTEX
  8
Unknown_Area_Type
  10
209207.290
  20
4636184.899
  0
VERTEX
  8
Unknown_Area_Type
  10
207632.704
  20
4636184.899
  0
VERTEX
  8
Unknown_Area_Type
  10
207632.704
  20
4637266.361
  0
VERTEX
  8
Unknown_Area_Type
  10
207632.733
  20
4637267.053
  0
VERTEX
  8
Unknown_Area_Type
  10
209259.901
  20
4637200.675
  0
VERTEX
  8
Unknown_Area_Type
  10
209207.290
  20
4636184.899
  0
SEQEND
  8
Unknown_Area_Type
  0
INSERT
  8
FeatureAttribs
  2
FEATURE
  41
1
  42
1
  43
1
  50
0
  10
208514.850
  20
4638859.639
 66
1
  0
ATTRIB
  8
FeatureAttribs
 70
0
  1
PNOA-H_AMS_1956-57_33k_ES_PAN_2
  2
NAME
  10
208514.850
  20
4638859.639
 40
34.47813
  0
SEQEND
  0
POLYLINE
  8
Unknown_Area_Type
  70
1
  66
1
  0
VERTEX
  8
Unknown_Area_Type
  10
209259.901
  20
4637200.675
  0
VERTEX
  8
Unknown_Area_Type
  10
207632.733
  20
4637267.053
  0
VERTEX
  8
Unknown_Area_Type
  10
207727.692
  20
4639580.576
  0
VERTEX
  8
Unknown_Area_Type
  10
207764.547
  20
4640478.111
  0
VERTEX
  8
Unknown_Area_Type
  10
208524.500
  20
4640557.000
  0
VERTEX
  8
Unknown_Area_Type
  10
208529.500
  20
4640557.500
  0
VERTEX
  8
Unknown_Area_Type
  10
208721.500
  20
4640577.000
  0
VERTEX
  8
Unknown_Area_Type
  10
209416.000
  20
4640214.500
  0
VERTEX
  8
Unknown_Area_Type
  10
209259.901
  20
4637200.675
  0
SEQEND
  8
Unknown_Area_Type
  0
INSERT
  8
FeatureAttribs
  2
FEATURE
  41
1
  42
1
  43
1
  50
0
  10
208514.850
  20
4638859.639
 66
1
  0
ATTRIB
  8
FeatureAttribs
 70
0
  1
PNOA-H_AMS_1956-57_33k_ES_PAN_2
  2
NAME
  10
208514.850
  20
4638859.639
 40
34.47813
  0
SEQEND
  0
POLYLINE
  8
Unknown_Area_Type
  70
1
  66
1
  0
VERTEX
  8
Unknown_Area_Type
  10
209259.901
  20
4637200.675
  0
VERTEX
  8
Unknown_Area_Type
  10
209416.000
  20
4640214.500
  0
VERTEX
  8
Unknown_Area_Type
  10
208721.500
  20
4640577.000
  0
VERTEX
  8
Unknown_Area_Type
  10
208529.500
  20
4640557.500
  0
VERTEX
  8
Unknown_Area_Type
  10
208524.500
  20
4640557.000
  0
VERTEX
  8
Unknown_Area_Type
  10
207764.547
  20
4640478.111
  0
VERTEX
  8
Unknown_Area_Type
  10
207727.692
  20
4639580.576
  0
VERTEX
  8
Unknown_Area_Type
  10
207632.733
  20
4637267.053
  0
VERTEX
  8
Unknown_Area_Type
  10
209259.901
  20
4637200.675
  0
SEQEND
  8
Unknown_Area_Type
  0
INSERT
  8
FeatureAttribs
  2
FEATURE
  41
1
  42
1
  43
1
  50
0
  10
235602.458
  20
4641034.702
 66
1
  0
ATTRIB
  8
FeatureAttribs
 70
0
  1
PNOA-H_AMS_1956-57_33k_ES_PAN_2
  2
NAME
  10
235602.458
  20
4641034.702
 40
34.47813
  0
SEQEND
  0
POLYLINE
  8
Unknown_Area_Type
  70
1
  66
1
  0
VERTEX
  8
Unknown_Area_Type
  10
235570.892
  20
4643047.905
  0
VERTEX
  8
Unknown_Area_Type
  10
235760.500
  20
4643013.500
  0
VERTEX
  8
Unknown_Area_Type
  10
235659.500
  20
4639142.000
  0
VERTEX
  8
Unknown_Area_Type
  10
235435.000
  20
4639026.500
  0
VERTEX
  8
Unknown_Area_Type
  10
235425.000
  20
4639021.500
  0
VERTEX
  8
Unknown_Area_Type
  10
235421.212
  20
4639021.500
  0
VERTEX
  8
Unknown_Area_Type
  10
235487.751
  20
4640811.797
  0
VERTEX
  8
Unknown_Area_Type
  10
235570.892
  20
4643047.905
  0
SEQEND
  8
Unknown_Area_Type
  0
INSERT
  8
FeatureAttribs
  2
FEATURE
  41
1
  42
1
  43
1
  50
0
  10
234303.087
  20
4641163.180
 66
1
  0
ATTRIB
  8
FeatureAttribs
 70
0
  1
PNOA-H_AMS_1956-57_33k_ES_PAN_2
  2
NAME
  10
234303.087
  20
4641163.180
 40
34.47813
  0
SEQEND
  0
POLYLINE
  8
Unknown_Area_Type
  70
1
  66
1
  0
VERTEX
  8
Unknown_Area_Type
  10
235570.892
  20
4643047.905
  0
VERTEX
  8
Unknown_Area_Type
  10
235487.751
  20
4640811.797
  0
VERTEX
  8
Unknown_Area_Type
  10
235421.212
  20
4639021.500
  0
VERTEX
  8
Unknown_Area_Type
  10
235420.000
  20
4639021.500
  0
VERTEX
  8
Unknown_Area_Type
  10
233001.500
  20
4639227.500
  0
VERTEX
  8
Unknown_Area_Type
  10
233105.500
  20
4641158.500
  0
VERTEX
  8
Unknown_Area_Type
  10
233105.500
  20
4641168.000
  0
VERTEX
  8
Unknown_Area_Type
  10
233211.000
  20
4643125.500
  0
VERTEX
  8
Unknown_Area_Type
  10
233771.000
  20
4643372.500
  0
VERTEX
  8
Unknown_Area_Type
  10
233776.500
  20
4643373.500
  0
VERTEX
  8
Unknown_Area_Type
  10
235570.892
  20
4643047.905
  0
SEQEND
  8
Unknown_Area_Type
  0
INSERT
  8
FeatureAttribs
  2
FEATURE
  41
1
  42
1
  43
1
  50
0
  10
234303.087
  20
4641163.180
 66
1
  0
ATTRIB
  8
FeatureAttribs
 70
0
  1
PNOA-H_AMS_1956-57_33k_ES_PAN_2
  2
NAME
  10
234303.087
  20
4641163.180
 40
34.47813
  0
SEQEND
  0
POLYLINE
  8
Unknown_Area_Type
  70
1
  66
1
  0
VERTEX
  8
Unknown_Area_Type
  10
235570.892
  20
4643047.905
  0
VERTEX
  8
Unknown_Area_Type
  10
233776.500
  20
4643373.500
  0
VERTEX
  8
Unknown_Area_Type
  10
233771.000
  20
4643372.500
  0
VERTEX
  8
Unknown_Area_Type
  10
233211.000
  20
4643125.500
  0
VERTEX
  8
Unknown_Area_Type
  10
233105.500
  20
4641168.000
  0
VERTEX
  8
Unknown_Area_Type
  10
233105.500
  20
4641158.500
  0
VERTEX
  8
Unknown_Area_Type
  10
233001.500
  20
4639227.500
  0
VERTEX
  8
Unknown_Area_Type
  10
235420.000
  20
4639021.500
  0
VERTEX
  8
Unknown_Area_Type
  10
235421.212
  20
4639021.500
  0
VERTEX
  8
Unknown_Area_Type
  10
235487.751
  20
4640811.797
  0
VERTEX
  8
Unknown_Area_Type
  10
235570.892
  20
4643047.905
  0
SEQEND
  8
Unknown_Area_Type
  0
INSERT
  8
FeatureAttribs
  2
FEATURE
  41
1
  42
1
  43
1
  50
0
  10
229252.614
  20
4641452.326
 66
1
  0
ATTRIB
  8
FeatureAttribs
 70
0
  1
PNOA-H_AMS_1956-57_33k_ES_PAN_2
  2
NAME
  10
229252.614
  20
4641452.326
 40
34.47813
  0
SEQEND
  0
POLYLINE
  8
Unknown_Area_Type
  70
1
  66
1
  0
VERTEX
  8
Unknown_Area_Type
  10
229010.000
  20
4643630.500
  0
VERTEX
  8
Unknown_Area_Type
  10
230669.500
  20
4643282.500
  0
VERTEX
  8
Unknown_Area_Type
  10
230427.500
  20
4639351.000
  0
VERTEX
  8
Unknown_Area_Type
  10
230427.000
  20
4639349.000
  0
VERTEX
  8
Unknown_Area_Type
  10
230298.000
  20
4639286.000
  0
VERTEX
  8
Unknown_Area_Type
  10
227882.500
  20
4639467.000
  0
VERTEX
  8
Unknown_Area_Type
  10
228039.500
  20
4643410.000
  0
VERTEX
  8
Unknown_Area_Type
  10
228697.500
  20
4643696.000
  0
VERTEX
  8
Unknown_Area_Type
  10
229008.000
  20
4643630.500
  0
VERTEX
  8
Unknown_Area_Type
  10
229010.000
  20
4643630.500
  0
SEQEND
  8
Unknown_Area_Type
  0
INSERT
  8
FeatureAttribs
  2
FEATURE
  41
1
  42
1
  43
1
  50
0
  10
229252.614
  20
4641452.326
 66
1
  0
ATTRIB
  8
FeatureAttribs
 70
0
  1
PNOA-H_AMS_1956-57_33k_ES_PAN_2
  2
NAME
  10
229252.614
  20
4641452.326
 40
34.47813
  0
SEQEND
  0
POLYLINE
  8
Unknown_Area_Type
  70
1
  66
1
  0
VERTEX
  8
Unknown_Area_Type
  10
229010.000
  20
4643630.500
  0
VERTEX
  8
Unknown_Area_Type
  10
229008.000
  20
4643630.500
  0
VERTEX
  8
Unknown_Area_Type
  10
228697.500
  20
4643696.000
  0
VERTEX
  8
Unknown_Area_Type
  10
228039.500
  20
4643410.000
  0
VERTEX
  8
Unknown_Area_Type
  10
227882.500
  20
4639467.000
  0
VERTEX
  8
Unknown_Area_Type
  10
230298.000
  20
4639286.000
  0
VERTEX
  8
Unknown_Area_Type
  10
230427.000
  20
4639349.000
  0
VERTEX
  8
Unknown_Area_Type
  10
230427.500
  20
4639351.000
  0
VERTEX
  8
Unknown_Area_Type
  10
230669.500
  20
4643282.500
  0
VERTEX
  8
Unknown_Area_Type
  10
229010.000
  20
4643630.500
  0
SEQEND
  8
Unknown_Area_Type
  0
INSERT
  8
FeatureAttribs
  2
FEATURE
  41
1
  42
1
  43
1
  50
0
  10
231824.001
  20
4641292.655
 66
1
  0
ATTRIB
  8
FeatureAttribs
 70
0
  1
PNOA-H_AMS_1956-57_33k_ES_PAN_2
  2
NAME
  10
231824.001
  20
4641292.655
 40
34.47813
  0
SEQEND
  0
POLYLINE
  8
Unknown_Area_Type
  70
1
  66
1
  0
VERTEX
  8
Unknown_Area_Type
  10
231057.500
  20
4643448.500
  0
VERTEX
  8
Unknown_Area_Type
  10
231254.000
  20
4643532.500
  0
VERTEX
  8
Unknown_Area_Type
  10
231260.500
  20
4643534.000
  0
VERTEX
  8
Unknown_Area_Type
  10
233211.000
  20
4643125.500
  0
VERTEX
  8
Unknown_Area_Type
  10
233002.000
  20
4639231.500
  0
VERTEX
  8
Unknown_Area_Type
  10
233001.000
  20
4639227.000
  0
VERTEX
  8
Unknown_Area_Type
  10
232903.000
  20
4639177.500
  0
VERTEX
  8
Unknown_Area_Type
  10
232840.000
  20
4639146.000
  0
VERTEX
  8
Unknown_Area_Type
  10
232838.000
  20
4639146.000
  0
VERTEX
  8
Unknown_Area_Type
  10
230427.000
  20
4639349.500
  0
VERTEX
  8
Unknown_Area_Type
  10
230669.000
  20
4643280.000
  0
VERTEX
  8
Unknown_Area_Type
  10
230669.500
  20
4643282.500
  0
VERTEX
  8
Unknown_Area_Type
  10
230671.500
  20
4643283.500
  0
VERTEX
  8
Unknown_Area_Type
  10
231056.500
  20
4643448.000
  0
VERTEX
  8
Unknown_Area_Type
  10
231057.500
  20
4643448.500
  0
SEQEND
  8
Unknown_Area_Type
  0
INSERT
  8
FeatureAttribs
  2
FEATURE
  41
1
  42
1
  43
1
  50
0
  10
231824.001
  20
4641292.655
 66
1
  0
ATTRIB
  8
FeatureAttribs
 70
0
  1
PNOA-H_AMS_1956-57_33k_ES_PAN_2
  2
NAME
  10
231824.001
  20
4641292.655
 40
34.47813
  0
SEQEND
  0
POLYLINE
  8
Unknown_Area_Type
  70
1
  66
1
  0
VERTEX
  8
Unknown_Area_Type
  10
231057.500
  20
4643448.500
  0
VERTEX
  8
Unknown_Area_Type
  10
231056.500
  20
4643448.000
  0
VERTEX
  8
Unknown_Area_Type
  10
230671.500
  20
4643283.500
  0
VERTEX
  8
Unknown_Area_Type
  10
230669.500
  20
4643282.500
  0
VERTEX
  8
Unknown_Area_Type
  10
230669.000
  20
4643280.000
  0
VERTEX
  8
Unknown_Area_Type
  10
230427.000
  20
4639349.500
  0
VERTEX
  8
Unknown_Area_Type
  10
232838.000
  20
4639146.000
  0
VERTEX
  8
Unknown_Area_Type
  10
232840.000
  20
4639146.000
  0
VERTEX
  8
Unknown_Area_Type
  10
232903.000
  20
4639177.500
  0
VERTEX
  8
Unknown_Area_Type
  10
233001.000
  20
4639227.000
  0
VERTEX
  8
Unknown_Area_Type
  10
233002.000
  20
4639231.500
  0
VERTEX
  8
Unknown_Area_Type
  10
233211.000
  20
4643125.500
  0
VERTEX
  8
Unknown_Area_Type
  10
231260.500
  20
4643534.000
  0
VERTEX
  8
Unknown_Area_Type
  10
231254.000
  20
4643532.500
  0
VERTEX
  8
Unknown_Area_Type
  10
231057.500
  20
4643448.500
  0
SEQEND
  8
Unknown_Area_Type
  0
INSERT
  8
FeatureAttribs
  2
FEATURE
  41
1
  42
1
  43
1
  50
0
  10
226622.716
  20
4641579.729
 66
1
  0
ATTRIB
  8
FeatureAttribs
 70
0
  1
PNOA-H_AMS_1956-57_33k_ES_PAN_2
  2
NAME
  10
226622.716
  20
4641579.729
 40
34.47813
  0
SEQEND
  0
POLYLINE
  8
Unknown_Area_Type
  70
1
  66
1
  0
VERTEX
  8
Unknown_Area_Type
  10
226962.000
  20
4643653.000
  0
VERTEX
  8
Unknown_Area_Type
  10
228039.500
  20
4643409.500
  0
VERTEX
  8
Unknown_Area_Type
  10
227883.000
  20
4639470.500
  0
VERTEX
  8
Unknown_Area_Type
  10
227882.500
  20
4639467.000
  0
VERTEX
  8
Unknown_Area_Type
  10
227878.500
  20
4639464.500
  0
VERTEX
  8
Unknown_Area_Type
  10
227767.000
  20
4639406.500
  0
VERTEX
  8
Unknown_Area_Type
  10
225267.500
  20
4639563.000
  0
VERTEX
  8
Unknown_Area_Type
  10
225316.000
  20
4643516.000
  0
VERTEX
  8
Unknown_Area_Type
  10
226094.000
  20
4643849.000
  0
VERTEX
  8
Unknown_Area_Type
  10
226960.000
  20
4643653.000
  0
VERTEX
  8
Unknown_Area_Type
  10
226962.000
  20
4643653.000
  0
SEQEND
  8
Unknown_Area_Type
  0
INSERT
  8
FeatureAttribs
  2
FEATURE
  41
1
  42
1
  43
1
  50
0
  10
226622.716
  20
4641579.729
 66
1
  0
ATTRIB
  8
FeatureAttribs
 70
0
  1
PNOA-H_AMS_1956-57_33k_ES_PAN_2
  2
NAME
  10
226622.716
  20
4641579.729
 40
34.47813
  0
SEQEND
  0
POLYLINE
  8
Unknown_Area_Type
  70
1
  66
1
  0
VERTEX
  8
Unknown_Area_Type
  10
226962.000
  20
4643653.000
  0
VERTEX
  8
Unknown_Area_Type
  10
226960.000
  20
4643653.000
  0
VERTEX
  8
Unknown_Area_Type
  10
226094.000
  20
4643849.000
  0
VERTEX
  8
Unknown_Area_Type
  10
225316.000
  20
4643516.000
  0
VERTEX
  8
Unknown_Area_Type
  10
225267.500
  20
4639563.000
  0
VERTEX
  8
Unknown_Area_Type
  10
227767.000
  20
4639406.500
  0
VERTEX
  8
Unknown_Area_Type
  10
227878.500
  20
4639464.500
  0
VERTEX
  8
Unknown_Area_Type
  10
227882.500
  20
4639467.000
  0
VERTEX
  8
Unknown_Area_Type
  10
227883.000
  20
4639470.500
  0
VERTEX
  8
Unknown_Area_Type
  10
228039.500
  20
4643409.500
  0
VERTEX
  8
Unknown_Area_Type
  10
226962.000
  20
4643653.000
  0
SEQEND
  8
Unknown_Area_Type
  0
INSERT
  8
FeatureAttribs
  2
FEATURE
  41
1
  42
1
  43
1
  50
0
  10
221266.670
  20
4641780.634
 66
1
  0
ATTRIB
  8
FeatureAttribs
 70
0
  1
PNOA-H_AMS_1956-57_33k_ES_PAN_2
  2
NAME
  10
221266.670
  20
4641780.634
 40
34.47813
  0
SEQEND
  0
POLYLINE
  8
Unknown_Area_Type
  70
1
  66
1
  0
VERTEX
  8
Unknown_Area_Type
  10
220818.000
  20
4644034.500
  0
VERTEX
  8
Unknown_Area_Type
  10
222688.500
  20
4643637.500
  0
VERTEX
  8
Unknown_Area_Type
  10
222547.000
  20
4639660.500
  0
VERTEX
  8
Unknown_Area_Type
  10
222546.000
  20
4639657.500
  0
VERTEX
  8
Unknown_Area_Type
  10
222459.000
  20
4639610.000
  0
VERTEX
  8
Unknown_Area_Type
  10
219850.500
  20
4639798.000
  0
VERTEX
  8
Unknown_Area_Type
  10
219840.500
  20
4639799.000
  0
VERTEX
  8
Unknown_Area_Type
  10
219832.500
  20
4639805.000
  0
VERTEX
  8
Unknown_Area_Type
  10
220012.500
  20
4643782.000
  0
VERTEX
  8
Unknown_Area_Type
  10
220701.000
  20
4644059.000
  0
VERTEX
  8
Unknown_Area_Type
  10
220817.000
  20
4644034.500
  0
VERTEX
  8
Unknown_Area_Type
  10
220818.000
  20
4644034.500
  0
SEQEND
  8
Unknown_Area_Type
  0
INSERT
  8
FeatureAttribs
  2
FEATURE
  41
1
  42
1
  43
1
  50
0
  10
221266.670
  20
4641780.634
 66
1
  0
ATTRIB
  8
FeatureAttribs
 70
0
  1
PNOA-H_AMS_1956-57_33k_ES_PAN_2
  2
NAME
  10
221266.670
  20
4641780.634
 40
34.47813
  0
SEQEND
  0
POLYLINE
  8
Unknown_Area_Type
  70
1
  66
1
  0
VERTEX
  8
Unknown_Area_Type
  10
220818.000
  20
4644034.500
  0
VERTEX
  8
Unknown_Area_Type
  10
220817.000
  20
4644034.500
  0
VERTEX
  8
Unknown_Area_Type
  10
220701.000
  20
4644059.000
  0
VERTEX
  8
Unknown_Area_Type
  10
220012.500
  20
4643782.000
  0
VERTEX
  8
Unknown_Area_Type
  10
219832.500
  20
4639805.000
  0
VERTEX
  8
Unknown_Area_Type
  10
219840.500
  20
4639799.000
  0
VERTEX
  8
Unknown_Area_Type
  10
219850.500
  20
4639798.000
  0
VERTEX
  8
Unknown_Area_Type
  10
222459.000
  20
4639610.000
  0
VERTEX
  8
Unknown_Area_Type
  10
222546.000
  20
4639657.500
  0
VERTEX
  8
Unknown_Area_Type
  10
222547.000
  20
4639660.500
  0
VERTEX
  8
Unknown_Area_Type
  10
222688.500
  20
4643637.500
  0
VERTEX
  8
Unknown_Area_Type
  10
220818.000
  20
4644034.500
  0
SEQEND
  8
Unknown_Area_Type
  0
INSERT
  8
FeatureAttribs
  2
FEATURE
  41
1
  42
1
  43
1
  50
0
  10
223950.651
  20
4641648.437
 66
1
  0
ATTRIB
  8
FeatureAttribs
 70
0
  1
PNOA-H_AMS_1956-57_33k_ES_PAN_2
  2
NAME
  10
223950.651
  20
4641648.437
 40
34.47813
  0
SEQEND
  0
POLYLINE
  8
Unknown_Area_Type
  70
1
  66
1
  0
VERTEX
  8
Unknown_Area_Type
  10
222865.000
  20
4643712.000
  0
VERTEX
  8
Unknown_Area_Type
  10
223437.000
  20
4643952.000
  0
VERTEX
  8
Unknown_Area_Type
  10
225316.000
  20
4643516.000
  0
VERTEX
  8
Unknown_Area_Type
  10
225267.500
  20
4639563.000
  0
VERTEX
  8
Unknown_Area_Type
  10
225125.000
  20
4639483.500
  0
VERTEX
  8
Unknown_Area_Type
  10
222546.500
  20
4639658.000
  0
VERTEX
  8
Unknown_Area_Type
  10
222688.500
  20
4643637.500
  0
VERTEX
  8
Unknown_Area_Type
  10
222864.000
  20
4643711.500
  0
VERTEX
  8
Unknown_Area_Type
  10
222865.000
  20
4643712.000
  0
SEQEND
  8
Unknown_Area_Type
  0
INSERT
  8
FeatureAttribs
  2
FEATURE
  41
1
  42
1
  43
1
  50
0
  10
223950.651
  20
4641648.437
 66
1
  0
ATTRIB
  8
FeatureAttribs
 70
0
  1
PNOA-H_AMS_1956-57_33k_ES_PAN_2
  2
NAME
  10
223950.651
  20
4641648.437
 40
34.47813
  0
SEQEND
  0
POLYLINE
  8
Unknown_Area_Type
  70
1
  66
1
  0
VERTEX
  8
Unknown_Area_Type
  10
222865.000
  20
4643712.000
  0
VERTEX
  8
Unknown_Area_Type
  10
222864.000
  20
4643711.500
  0
VERTEX
  8
Unknown_Area_Type
  10
222688.500
  20
4643637.500
  0
VERTEX
  8
Unknown_Area_Type
  10
222546.500
  20
4639658.000
  0
VERTEX
  8
Unknown_Area_Type
  10
225125.000
  20
4639483.500
  0
VERTEX
  8
Unknown_Area_Type
  10
225267.500
  20
4639563.000
  0
VERTEX
  8
Unknown_Area_Type
  10
225316.000
  20
4643516.000
  0
VERTEX
  8
Unknown_Area_Type
  10
223437.000
  20
4643952.000
  0
VERTEX
  8
Unknown_Area_Type
  10
222865.000
  20
4643712.000
  0
SEQEND
  8
Unknown_Area_Type
  0
INSERT
  8
FeatureAttribs
  2
FEATURE
  41
1
  42
1
  43
1
  50
0
  10
218537.447
  20
4641940.884
 66
1
  0
ATTRIB
  8
FeatureAttribs
 70
0
  1
PNOA-H_AMS_1956-57_33k_ES_PAN_2
  2
NAME
  10
218537.447
  20
4641940.884
 40
34.47813
  0
SEQEND
  0
POLYLINE
  8
Unknown_Area_Type
  70
1
  66
1
  0
VERTEX
  8
Unknown_Area_Type
  10
219841.500
  20
4640008.000
  0
VERTEX
  8
Unknown_Area_Type
  10
219832.500
  20
4639805.000
  0
VERTEX
  8
Unknown_Area_Type
  10
219819.000
  20
4639805.000
  0
VERTEX
  8
Unknown_Area_Type
  10
217353.000
  20
4639848.500
  0
VERTEX
  8
Unknown_Area_Type
  10
217079.500
  20
4640029.000
  0
VERTEX
  8
Unknown_Area_Type
  10
217269.000
  20
4643967.500
  0
VERTEX
  8
Unknown_Area_Type
  10
218046.500
  20
4644252.500
  0
VERTEX
  8
Unknown_Area_Type
  10
220012.500
  20
4643782.000
  0
VERTEX
  8
Unknown_Area_Type
  10
219841.500
  20
4640010.500
  0
VERTEX
  8
Unknown_Area_Type
  10
219841.500
  20
4640008.000
  0
SEQEND
  8
Unknown_Area_Type
  0
INSERT
  8
FeatureAttribs
  2
FEATURE
  41
1
  42
1
  43
1
  50
0
  10
218537.447
  20
4641940.884
 66
1
  0
ATTRIB
  8
FeatureAttribs
 70
0
  1
PNOA-H_AMS_1956-57_33k_ES_PAN_2
  2
NAME
  10
218537.447
  20
4641940.884
 40
34.47813
  0
SEQEND
  0
POLYLINE
  8
Unknown_Area_Type
  70
1
  66
1
  0
VERTEX
  8
Unknown_Area_Type
  10
219841.500
  20
4640008.000
  0
VERTEX
  8
Unknown_Area_Type
  10
219841.500
  20
4640010.500
  0
VERTEX
  8
Unknown_Area_Type
  10
220012.500
  20
4643782.000
  0
VERTEX
  8
Unknown_Area_Type
  10
218046.500
  20
4644252.500
  0
VERTEX
  8
Unknown_Area_Type
  10
217269.000
  20
4643967.500
  0
VERTEX
  8
Unknown_Area_Type
  10
217079.500
  20
4640029.000
  0
VERTEX
  8
Unknown_Area_Type
  10
217353.000
  20
4639848.500
  0
VERTEX
  8
Unknown_Area_Type
  10
219819.000
  20
4639805.000
  0
VERTEX
  8
Unknown_Area_Type
  10
219832.500
  20
4639805.000
  0
VERTEX
  8
Unknown_Area_Type
  10
219841.500
  20
4640008.000
  0
SEQEND
  8
Unknown_Area_Type
  0
INSERT
  8
FeatureAttribs
  2
FEATURE
  41
1
  42
1
  43
1
  50
0
  10
213000.618
  20
4642324.080
 66
1
  0
ATTRIB
  8
FeatureAttribs
 70
0
  1
PNOA-H_AMS_1956-57_33k_ES_PAN_2
  2
NAME
  10
213000.618
  20
4642324.080
 40
34.47813
  0
SEQEND
  0
POLYLINE
  8
Unknown_Area_Type
  70
1
  66
1
  0
VERTEX
  8
Unknown_Area_Type
  10
212722.000
  20
4644649.000
  0
VERTEX
  8
Unknown_Area_Type
  10
214567.000
  20
4644163.000
  0
VERTEX
  8
Unknown_Area_Type
  10
214341.000
  20
4640292.000
  0
VERTEX
  8
Unknown_Area_Type
  10
212197.000
  20
4640063.000
  0
VERTEX
  8
Unknown_Area_Type
  10
211474.000
  20
4640526.000
  0
VERTEX
  8
Unknown_Area_Type
  10
211669.000
  20
4644307.500
  0
VERTEX
  8
Unknown_Area_Type
  10
212720.500
  20
4644648.500
  0
VERTEX
  8
Unknown_Area_Type
  10
212722.000
  20
4644649.000
  0
SEQEND
  8
Unknown_Area_Type
  0
INSERT
  8
FeatureAttribs
  2
FEATURE
  41
1
  42
1
  43
1
  50
0
  10
213000.618
  20
4642324.080
 66
1
  0
ATTRIB
  8
FeatureAttribs
 70
0
  1
PNOA-H_AMS_1956-57_33k_ES_PAN_2
  2
NAME
  10
213000.618
  20
4642324.080
 40
34.47813
  0
SEQEND
  0
POLYLINE
  8
Unknown_Area_Type
  70
1
  66
1
  0
VERTEX
  8
Unknown_Area_Type
  10
212722.000
  20
4644649.000
  0
VERTEX
  8
Unknown_Area_Type
  10
212720.500
  20
4644648.500
  0
VERTEX
  8
Unknown_Area_Type
  10
211669.000
  20
4644307.500
  0
VERTEX
  8
Unknown_Area_Type
  10
211474.000
  20
4640526.000
  0
VERTEX
  8
Unknown_Area_Type
  10
212197.000
  20
4640063.000
  0
VERTEX
  8
Unknown_Area_Type
  10
214341.000
  20
4640292.000
  0
VERTEX
  8
Unknown_Area_Type
  10
214567.000
  20
4644163.000
  0
VERTEX
  8
Unknown_Area_Type
  10
212722.000
  20
4644649.000
  0
SEQEND
  8
Unknown_Area_Type
  0
INSERT
  8
FeatureAttribs
  2
FEATURE
  41
1
  42
1
  43
1
  50
0
  10
210172.002
  20
4642509.215
 66
1
  0
ATTRIB
  8
FeatureAttribs
 70
0
  1
PNOA-H_AMS_1956-57_33k_ES_PAN_2
  2
NAME
  10
210172.002
  20
4642509.215
 40
34.47813
  0
SEQEND
  0
POLYLINE
  8
Unknown_Area_Type
  70
1
  66
1
  0
VERTEX
  8
Unknown_Area_Type
  10
210578.000
  20
4644686.000
  0
VERTEX
  8
Unknown_Area_Type
  10
211669.000
  20
4644307.500
  0
VERTEX
  8
Unknown_Area_Type
  10
211474.000
  20
4640526.000
  0
VERTEX
  8
Unknown_Area_Type
  10
209419.500
  20
4640214.500
  0
VERTEX
  8
Unknown_Area_Type
  10
209415.000
  20
4640214.500
  0
VERTEX
  8
Unknown_Area_Type
  10
208721.000
  20
4640577.000
  0
VERTEX
  8
Unknown_Area_Type
  10
208921.000
  20
4644597.500
  0
VERTEX
  8
Unknown_Area_Type
  10
210130.500
  20
4644841.000
  0
VERTEX
  8
Unknown_Area_Type
  10
210577.000
  20
4644686.000
  0
VERTEX
  8
Unknown_Area_Type
  10
210578.000
  20
4644686.000
  0
SEQEND
  8
Unknown_Area_Type
  0
INSERT
  8
FeatureAttribs
  2
FEATURE
  41
1
  42
1
  43
1
  50
0
  10
210172.002
  20
4642509.215
 66
1
  0
ATTRIB
  8
FeatureAttribs
 70
0
  1
PNOA-H_AMS_1956-57_33k_ES_PAN_2
  2
NAME
  10
210172.002
  20
4642509.215
 40
34.47813
  0
SEQEND
  0
POLYLINE
  8
Unknown_Area_Type
  70
1
  66
1
  0
VERTEX
  8
Unknown_Area_Type
  10
210578.000
  20
4644686.000
  0
VERTEX
  8
Unknown_Area_Type
  10
210577.000
  20
4644686.000
  0
VERTEX
  8
Unknown_Area_Type
  10
210130.500
  20
4644841.000
  0
VERTEX
  8
Unknown_Area_Type
  10
208921.000
  20
4644597.500
  0
VERTEX
  8
Unknown_Area_Type
  10
208721.000
  20
4640577.000
  0
VERTEX
  8
Unknown_Area_Type
  10
209415.000
  20
4640214.500
  0
VERTEX
  8
Unknown_Area_Type
  10
209419.500
  20
4640214.500
  0
VERTEX
  8
Unknown_Area_Type
  10
211474.000
  20
4640526.000
  0
VERTEX
  8
Unknown_Area_Type
  10
211669.000
  20
4644307.500
  0
VERTEX
  8
Unknown_Area_Type
  10
210578.000
  20
4644686.000
  0
SEQEND
  8
Unknown_Area_Type
  0
INSERT
  8
FeatureAttribs
  2
FEATURE
  41
1
  42
1
  43
1
  50
0
  10
214999.872
  20
4644651.120
 66
1
  0
ATTRIB
  8
FeatureAttribs
 70
0
  1
PNOA-H_AMS_1956-57_33k_ES_PAN_2
  2
NAME
  10
214999.872
  20
4644651.120
 40
34.47813
  0
SEQEND
  0
POLYLINE
  8
Unknown_Area_Type
  70
1
  66
1
  0
VERTEX
  8
Unknown_Area_Type
  10
214990.500
  20
4644659.500
  0
VERTEX
  8
Unknown_Area_Type
  10
215004.000
  20
4644659.500
  0
VERTEX
  8
Unknown_Area_Type
  10
215006.000
  20
4644658.000
  0
VERTEX
  8
Unknown_Area_Type
  10
215014.000
  20
4644649.500
  0
VERTEX
  8
Unknown_Area_Type
  10
215014.000
  20
4644645.500
  0
VERTEX
  8
Unknown_Area_Type
  10
215010.500
  20
4644641.500
  0
VERTEX
  8
Unknown_Area_Type
  10
215005.500
  20
4644641.000
  0
VERTEX
  8
Unknown_Area_Type
  10
215001.000
  20
4644646.000
  0
VERTEX
  8
Unknown_Area_Type
  10
214994.000
  20
4644646.000
  0
VERTEX
  8
Unknown_Area_Type
  10
214992.000
  20
4644643.500
  0
VERTEX
  8
Unknown_Area_Type
  10
214985.500
  20
4644650.500
  0
VERTEX
  8
Unknown_Area_Type
  10
214985.500
  20
4644654.500
  0
VERTEX
  8
Unknown_Area_Type
  10
214989.500
  20
4644659.000
  0
VERTEX
  8
Unknown_Area_Type
  10
214990.500
  20
4644659.500
  0
SEQEND
  8
Unknown_Area_Type
  0
INSERT
  8
FeatureAttribs
  2
FEATURE
  41
1
  42
1
  43
1
  50
0
  10
214999.872
  20
4644651.120
 66
1
  0
ATTRIB
  8
FeatureAttribs
 70
0
  1
PNOA-H_AMS_1956-57_33k_ES_PAN_2
  2
NAME
  10
214999.872
  20
4644651.120
 40
34.47813
  0
SEQEND
  0
POLYLINE
  8
Unknown_Area_Type
  70
1
  66
1
  0
VERTEX
  8
Unknown_Area_Type
  10
214990.500
  20
4644659.500
  0
VERTEX
  8
Unknown_Area_Type
  10
214989.500
  20
4644659.000
  0
VERTEX
  8
Unknown_Area_Type
  10
214985.500
  20
4644654.500
  0
VERTEX
  8
Unknown_Area_Type
  10
214985.500
  20
4644650.500
  0
VERTEX
  8
Unknown_Area_Type
  10
214992.000
  20
4644643.500
  0
VERTEX
  8
Unknown_Area_Type
  10
214994.000
  20
4644646.000
  0
VERTEX
  8
Unknown_Area_Type
  10
215001.000
  20
4644646.000
  0
VERTEX
  8
Unknown_Area_Type
  10
215005.500
  20
4644641.000
  0
VERTEX
  8
Unknown_Area_Type
  10
215010.500
  20
4644641.500
  0
VERTEX
  8
Unknown_Area_Type
  10
215014.000
  20
4644645.500
  0
VERTEX
  8
Unknown_Area_Type
  10
215014.000
  20
4644649.500
  0
VERTEX
  8
Unknown_Area_Type
  10
215006.000
  20
4644658.000
  0
VERTEX
  8
Unknown_Area_Type
  10
215004.000
  20
4644659.500
  0
VERTEX
  8
Unknown_Area_Type
  10
214990.500
  20
4644659.500
  0
SEQEND
  8
Unknown_Area_Type
  0
INSERT
  8
FeatureAttribs
  2
FEATURE
  41
1
  42
1
  43
1
  50
0
  10
215802.412
  20
4642125.688
 66
1
  0
ATTRIB
  8
FeatureAttribs
 70
0
  1
PNOA-H_AMS_1956-57_33k_ES_PAN_2
  2
NAME
  10
215802.412
  20
4642125.688
 40
34.47813
  0
SEQEND
  0
POLYLINE
  8
Unknown_Area_Type
  70
1
  66
1
  0
VERTEX
  8
Unknown_Area_Type
  10
214673.000
  20
4644199.000
  0
VERTEX
  8
Unknown_Area_Type
  10
215403.000
  20
4644445.500
  0
VERTEX
  8
Unknown_Area_Type
  10
215413.500
  20
4644448.000
  0
VERTEX
  8
Unknown_Area_Type
  10
217269.000
  20
4643967.500
  0
VERTEX
  8
Unknown_Area_Type
  10
217079.500
  20
4640029.000
  0
VERTEX
  8
Unknown_Area_Type
  10
214911.500
  20
4639958.000
  0
VERTEX
  8
Unknown_Area_Type
  10
214341.000
  20
4640292.000
  0
VERTEX
  8
Unknown_Area_Type
  10
214567.000
  20
4644163.000
  0
VERTEX
  8
Unknown_Area_Type
  10
214671.500
  20
4644198.500
  0
VERTEX
  8
Unknown_Area_Type
  10
214673.000
  20
4644199.000
  0
SEQEND
  8
Unknown_Area_Type
  0
INSERT
  8
FeatureAttribs
  2
FEATURE
  41
1
  42
1
  43
1
  50
0
  10
215802.412
  20
4642125.688
 66
1
  0
ATTRIB
  8
FeatureAttribs
 70
0
  1
PNOA-H_AMS_1956-57_33k_ES_PAN_2
  2
NAME
  10
215802.412
  20
4642125.688
 40
34.47813
  0
SEQEND
  0
POLYLINE
  8
Unknown_Area_Type
  70
1
  66
1
  0
VERTEX
  8
Unknown_Area_Type
  10
214673.000
  20
4644199.000
  0
VERTEX
  8
Unknown_Area_Type
  10
214671.500
  20
4644198.500
  0
VERTEX
  8
Unknown_Area_Type
  10
214567.000
  20
4644163.000
  0
VERTEX
  8
Unknown_Area_Type
  10
214341.000
  20
4640292.000
  0
VERTEX
  8
Unknown_Area_Type
  10
214911.500
  20
4639958.000
  0
VERTEX
  8
Unknown_Area_Type
  10
217079.500
  20
4640029.000
  0
VERTEX
  8
Unknown_Area_Type
  10
217269.000
  20
4643967.500
  0
VERTEX
  8
Unknown_Area_Type
  10
215413.500
  20
4644448.000
  0
VERTEX
  8
Unknown_Area_Type
  10
215403.000
  20
4644445.500
  0
VERTEX
  8
Unknown_Area_Type
  10
214673.000
  20
4644199.000
  0
SEQEND
  8
Unknown_Area_Type
  0
INSERT
  8
FeatureAttribs
  2
FEATURE
  41
1
  42
1
  43
1
  50
0
  10
235336.873
  20
4636765.276
 66
1
  0
ATTRIB
  8
FeatureAttribs
 70
0
  1
PNOA-H_AMS_1956-57_33k_ES_PAN_2
  2
NAME
  10
235336.873
  20
4636765.276
 40
34.47813
  0
SEQEND
  0
POLYLINE
  8
Unknown_Area_Type
  70
1
  66
1
  0
VERTEX
  8
Unknown_Area_Type
  10
235359.963
  20
4637373.052
  0
VERTEX
  8
Unknown_Area_Type
  10
235315.823
  20
4636184.918
  0
VERTEX
  8
Unknown_Area_Type
  10
235313.783
  20
4636184.995
  0
VERTEX
  8
Unknown_Area_Type
  10
235359.963
  20
4637373.052
  0
SEQEND
  8
Unknown_Area_Type
  0
INSERT
  8
FeatureAttribs
  2
FEATURE
  41
1
  42
1
  43
1
  50
0
  10
235336.873
  20
4636765.276
 66
1
  0
ATTRIB
  8
FeatureAttribs
 70
0
  1
PNOA-H_AMS_1956-57_33k_ES_PAN_2
  2
NAME
  10
235336.873
  20
4636765.276
 40
34.47813
  0
SEQEND
  0
POLYLINE
  8
Unknown_Area_Type
  70
1
  66
1
  0
VERTEX
  8
Unknown_Area_Type
  10
235359.963
  20
4637373.052
  0
VERTEX
  8
Unknown_Area_Type
  10
235315.823
  20
4636184.918
  0
VERTEX
  8
Unknown_Area_Type
  10
235313.783
  20
4636184.995
  0
VERTEX
  8
Unknown_Area_Type
  10
235359.963
  20
4637373.052
  0
SEQEND
  8
Unknown_Area_Type
  0
INSERT
  8
FeatureAttribs
  2
FEATURE
  41
1
  42
1
  43
1
  50
0
  10
235314.423
  20
4636184.947
 66
1
  0
ATTRIB
  8
FeatureAttribs
 70
0
  1
PNOA-H_AMS_1956-57_33k_ES_PAN_2
  2
NAME
  10
235314.423
  20
4636184.947
 40
34.47813
  0
SEQEND
  0
POLYLINE
  8
Unknown_Area_Type
  70
1
  66
1
  0
VERTEX
  8
Unknown_Area_Type
  10
235313.783
  20
4636184.995
  0
VERTEX
  8
Unknown_Area_Type
  10
235315.823
  20
4636184.918
  0
VERTEX
  8
Unknown_Area_Type
  10
235315.822
  20
4636184.899
  0
VERTEX
  8
Unknown_Area_Type
  10
235313.779
  20
4636184.899
  0
VERTEX
  8
Unknown_Area_Type
  10
235313.783
  20
4636184.995
  0
SEQEND
  8
Unknown_Area_Type
  0
INSERT
  8
FeatureAttribs
  2
FEATURE
  41
1
  42
1
  43
1
  50
0
  10
235315.955
  20
4636184.909
 66
1
  0
ATTRIB
  8
FeatureAttribs
 70
0
  1
PNOA-H_AMS_1956-57_33k_ES_PAN_2
  2
NAME
  10
235315.955
  20
4636184.909
 40
34.47813
  0
SEQEND
  0
POLYLINE
  8
Unknown_Area_Type
  70
1
  66
1
  0
VERTEX
  8
Unknown_Area_Type
  10
235315.823
  20
4636184.918
  0
VERTEX
  8
Unknown_Area_Type
  10
235316.353
  20
4636184.899
  0
VERTEX
  8
Unknown_Area_Type
  10
235315.822
  20
4636184.899
  0
VERTEX
  8
Unknown_Area_Type
  10
235315.823
  20
4636184.918
  0
SEQEND
  8
Unknown_Area_Type
  0
INSERT
  8
FeatureAttribs
  2
FEATURE
  41
1
  42
1
  43
1
  50
0
  10
235687.833
  20
4637663.699
 66
1
  0
ATTRIB
  8
FeatureAttribs
 70
0
  1
PNOA-H_AMS_1956-57_33k_ES_PAN_2
  2
NAME
  10
235687.833
  20
4637663.699
 40
34.47813
  0
SEQEND
  0
POLYLINE
  8
Unknown_Area_Type
  70
1
  66
1
  0
VERTEX
  8
Unknown_Area_Type
  10
236004.405
  20
4639112.222
  0
VERTEX
  8
Unknown_Area_Type
  10
236004.405
  20
4636184.899
  0
VERTEX
  8
Unknown_Area_Type
  10
235316.353
  20
4636184.899
  0
VERTEX
  8
Unknown_Area_Type
  10
235315.823
  20
4636184.918
  0
VERTEX
  8
Unknown_Area_Type
  10
235359.963
  20
4637373.052
  0
VERTEX
  8
Unknown_Area_Type
  10
235424.000
  20
4639020.500
  0
VERTEX
  8
Unknown_Area_Type
  10
235425.000
  20
4639022.000
  0
VERTEX
  8
Unknown_Area_Type
  10
235435.500
  20
4639027.500
  0
VERTEX
  8
Unknown_Area_Type
  10
235654.500
  20
4639140.000
  0
VERTEX
  8
Unknown_Area_Type
  10
235659.500
  20
4639142.500
  0
VERTEX
  8
Unknown_Area_Type
  10
235662.000
  20
4639142.500
  0
VERTEX
  8
Unknown_Area_Type
  10
236004.405
  20
4639112.222
  0
SEQEND
  8
Unknown_Area_Type
  0
INSERT
  8
FeatureAttribs
  2
FEATURE
  41
1
  42
1
  43
1
  50
0
  10
235857.824
  20
4641122.130
 66
1
  0
ATTRIB
  8
FeatureAttribs
 70
0
  1
PNOA-H_AMS_1956-57_33k_ES_PAN_2
  2
NAME
  10
235857.824
  20
4641122.130
 40
34.47813
  0
SEQEND
  0
POLYLINE
  8
Unknown_Area_Type
  70
1
  66
1
  0
VERTEX
  8
Unknown_Area_Type
  10
236004.405
  20
4639111.838
  0
VERTEX
  8
Unknown_Area_Type
  10
235662.000
  20
4639142.000
  0
VERTEX
  8
Unknown_Area_Type
  10
235660.000
  20
4639142.500
  0
VERTEX
  8
Unknown_Area_Type
  10
235660.000
  20
4639154.000
  0
VERTEX
  8
Unknown_Area_Type
  10
235760.500
  20
4643014.000
  0
VERTEX
  8
Unknown_Area_Type
  10
236004.405
  20
4643132.422
  0
VERTEX
  8
Unknown_Area_Type
  10
236004.405
  20
4639111.838
  0
SEQEND
  8
Unknown_Area_Type
  0
INSERT
  8
FeatureAttribs
  2
FEATURE
  41
1
  42
1
  43
1
  50
0
  10
207723.276
  20
4647921.609
 66
1
  0
ATTRIB
  8
FeatureAttribs
 70
0
  1
PNOA-H_AMS_1956-57_33k_ES_PAN_2
  2
NAME
  10
207723.276
  20
4647921.609
 40
34.47813
  0
SEQEND
  0
POLYLINE
  8
Unknown_Area_Type
  70
1
  66
1
  0
VERTEX
  8
Unknown_Area_Type
  10
207632.704
  20
4649531.939
  0
VERTEX
  8
Unknown_Area_Type
  10
207972.500
  20
4649332.000
  0
VERTEX
  8
Unknown_Area_Type
  10
207632.704
  20
4646311.279
  0
VERTEX
  8
Unknown_Area_Type
  10
207632.704
  20
4649531.939
  0
SEQEND
  8
Unknown_Area_Type
  0
INSERT
  8
FeatureAttribs
  2
FEATURE
  41
1
  42
1
  43
1
  50
0
  10
207880.774
  20
4647123.777
 66
1
  0
ATTRIB
  8
FeatureAttribs
 70
0
  1
PNOA-H_AMS_1956-57_33k_ES_PAN_2
  2
NAME
  10
207880.774
  20
4647123.777
 40
34.47813
  0
SEQEND
  0
POLYLINE
  8
Unknown_Area_Type
  70
1
  66
1
  0
VERTEX
  8
Unknown_Area_Type
  10
208128.618
  20
4649337.997
  0
VERTEX
  8
Unknown_Area_Type
  10
208107.919
  20
4648834.723
  0
VERTEX
  8
Unknown_Area_Type
  10
208012.804
  20
4646521.178
  0
VERTEX
  8
Unknown_Area_Type
  10
207946.574
  20
4644909.557
  0
VERTEX
  8
Unknown_Area_Type
  10
207632.704
  20
4645010.216
  0
VERTEX
  8
Unknown_Area_Type
  10
207632.704
  20
4646311.792
  0
VERTEX
  8
Unknown_Area_Type
  10
207972.000
  20
4649330.500
  0
VERTEX
  8
Unknown_Area_Type
  10
207972.500
  20
4649332.000
  0
VERTEX
  8
Unknown_Area_Type
  10
207984.500
  20
4649332.500
  0
VERTEX
  8
Unknown_Area_Type
  10
208128.618
  20
4649337.997
  0
SEQEND
  8
Unknown_Area_Type
  0
INSERT
  8
FeatureAttribs
  2
FEATURE
  41
1
  42
1
  43
1
  50
0
  10
209192.090
  20
4647092.240
 66
1
  0
ATTRIB
  8
FeatureAttribs
 70
0
  1
PNOA-H_AMS_1956-57_33k_ES_PAN_2
  2
NAME
  10
209192.090
  20
4647092.240
 40
34.47813
  0
SEQEND
  0
POLYLINE
  8
Unknown_Area_Type
  70
1
  66
1
  0
VERTEX
  8
Unknown_Area_Type
  10
208128.618
  20
4649337.997
  0
VERTEX
  8
Unknown_Area_Type
  10
210173.500
  20
4649416.000
  0
VERTEX
  8
Unknown_Area_Type
  10
210187.000
  20
4649416.500
  0
VERTEX
  8
Unknown_Area_Type
  10
210200.500
  20
4649416.500
  0
VERTEX
  8
Unknown_Area_Type
  10
210202.500
  20
4649415.500
  0
VERTEX
  8
Unknown_Area_Type
  10
210543.500
  20
4649218.500
  0
VERTEX
  8
Unknown_Area_Type
  10
210544.500
  20
4649214.500
  0
VERTEX
  8
Unknown_Area_Type
  10
210131.500
  20
4644841.500
  0
VERTEX
  8
Unknown_Area_Type
  10
210130.500
  20
4644840.500
  0
VERTEX
  8
Unknown_Area_Type
  10
210091.000
  20
4644832.500
  0
VERTEX
  8
Unknown_Area_Type
  10
208923.500
  20
4644597.500
  0
VERTEX
  8
Unknown_Area_Type
  10
208916.500
  20
4644598.500
  0
VERTEX
  8
Unknown_Area_Type
  10
207946.574
  20
4644909.557
  0
VERTEX
  8
Unknown_Area_Type
  10
208012.804
  20
4646521.178
  0
VERTEX
  8
Unknown_Area_Type
  10
208107.919
  20
4648834.723
  0
VERTEX
  8
Unknown_Area_Type
  10
208128.618
  20
4649337.997
  0
SEQEND
  8
Unknown_Area_Type
  0
INSERT
  8
FeatureAttribs
  2
FEATURE
  41
1
  42
1
  43
1
  50
0
  10
209192.090
  20
4647092.240
 66
1
  0
ATTRIB
  8
FeatureAttribs
 70
0
  1
PNOA-H_AMS_1956-57_33k_ES_PAN_2
  2
NAME
  10
209192.090
  20
4647092.240
 40
34.47813
  0
SEQEND
  0
POLYLINE
  8
Unknown_Area_Type
  70
1
  66
1
  0
VERTEX
  8
Unknown_Area_Type
  10
208128.618
  20
4649337.997
  0
VERTEX
  8
Unknown_Area_Type
  10
208107.919
  20
4648834.723
  0
VERTEX
  8
Unknown_Area_Type
  10
208012.804
  20
4646521.178
  0
VERTEX
  8
Unknown_Area_Type
  10
207946.574
  20
4644909.557
  0
VERTEX
  8
Unknown_Area_Type
  10
208916.500
  20
4644598.500
  0
VERTEX
  8
Unknown_Area_Type
  10
208923.500
  20
4644597.500
  0
VERTEX
  8
Unknown_Area_Type
  10
210091.000
  20
4644832.500
  0
VERTEX
  8
Unknown_Area_Type
  10
210130.500
  20
4644840.500
  0
VERTEX
  8
Unknown_Area_Type
  10
210131.500
  20
4644841.500
  0
VERTEX
  8
Unknown_Area_Type
  10
210544.500
  20
4649214.500
  0
VERTEX
  8
Unknown_Area_Type
  10
210543.500
  20
4649218.500
  0
VERTEX
  8
Unknown_Area_Type
  10
210202.500
  20
4649415.500
  0
VERTEX
  8
Unknown_Area_Type
  10
210200.500
  20
4649416.500
  0
VERTEX
  8
Unknown_Area_Type
  10
210187.000
  20
4649416.500
  0
VERTEX
  8
Unknown_Area_Type
  10
210173.500
  20
4649416.000
  0
VERTEX
  8
Unknown_Area_Type
  10
208128.618
  20
4649337.997
  0
SEQEND
  8
Unknown_Area_Type
  0
INSERT
  8
FeatureAttribs
  2
FEATURE
  41
1
  42
1
  43
1
  50
0
  10
224874.012
  20
4645896.476
 66
1
  0
ATTRIB
  8
FeatureAttribs
 70
0
  1
PNOA-H_AMS_1956-57_33k_ES_PAN_2
  2
NAME
  10
224874.012
  20
4645896.476
 40
34.47813
  0
SEQEND
  0
POLYLINE
  8
Unknown_Area_Type
  70
1
  66
1
  0
VERTEX
  8
Unknown_Area_Type
  10
226110.500
  20
4644104.000
  0
VERTEX
  8
Unknown_Area_Type
  10
226094.000
  20
4643848.500
  0
VERTEX
  8
Unknown_Area_Type
  10
225317.000
  20
4643516.000
  0
VERTEX
  8
Unknown_Area_Type
  10
223436.000
  20
4643952.000
  0
VERTEX
  8
Unknown_Area_Type
  10
223640.500
  20
4648055.500
  0
VERTEX
  8
Unknown_Area_Type
  10
224003.500
  20
4648226.500
  0
VERTEX
  8
Unknown_Area_Type
  10
226349.500
  20
4647866.000
  0
VERTEX
  8
Unknown_Area_Type
  10
226110.500
  20
4644110.000
  0
VERTEX
  8
Unknown_Area_Type
  10
226110.500
  20
4644104.000
  0
SEQEND
  8
Unknown_Area_Type
  0
INSERT
  8
FeatureAttribs
  2
FEATURE
  41
1
  42
1
  43
1
  50
0
  10
224874.012
  20
4645896.476
 66
1
  0
ATTRIB
  8
FeatureAttribs
 70
0
  1
PNOA-H_AMS_1956-57_33k_ES_PAN_2
  2
NAME
  10
224874.012
  20
4645896.476
 40
34.47813
  0
SEQEND
  0
POLYLINE
  8
Unknown_Area_Type
  70
1
  66
1
  0
VERTEX
  8
Unknown_Area_Type
  10
226110.500
  20
4644104.000
  0
VERTEX
  8
Unknown_Area_Type
  10
226110.500
  20
4644110.000
  0
VERTEX
  8
Unknown_Area_Type
  10
226349.500
  20
4647866.000
  0
VERTEX
  8
Unknown_Area_Type
  10
224003.500
  20
4648226.500
  0
VERTEX
  8
Unknown_Area_Type
  10
223640.500
  20
4648055.500
  0
VERTEX
  8
Unknown_Area_Type
  10
223436.000
  20
4643952.000
  0
VERTEX
  8
Unknown_Area_Type
  10
225317.000
  20
4643516.000
  0
VERTEX
  8
Unknown_Area_Type
  10
226094.000
  20
4643848.500
  0
VERTEX
  8
Unknown_Area_Type
  10
226110.500
  20
4644104.000
  0
SEQEND
  8
Unknown_Area_Type
  0
INSERT
  8
FeatureAttribs
  2
FEATURE
  41
1
  42
1
  43
1
  50
0
  10
214989.043
  20
4644649.416
 66
1
  0
ATTRIB
  8
FeatureAttribs
 70
0
  1
PNOA-H_AMS_1956-57_33k_ES_PAN_2
  2
NAME
  10
214989.043
  20
4644649.416
 40
34.47813
  0
SEQEND
  0
POLYLINE
  8
Unknown_Area_Type
  70
1
  66
1
  0
VERTEX
  8
Unknown_Area_Type
  10
214999.500
  20
4644664.000
  0
VERTEX
  8
Unknown_Area_Type
  10
215000.500
  20
4644663.500
  0
VERTEX
  8
Unknown_Area_Type
  10
215013.000
  20
4644651.000
  0
VERTEX
  8
Unknown_Area_Type
  10
215014.000
  20
4644649.500
  0
VERTEX
  8
Unknown_Area_Type
  10
215013.500
  20
4644644.500
  0
VERTEX
  8
Unknown_Area_Type
  10
215009.500
  20
4644641.000
  0
VERTEX
  8
Unknown_Area_Type
  10
215005.500
  20
4644641.000
  0
VERTEX
  8
Unknown_Area_Type
  10
215001.000
  20
4644646.000
  0
VERTEX
  8
Unknown_Area_Type
  10
214994.000
  20
4644646.000
  0
VERTEX
  8
Unknown_Area_Type
  10
214989.000
  20
4644641.000
  0
VERTEX
  8
Unknown_Area_Type
  10
214989.000
  20
4644635.500
  0
VERTEX
  8
Unknown_Area_Type
  10
214985.500
  20
4644631.500
  0
VERTEX
  8
Unknown_Area_Type
  10
214974.500
  20
4644631.500
  0
VERTEX
  8
Unknown_Area_Type
  10
214971.000
  20
4644635.500
  0
VERTEX
  8
Unknown_Area_Type
  10
214971.500
  20
4644655.500
  0
VERTEX
  8
Unknown_Area_Type
  10
214980.500
  20
4644664.000
  0
VERTEX
  8
Unknown_Area_Type
  10
214999.500
  20
4644664.000
  0
SEQEND
  8
Unknown_Area_Type
  0
INSERT
  8
FeatureAttribs
  2
FEATURE
  41
1
  42
1
  43
1
  50
0
  10
214989.043
  20
4644649.416
 66
1
  0
ATTRIB
  8
FeatureAttribs
 70
0
  1
PNOA-H_AMS_1956-57_33k_ES_PAN_2
  2
NAME
  10
214989.043
  20
4644649.416
 40
34.47813
  0
SEQEND
  0
POLYLINE
  8
Unknown_Area_Type
  70
1
  66
1
  0
VERTEX
  8
Unknown_Area_Type
  10
214999.500
  20
4644664.000
  0
VERTEX
  8
Unknown_Area_Type
  10
214980.500
  20
4644664.000
  0
VERTEX
  8
Unknown_Area_Type
  10
214971.500
  20
4644655.500
  0
VERTEX
  8
Unknown_Area_Type
  10
214971.000
  20
4644635.500
  0
VERTEX
  8
Unknown_Area_Type
  10
214974.500
  20
4644631.500
  0
VERTEX
  8
Unknown_Area_Type
  10
214985.500
  20
4644631.500
  0
VERTEX
  8
Unknown_Area_Type
  10
214989.000
  20
4644635.500
  0
VERTEX
  8
Unknown_Area_Type
  10
214989.000
  20
4644641.000
  0
VERTEX
  8
Unknown_Area_Type
  10
214994.000
  20
4644646.000
  0
VERTEX
  8
Unknown_Area_Type
  10
215001.000
  20
4644646.000
  0
VERTEX
  8
Unknown_Area_Type
  10
215005.500
  20
4644641.000
  0
VERTEX
  8
Unknown_Area_Type
  10
215009.500
  20
4644641.000
  0
VERTEX
  8
Unknown_Area_Type
  10
215013.500
  20
4644644.500
  0
VERTEX
  8
Unknown_Area_Type
  10
215014.000
  20
4644649.500
  0
VERTEX
  8
Unknown_Area_Type
  10
215013.000
  20
4644651.000
  0
VERTEX
  8
Unknown_Area_Type
  10
215000.500
  20
4644663.500
  0
VERTEX
  8
Unknown_Area_Type
  10
214999.500
  20
4644664.000
  0
SEQEND
  8
Unknown_Area_Type
  0
INSERT
  8
FeatureAttribs
  2
FEATURE
  41
1
  42
1
  43
1
  50
0
  10
214955.112
  20
4644610.000
 66
1
  0
ATTRIB
  8
FeatureAttribs
 70
0
  1
PNOA-H_AMS_1956-57_33k_ES_PAN_2
  2
NAME
  10
214955.112
  20
4644610.000
 40
34.47813
  0
SEQEND
  0
POLYLINE
  8
Unknown_Area_Type
  70
1
  66
1
  0
VERTEX
  8
Unknown_Area_Type
  10
214959.500
  20
4644619.000
  0
VERTEX
  8
Unknown_Area_Type
  10
214960.500
  20
4644618.500
  0
VERTEX
  8
Unknown_Area_Type
  10
214964.000
  20
4644614.500
  0
VERTEX
  8
Unknown_Area_Type
  10
214963.500
  20
4644604.500
  0
VERTEX
  8
Unknown_Area_Type
  10
214959.500
  20
4644601.000
  0
VERTEX
  8
Unknown_Area_Type
  10
214949.500
  20
4644601.500
  0
VERTEX
  8
Unknown_Area_Type
  10
214946.000
  20
4644605.500
  0
VERTEX
  8
Unknown_Area_Type
  10
214946.500
  20
4644610.500
  0
VERTEX
  8
Unknown_Area_Type
  10
214954.500
  20
4644618.500
  0
VERTEX
  8
Unknown_Area_Type
  10
214959.500
  20
4644619.000
  0
SEQEND
  8
Unknown_Area_Type
  0
INSERT
  8
FeatureAttribs
  2
FEATURE
  41
1
  42
1
  43
1
  50
0
  10
214955.112
  20
4644610.000
 66
1
  0
ATTRIB
  8
FeatureAttribs
 70
0
  1
PNOA-H_AMS_1956-57_33k_ES_PAN_2
  2
NAME
  10
214955.112
  20
4644610.000
 40
34.47813
  0
SEQEND
  0
POLYLINE
  8
Unknown_Area_Type
  70
1
  66
1
  0
VERTEX
  8
Unknown_Area_Type
  10
214959.500
  20
4644619.000
  0
VERTEX
  8
Unknown_Area_Type
  10
214954.500
  20
4644618.500
  0
VERTEX
  8
Unknown_Area_Type
  10
214946.500
  20
4644610.500
  0
VERTEX
  8
Unknown_Area_Type
  10
214946.000
  20
4644605.500
  0
VERTEX
  8
Unknown_Area_Type
  10
214949.500
  20
4644601.500
  0
VERTEX
  8
Unknown_Area_Type
  10
214959.500
  20
4644601.000
  0
VERTEX
  8
Unknown_Area_Type
  10
214963.500
  20
4644604.500
  0
VERTEX
  8
Unknown_Area_Type
  10
214964.000
  20
4644614.500
  0
VERTEX
  8
Unknown_Area_Type
  10
214960.500
  20
4644618.500
  0
VERTEX
  8
Unknown_Area_Type
  10
214959.500
  20
4644619.000
  0
SEQEND
  8
Unknown_Area_Type
  0
INSERT
  8
FeatureAttribs
  2
FEATURE
  41
1
  42
1
  43
1
  50
0
  10
214269.733
  20
4646526.729
 66
1
  0
ATTRIB
  8
FeatureAttribs
 70
0
  1
PNOA-H_AMS_1956-57_33k_ES_PAN_2
  2
NAME
  10
214269.733
  20
4646526.729
 40
34.47813
  0
SEQEND
  0
POLYLINE
  8
Unknown_Area_Type
  70
1
  66
1
  0
VERTEX
  8
Unknown_Area_Type
  10
215484.500
  20
4648759.000
  0
VERTEX
  8
Unknown_Area_Type
  10
215494.500
  20
4648758.500
  0
VERTEX
  8
Unknown_Area_Type
  10
215767.000
  20
4648585.000
  0
VERTEX
  8
Unknown_Area_Type
  10
215768.000
  20
4648582.500
  0
VERTEX
  8
Unknown_Area_Type
  10
215412.000
  20
4644448.000
  0
VERTEX
  8
Unknown_Area_Type
  10
214568.000
  20
4644163.000
  0
VERTEX
  8
Unknown_Area_Type
  10
212722.500
  20
4644649.000
  0
VERTEX
  8
Unknown_Area_Type
  10
213108.500
  20
4648634.000
  0
VERTEX
  8
Unknown_Area_Type
  10
215475.000
  20
4648758.500
  0
VERTEX
  8
Unknown_Area_Type
  10
215484.500
  20
4648759.000
  0
SEQEND
  8
Unknown_Area_Type
  0
INSERT
  8
FeatureAttribs
  2
FEATURE
  41
1
  42
1
  43
1
  50
0
  10
214269.733
  20
4646526.729
 66
1
  0
ATTRIB
  8
FeatureAttribs
 70
0
  1
PNOA-H_AMS_1956-57_33k_ES_PAN_2
  2
NAME
  10
214269.733
  20
4646526.729
 40
34.47813
  0
SEQEND
  0
POLYLINE
  8
Unknown_Area_Type
  70
1
  66
1
  0
VERTEX
  8
Unknown_Area_Type
  10
215484.500
  20
4648759.000
  0
VERTEX
  8
Unknown_Area_Type
  10
215475.000
  20
4648758.500
  0
VERTEX
  8
Unknown_Area_Type
  10
213108.500
  20
4648634.000
  0
VERTEX
  8
Unknown_Area_Type
  10
212722.500
  20
4644649.000
  0
VERTEX
  8
Unknown_Area_Type
  10
214568.000
  20
4644163.000
  0
VERTEX
  8
Unknown_Area_Type
  10
215412.000
  20
4644448.000
  0
VERTEX
  8
Unknown_Area_Type
  10
215768.000
  20
4648582.500
  0
VERTEX
  8
Unknown_Area_Type
  10
215767.000
  20
4648585.000
  0
VERTEX
  8
Unknown_Area_Type
  10
215494.500
  20
4648758.500
  0
VERTEX
  8
Unknown_Area_Type
  10
215484.500
  20
4648759.000
  0
SEQEND
  8
Unknown_Area_Type
  0
INSERT
  8
FeatureAttribs
  2
FEATURE
  41
1
  42
1
  43
1
  50
0
  10
214981.898
  20
4644648.221
 66
1
  0
ATTRIB
  8
FeatureAttribs
 70
0
  1
PNOA-H_AMS_1956-57_33k_ES_PAN_2
  2
NAME
  10
214981.898
  20
4644648.221
 40
34.47813
  0
SEQEND
  0
POLYLINE
  8
Unknown_Area_Type
  70
1
  66
1
  0
VERTEX
  8
Unknown_Area_Type
  10
214980.500
  20
4644664.000
  0
VERTEX
  8
Unknown_Area_Type
  10
214999.500
  20
4644664.000
  0
VERTEX
  8
Unknown_Area_Type
  10
215003.500
  20
4644660.500
  0
VERTEX
  8
Unknown_Area_Type
  10
215003.500
  20
4644659.500
  0
VERTEX
  8
Unknown_Area_Type
  10
214990.500
  20
4644659.500
  0
VERTEX
  8
Unknown_Area_Type
  10
214986.000
  20
4644655.500
  0
VERTEX
  8
Unknown_Area_Type
  10
214985.500
  20
4644650.500
  0
VERTEX
  8
Unknown_Area_Type
  10
214991.000
  20
4644645.500
  0
VERTEX
  8
Unknown_Area_Type
  10
214992.000
  20
4644643.000
  0
VERTEX
  8
Unknown_Area_Type
  10
214989.000
  20
4644641.000
  0
VERTEX
  8
Unknown_Area_Type
  10
214989.000
  20
4644635.500
  0
VERTEX
  8
Unknown_Area_Type
  10
214985.500
  20
4644631.500
  0
VERTEX
  8
Unknown_Area_Type
  10
214975.500
  20
4644631.000
  0
VERTEX
  8
Unknown_Area_Type
  10
214971.000
  20
4644635.500
  0
VERTEX
  8
Unknown_Area_Type
  10
214971.000
  20
4644654.500
  0
VERTEX
  8
Unknown_Area_Type
  10
214979.500
  20
4644663.500
  0
VERTEX
  8
Unknown_Area_Type
  10
214980.500
  20
4644664.000
  0
SEQEND
  8
Unknown_Area_Type
  0
INSERT
  8
FeatureAttribs
  2
FEATURE
  41
1
  42
1
  43
1
  50
0
  10
214981.898
  20
4644648.221
 66
1
  0
ATTRIB
  8
FeatureAttribs
 70
0
  1
PNOA-H_AMS_1956-57_33k_ES_PAN_2
  2
NAME
  10
214981.898
  20
4644648.221
 40
34.47813
  0
SEQEND
  0
POLYLINE
  8
Unknown_Area_Type
  70
1
  66
1
  0
VERTEX
  8
Unknown_Area_Type
  10
214980.500
  20
4644664.000
  0
VERTEX
  8
Unknown_Area_Type
  10
214979.500
  20
4644663.500
  0
VERTEX
  8
Unknown_Area_Type
  10
214971.000
  20
4644654.500
  0
VERTEX
  8
Unknown_Area_Type
  10
214971.000
  20
4644635.500
  0
VERTEX
  8
Unknown_Area_Type
  10
214975.500
  20
4644631.000
  0
VERTEX
  8
Unknown_Area_Type
  10
214985.500
  20
4644631.500
  0
VERTEX
  8
Unknown_Area_Type
  10
214989.000
  20
4644635.500
  0
VERTEX
  8
Unknown_Area_Type
  10
214989.000
  20
4644641.000
  0
VERTEX
  8
Unknown_Area_Type
  10
214992.000
  20
4644643.000
  0
VERTEX
  8
Unknown_Area_Type
  10
214991.000
  20
4644645.500
  0
VERTEX
  8
Unknown_Area_Type
  10
214985.500
  20
4644650.500
  0
VERTEX
  8
Unknown_Area_Type
  10
214986.000
  20
4644655.500
  0
VERTEX
  8
Unknown_Area_Type
  10
214990.500
  20
4644659.500
  0
VERTEX
  8
Unknown_Area_Type
  10
215003.500
  20
4644659.500
  0
VERTEX
  8
Unknown_Area_Type
  10
215003.500
  20
4644660.500
  0
VERTEX
  8
Unknown_Area_Type
  10
214999.500
  20
4644664.000
  0
VERTEX
  8
Unknown_Area_Type
  10
214980.500
  20
4644664.000
  0
SEQEND
  8
Unknown_Area_Type
  0
INSERT
  8
FeatureAttribs
  2
FEATURE
  41
1
  42
1
  43
1
  50
0
  10
214955.225
  20
4644610.000
 66
1
  0
ATTRIB
  8
FeatureAttribs
 70
0
  1
PNOA-H_AMS_1956-57_33k_ES_PAN_2
  2
NAME
  10
214955.225
  20
4644610.000
 40
34.47813
  0
SEQEND
  0
POLYLINE
  8
Unknown_Area_Type
  70
1
  66
1
  0
VERTEX
  8
Unknown_Area_Type
  10
214955.500
  20
4644619.000
  0
VERTEX
  8
Unknown_Area_Type
  10
214960.500
  20
4644618.500
  0
VERTEX
  8
Unknown_Area_Type
  10
214964.000
  20
4644614.500
  0
VERTEX
  8
Unknown_Area_Type
  10
214964.000
  20
4644605.500
  0
VERTEX
  8
Unknown_Area_Type
  10
214960.500
  20
4644601.500
  0
VERTEX
  8
Unknown_Area_Type
  10
214950.500
  20
4644601.000
  0
VERTEX
  8
Unknown_Area_Type
  10
214946.000
  20
4644605.500
  0
VERTEX
  8
Unknown_Area_Type
  10
214946.500
  20
4644610.500
  0
VERTEX
  8
Unknown_Area_Type
  10
214954.500
  20
4644618.500
  0
VERTEX
  8
Unknown_Area_Type
  10
214955.500
  20
4644619.000
  0
SEQEND
  8
Unknown_Area_Type
  0
INSERT
  8
FeatureAttribs
  2
FEATURE
  41
1
  42
1
  43
1
  50
0
  10
214955.225
  20
4644610.000
 66
1
  0
ATTRIB
  8
FeatureAttribs
 70
0
  1
PNOA-H_AMS_1956-57_33k_ES_PAN_2
  2
NAME
  10
214955.225
  20
4644610.000
 40
34.47813
  0
SEQEND
  0
POLYLINE
  8
Unknown_Area_Type
  70
1
  66
1
  0
VERTEX
  8
Unknown_Area_Type
  10
214955.500
  20
4644619.000
  0
VERTEX
  8
Unknown_Area_Type
  10
214954.500
  20
4644618.500
  0
VERTEX
  8
Unknown_Area_Type
  10
214946.500
  20
4644610.500
  0
VERTEX
  8
Unknown_Area_Type
  10
214946.000
  20
4644605.500
  0
VERTEX
  8
Unknown_Area_Type
  10
214950.500
  20
4644601.000
  0
VERTEX
  8
Unknown_Area_Type
  10
214960.500
  20
4644601.500
  0
VERTEX
  8
Unknown_Area_Type
  10
214964.000
  20
4644605.500
  0
VERTEX
  8
Unknown_Area_Type
  10
214964.000
  20
4644614.500
  0
VERTEX
  8
Unknown_Area_Type
  10
214960.500
  20
4644618.500
  0
VERTEX
  8
Unknown_Area_Type
  10
214955.500
  20
4644619.000
  0
SEQEND
  8
Unknown_Area_Type
  0
INSERT
  8
FeatureAttribs
  2
FEATURE
  41
1
  42
1
  43
1
  50
0
  10
216930.148
  20
4646382.242
 66
1
  0
ATTRIB
  8
FeatureAttribs
 70
0
  1
PNOA-H_AMS_1956-57_33k_ES_PAN_2
  2
NAME
  10
216930.148
  20
4646382.242
 40
34.47813
  0
SEQEND
  0
POLYLINE
  8
Unknown_Area_Type
  70
1
  66
1
  0
VERTEX
  8
Unknown_Area_Type
  10
217641.000
  20
4644104.000
  0
VERTEX
  8
Unknown_Area_Type
  10
217268.500
  20
4643967.500
  0
VERTEX
  8
Unknown_Area_Type
  10
215412.000
  20
4644448.000
  0
VERTEX
  8
Unknown_Area_Type
  10
215768.000
  20
4648584.000
  0
VERTEX
  8
Unknown_Area_Type
  10
218307.000
  20
4648576.000
  0
VERTEX
  8
Unknown_Area_Type
  10
218450.500
  20
4648478.000
  0
VERTEX
  8
Unknown_Area_Type
  10
218046.500
  20
4644252.500
  0
VERTEX
  8
Unknown_Area_Type
  10
217642.500
  20
4644104.000
  0
VERTEX
  8
Unknown_Area_Type
  10
217641.000
  20
4644104.000
  0
SEQEND
  8
Unknown_Area_Type
  0
INSERT
  8
FeatureAttribs
  2
FEATURE
  41
1
  42
1
  43
1
  50
0
  10
216930.148
  20
4646382.242
 66
1
  0
ATTRIB
  8
FeatureAttribs
 70
0
  1
PNOA-H_AMS_1956-57_33k_ES_PAN_2
  2
NAME
  10
216930.148
  20
4646382.242
 40
34.47813
  0
SEQEND
  0
POLYLINE
  8
Unknown_Area_Type
  70
1
  66
1
  0
VERTEX
  8
Unknown_Area_Type
  10
217641.000
  20
4644104.000
  0
VERTEX
  8
Unknown_Area_Type
  10
217642.500
  20
4644104.000
  0
VERTEX
  8
Unknown_Area_Type
  10
218046.500
  20
4644252.500
  0
VERTEX
  8
Unknown_Area_Type
  10
218450.500
  20
4648478.000
  0
VERTEX
  8
Unknown_Area_Type
  10
218307.000
  20
4648576.000
  0
VERTEX
  8
Unknown_Area_Type
  10
215768.000
  20
4648584.000
  0
VERTEX
  8
Unknown_Area_Type
  10
215412.000
  20
4644448.000
  0
VERTEX
  8
Unknown_Area_Type
  10
217268.500
  20
4643967.500
  0
VERTEX
  8
Unknown_Area_Type
  10
217641.000
  20
4644104.000
  0
SEQEND
  8
Unknown_Area_Type
  0
INSERT
  8
FeatureAttribs
  2
FEATURE
  41
1
  42
1
  43
1
  50
0
  10
227526.114
  20
4645780.822
 66
1
  0
ATTRIB
  8
FeatureAttribs
 70
0
  1
PNOA-H_AMS_1956-57_33k_ES_PAN_2
  2
NAME
  10
227526.114
  20
4645780.822
 40
34.47813
  0
SEQEND
  0
POLYLINE
  8
Unknown_Area_Type
  70
1
  66
1
  0
VERTEX
  8
Unknown_Area_Type
  10
227041.000
  20
4648151.500
  0
VERTEX
  8
Unknown_Area_Type
  10
228964.000
  20
4647701.500
  0
VERTEX
  8
Unknown_Area_Type
  10
228697.500
  20
4643695.500
  0
VERTEX
  8
Unknown_Area_Type
  10
228038.500
  20
4643409.500
  0
VERTEX
  8
Unknown_Area_Type
  10
226094.000
  20
4643849.000
  0
VERTEX
  8
Unknown_Area_Type
  10
226349.500
  20
4647866.000
  0
VERTEX
  8
Unknown_Area_Type
  10
227040.000
  20
4648151.000
  0
VERTEX
  8
Unknown_Area_Type
  10
227041.000
  20
4648151.500
  0
SEQEND
  8
Unknown_Area_Type
  0
INSERT
  8
FeatureAttribs
  2
FEATURE
  41
1
  42
1
  43
1
  50
0
  10
227526.114
  20
4645780.822
 66
1
  0
ATTRIB
  8
FeatureAttribs
 70
0
  1
PNOA-H_AMS_1956-57_33k_ES_PAN_2
  2
NAME
  10
227526.114
  20
4645780.822
 40
34.47813
  0
SEQEND
  0
POLYLINE
  8
Unknown_Area_Type
  70
1
  66
1
  0
VERTEX
  8
Unknown_Area_Type
  10
227041.000
  20
4648151.500
  0
VERTEX
  8
Unknown_Area_Type
  10
227040.000
  20
4648151.000
  0
VERTEX
  8
Unknown_Area_Type
  10
226349.500
  20
4647866.000
  0
VERTEX
  8
Unknown_Area_Type
  10
226094.000
  20
4643849.000
  0
VERTEX
  8
Unknown_Area_Type
  10
228038.500
  20
4643409.500
  0
VERTEX
  8
Unknown_Area_Type
  10
228697.500
  20
4643695.500
  0
VERTEX
  8
Unknown_Area_Type
  10
228964.000
  20
4647701.500
  0
VERTEX
  8
Unknown_Area_Type
  10
227041.000
  20
4648151.500
  0
SEQEND
  8
Unknown_Area_Type
  0
INSERT
  8
FeatureAttribs
  2
FEATURE
  41
1
  42
1
  43
1
  50
0
  10
232650.721
  20
4645535.290
 66
1
  0
ATTRIB
  8
FeatureAttribs
 70
0
  1
PNOA-H_AMS_1956-57_33k_ES_PAN_2
  2
NAME
  10
232650.721
  20
4645535.290
 40
34.47813
  0
SEQEND
  0
POLYLINE
  8
Unknown_Area_Type
  70
1
  66
1
  0
VERTEX
  8
Unknown_Area_Type
  10
231510.000
  20
4647642.000
  0
VERTEX
  8
Unknown_Area_Type
  10
232808.500
  20
4647890.500
  0
VERTEX
  8
Unknown_Area_Type
  10
233103.000
  20
4647849.500
  0
VERTEX
  8
Unknown_Area_Type
  10
233106.000
  20
4647849.500
  0
VERTEX
  8
Unknown_Area_Type
  10
233413.500
  20
4647807.000
  0
VERTEX
  8
Unknown_Area_Type
  10
233998.000
  20
4647593.500
  0
VERTEX
  8
Unknown_Area_Type
  10
233774.500
  20
4643373.500
  0
VERTEX
  8
Unknown_Area_Type
  10
233212.000
  20
4643125.500
  0
VERTEX
  8
Unknown_Area_Type
  10
231258.500
  20
4643534.000
  0
VERTEX
  8
Unknown_Area_Type
  10
231510.000
  20
4647642.000
  0
SEQEND
  8
Unknown_Area_Type
  0
INSERT
  8
FeatureAttribs
  2
FEATURE
  41
1
  42
1
  43
1
  50
0
  10
232650.721
  20
4645535.290
 66
1
  0
ATTRIB
  8
FeatureAttribs
 70
0
  1
PNOA-H_AMS_1956-57_33k_ES_PAN_2
  2
NAME
  10
232650.721
  20
4645535.290
 40
34.47813
  0
SEQEND
  0
POLYLINE
  8
Unknown_Area_Type
  70
1
  66
1
  0
VERTEX
  8
Unknown_Area_Type
  10
231510.000
  20
4647642.000
  0
VERTEX
  8
Unknown_Area_Type
  10
231258.500
  20
4643534.000
  0
VERTEX
  8
Unknown_Area_Type
  10
233212.000
  20
4643125.500
  0
VERTEX
  8
Unknown_Area_Type
  10
233774.500
  20
4643373.500
  0
VERTEX
  8
Unknown_Area_Type
  10
233998.000
  20
4647593.500
  0
VERTEX
  8
Unknown_Area_Type
  10
233413.500
  20
4647807.000
  0
VERTEX
  8
Unknown_Area_Type
  10
233106.000
  20
4647849.500
  0
VERTEX
  8
Unknown_Area_Type
  10
233103.000
  20
4647849.500
  0
VERTEX
  8
Unknown_Area_Type
  10
232808.500
  20
4647890.500
  0
VERTEX
  8
Unknown_Area_Type
  10
231510.000
  20
4647642.000
  0
SEQEND
  8
Unknown_Area_Type
  0
INSERT
  8
FeatureAttribs
  2
FEATURE
  41
1
  42
1
  43
1
  50
0
  10
222201.726
  20
4645993.975
 66
1
  0
ATTRIB
  8
FeatureAttribs
 70
0
  1
PNOA-H_AMS_1956-57_33k_ES_PAN_2
  2
NAME
  10
222201.726
  20
4645993.975
 40
34.47813
  0
SEQEND
  0
POLYLINE
  8
Unknown_Area_Type
  70
1
  66
1
  0
VERTEX
  8
Unknown_Area_Type
  10
220817.500
  20
4645444.000
  0
VERTEX
  8
Unknown_Area_Type
  10
221051.500
  20
4648246.500
  0
VERTEX
  8
Unknown_Area_Type
  10
221056.500
  20
4648306.000
  0
VERTEX
  8
Unknown_Area_Type
  10
221057.500
  20
4648308.500
  0
VERTEX
  8
Unknown_Area_Type
  10
221099.500
  20
4648329.000
  0
VERTEX
  8
Unknown_Area_Type
  10
221105.500
  20
4648330.500
  0
VERTEX
  8
Unknown_Area_Type
  10
223640.500
  20
4648055.500
  0
VERTEX
  8
Unknown_Area_Type
  10
223439.500
  20
4644013.500
  0
VERTEX
  8
Unknown_Area_Type
  10
223436.500
  20
4643953.500
  0
VERTEX
  8
Unknown_Area_Type
  10
223435.500
  20
4643951.500
  0
VERTEX
  8
Unknown_Area_Type
  10
222688.000
  20
4643637.500
  0
VERTEX
  8
Unknown_Area_Type
  10
220702.000
  20
4644059.000
  0
VERTEX
  8
Unknown_Area_Type
  10
220817.500
  20
4645438.000
  0
VERTEX
  8
Unknown_Area_Type
  10
220817.500
  20
4645444.000
  0
SEQEND
  8
Unknown_Area_Type
  0
INSERT
  8
FeatureAttribs
  2
FEATURE
  41
1
  42
1
  43
1
  50
0
  10
222201.726
  20
4645993.975
 66
1
  0
ATTRIB
  8
FeatureAttribs
 70
0
  1
PNOA-H_AMS_1956-57_33k_ES_PAN_2
  2
NAME
  10
222201.726
  20
4645993.975
 40
34.47813
  0
SEQEND
  0
POLYLINE
  8
Unknown_Area_Type
  70
1
  66
1
  0
VERTEX
  8
Unknown_Area_Type
  10
220817.500
  20
4645444.000
  0
VERTEX
  8
Unknown_Area_Type
  10
220817.500
  20
4645438.000
  0
VERTEX
  8
Unknown_Area_Type
  10
220702.000
  20
4644059.000
  0
VERTEX
  8
Unknown_Area_Type
  10
222688.000
  20
4643637.500
  0
VERTEX
  8
Unknown_Area_Type
  10
223435.500
  20
4643951.500
  0
VERTEX
  8
Unknown_Area_Type
  10
223436.500
  20
4643953.500
  0
VERTEX
  8
Unknown_Area_Type
  10
223439.500
  20
4644013.500
  0
VERTEX
  8
Unknown_Area_Type
  10
223640.500
  20
4648055.500
  0
VERTEX
  8
Unknown_Area_Type
  10
221105.500
  20
4648330.500
  0
VERTEX
  8
Unknown_Area_Type
  10
221099.500
  20
4648329.000
  0
VERTEX
  8
Unknown_Area_Type
  10
221057.500
  20
4648308.500
  0
VERTEX
  8
Unknown_Area_Type
  10
221056.500
  20
4648306.000
  0
VERTEX
  8
Unknown_Area_Type
  10
221051.500
  20
4648246.500
  0
VERTEX
  8
Unknown_Area_Type
  10
220817.500
  20
4645444.000
  0
SEQEND
  8
Unknown_Area_Type
  0
INSERT
  8
FeatureAttribs
  2
FEATURE
  41
1
  42
1
  43
1
  50
0
  10
211615.548
  20
4646820.964
 66
1
  0
ATTRIB
  8
FeatureAttribs
 70
0
  1
PNOA-H_AMS_1956-57_33k_ES_PAN_2
  2
NAME
  10
211615.548
  20
4646820.964
 40
34.47813
  0
SEQEND
  0
POLYLINE
  8
Unknown_Area_Type
  70
1
  66
1
  0
VERTEX
  8
Unknown_Area_Type
  10
210544.500
  20
4649217.500
  0
VERTEX
  8
Unknown_Area_Type
  10
212208.500
  20
4649195.500
  0
VERTEX
  8
Unknown_Area_Type
  10
213108.500
  20
4648634.000
  0
VERTEX
  8
Unknown_Area_Type
  10
212722.500
  20
4644649.000
  0
VERTEX
  8
Unknown_Area_Type
  10
211668.500
  20
4644307.500
  0
VERTEX
  8
Unknown_Area_Type
  10
210131.000
  20
4644841.000
  0
VERTEX
  8
Unknown_Area_Type
  10
210544.500
  20
4649214.500
  0
VERTEX
  8
Unknown_Area_Type
  10
210544.500
  20
4649217.500
  0
SEQEND
  8
Unknown_Area_Type
  0
INSERT
  8
FeatureAttribs
  2
FEATURE
  41
1
  42
1
  43
1
  50
0
  10
211615.548
  20
4646820.964
 66
1
  0
ATTRIB
  8
FeatureAttribs
 70
0
  1
PNOA-H_AMS_1956-57_33k_ES_PAN_2
  2
NAME
  10
211615.548
  20
4646820.964
 40
34.47813
  0
SEQEND
  0
POLYLINE
  8
Unknown_Area_Type
  70
1
  66
1
  0
VERTEX
  8
Unknown_Area_Type
  10
210544.500
  20
4649217.500
  0
VERTEX
  8
Unknown_Area_Type
  10
210544.500
  20
4649214.500
  0
VERTEX
  8
Unknown_Area_Type
  10
210131.000
  20
4644841.000
  0
VERTEX
  8
Unknown_Area_Type
  10
211668.500
  20
4644307.500
  0
VERTEX
  8
Unknown_Area_Type
  10
212722.500
  20
4644649.000
  0
VERTEX
  8
Unknown_Area_Type
  10
213108.500
  20
4648634.000
  0
VERTEX
  8
Unknown_Area_Type
  10
212208.500
  20
4649195.500
  0
VERTEX
  8
Unknown_Area_Type
  10
210544.500
  20
4649217.500
  0
SEQEND
  8
Unknown_Area_Type
  0
INSERT
  8
FeatureAttribs
  2
FEATURE
  41
1
  42
1
  43
1
  50
0
  10
230120.692
  20
4645668.383
 66
1
  0
ATTRIB
  8
FeatureAttribs
 70
0
  1
PNOA-H_AMS_1956-57_33k_ES_PAN_2
  2
NAME
  10
230120.692
  20
4645668.383
 40
34.47813
  0
SEQEND
  0
POLYLINE
  8
Unknown_Area_Type
  70
1
  66
1
  0
VERTEX
  8
Unknown_Area_Type
  10
229009.000
  20
4647715.500
  0
VERTEX
  8
Unknown_Area_Type
  10
230110.000
  20
4648056.000
  0
VERTEX
  8
Unknown_Area_Type
  10
230118.000
  20
4648056.500
  0
VERTEX
  8
Unknown_Area_Type
  10
230286.000
  20
4648041.000
  0
VERTEX
  8
Unknown_Area_Type
  10
231510.000
  20
4647642.000
  0
VERTEX
  8
Unknown_Area_Type
  10
231259.000
  20
4643536.000
  0
VERTEX
  8
Unknown_Area_Type
  10
231258.000
  20
4643533.500
  0
VERTEX
  8
Unknown_Area_Type
  10
230670.500
  20
4643282.500
  0
VERTEX
  8
Unknown_Area_Type
  10
230662.000
  20
4643283.500
  0
VERTEX
  8
Unknown_Area_Type
  10
228698.000
  20
4643696.000
  0
VERTEX
  8
Unknown_Area_Type
  10
228963.500
  20
4647697.500
  0
VERTEX
  8
Unknown_Area_Type
  10
228964.000
  20
4647701.500
  0
VERTEX
  8
Unknown_Area_Type
  10
229007.500
  20
4647715.000
  0
VERTEX
  8
Unknown_Area_Type
  10
229009.000
  20
4647715.500
  0
SEQEND
  8
Unknown_Area_Type
  0
INSERT
  8
FeatureAttribs
  2
FEATURE
  41
1
  42
1
  43
1
  50
0
  10
230120.692
  20
4645668.383
 66
1
  0
ATTRIB
  8
FeatureAttribs
 70
0
  1
PNOA-H_AMS_1956-57_33k_ES_PAN_2
  2
NAME
  10
230120.692
  20
4645668.383
 40
34.47813
  0
SEQEND
  0
POLYLINE
  8
Unknown_Area_Type
  70
1
  66
1
  0
VERTEX
  8
Unknown_Area_Type
  10
229009.000
  20
4647715.500
  0
VERTEX
  8
Unknown_Area_Type
  10
229007.500
  20
4647715.000
  0
VERTEX
  8
Unknown_Area_Type
  10
228964.000
  20
4647701.500
  0
VERTEX
  8
Unknown_Area_Type
  10
228963.500
  20
4647697.500
  0
VERTEX
  8
Unknown_Area_Type
  10
228698.000
  20
4643696.000
  0
VERTEX
  8
Unknown_Area_Type
  10
230662.000
  20
4643283.500
  0
VERTEX
  8
Unknown_Area_Type
  10
230670.500
  20
4643282.500
  0
VERTEX
  8
Unknown_Area_Type
  10
231258.000
  20
4643533.500
  0
VERTEX
  8
Unknown_Area_Type
  10
231259.000
  20
4643536.000
  0
VERTEX
  8
Unknown_Area_Type
  10
231510.000
  20
4647642.000
  0
VERTEX
  8
Unknown_Area_Type
  10
230286.000
  20
4648041.000
  0
VERTEX
  8
Unknown_Area_Type
  10
230118.000
  20
4648056.500
  0
VERTEX
  8
Unknown_Area_Type
  10
230110.000
  20
4648056.000
  0
VERTEX
  8
Unknown_Area_Type
  10
229009.000
  20
4647715.500
  0
SEQEND
  8
Unknown_Area_Type
  0
INSERT
  8
FeatureAttribs
  2
FEATURE
  41
1
  42
1
  43
1
  50
0
  10
219565.283
  20
4646183.961
 66
1
  0
ATTRIB
  8
FeatureAttribs
 70
0
  1
PNOA-H_AMS_1956-57_33k_ES_PAN_2
  2
NAME
  10
219565.283
  20
4646183.961
 40
34.47813
  0
SEQEND
  0
POLYLINE
  8
Unknown_Area_Type
  70
1
  66
1
  0
VERTEX
  8
Unknown_Area_Type
  10
218770.000
  20
4648457.000
  0
VERTEX
  8
Unknown_Area_Type
  10
221057.000
  20
4648308.000
  0
VERTEX
  8
Unknown_Area_Type
  10
220702.500
  20
4644061.000
  0
VERTEX
  8
Unknown_Area_Type
  10
220702.000
  20
4644059.000
  0
VERTEX
  8
Unknown_Area_Type
  10
220684.000
  20
4644051.500
  0
VERTEX
  8
Unknown_Area_Type
  10
220013.500
  20
4643782.000
  0
VERTEX
  8
Unknown_Area_Type
  10
218046.500
  20
4644252.000
  0
VERTEX
  8
Unknown_Area_Type
  10
218450.000
  20
4648475.500
  0
VERTEX
  8
Unknown_Area_Type
  10
218450.500
  20
4648477.500
  0
VERTEX
  8
Unknown_Area_Type
  10
218458.500
  20
4648477.500
  0
VERTEX
  8
Unknown_Area_Type
  10
218765.500
  20
4648457.000
  0
VERTEX
  8
Unknown_Area_Type
  10
218770.000
  20
4648457.000
  0
SEQEND
  8
Unknown_Area_Type
  0
INSERT
  8
FeatureAttribs
  2
FEATURE
  41
1
  42
1
  43
1
  50
0
  10
219565.283
  20
4646183.961
 66
1
  0
ATTRIB
  8
FeatureAttribs
 70
0
  1
PNOA-H_AMS_1956-57_33k_ES_PAN_2
  2
NAME
  10
219565.283
  20
4646183.961
 40
34.47813
  0
SEQEND
  0
POLYLINE
  8
Unknown_Area_Type
  70
1
  66
1
  0
VERTEX
  8
Unknown_Area_Type
  10
218770.000
  20
4648457.000
  0
VERTEX
  8
Unknown_Area_Type
  10
218765.500
  20
4648457.000
  0
VERTEX
  8
Unknown_Area_Type
  10
218458.500
  20
4648477.500
  0
VERTEX
  8
Unknown_Area_Type
  10
218450.500
  20
4648477.500
  0
VERTEX
  8
Unknown_Area_Type
  10
218450.000
  20
4648475.500
  0
VERTEX
  8
Unknown_Area_Type
  10
218046.500
  20
4644252.000
  0
VERTEX
  8
Unknown_Area_Type
  10
220013.500
  20
4643782.000
  0
VERTEX
  8
Unknown_Area_Type
  10
220684.000
  20
4644051.500
  0
VERTEX
  8
Unknown_Area_Type
  10
220702.000
  20
4644059.000
  0
VERTEX
  8
Unknown_Area_Type
  10
220702.500
  20
4644061.000
  0
VERTEX
  8
Unknown_Area_Type
  10
221057.000
  20
4648308.000
  0
VERTEX
  8
Unknown_Area_Type
  10
218770.000
  20
4648457.000
  0
SEQEND
  8
Unknown_Area_Type
  0
INSERT
  8
FeatureAttribs
  2
FEATURE
  41
1
  42
1
  43
1
  50
0
  10
235830.778
  20
4645366.980
 66
1
  0
ATTRIB
  8
FeatureAttribs
 70
0
  1
PNOA-H_AMS_1956-57_33k_ES_PAN_2
  2
NAME
  10
235830.778
  20
4645366.980
 40
34.47813
  0
SEQEND
  0
POLYLINE
  8
Unknown_Area_Type
  70
1
  66
1
  0
VERTEX
  8
Unknown_Area_Type
  10
236004.405
  20
4647666.818
  0
VERTEX
  8
Unknown_Area_Type
  10
236004.405
  20
4643132.026
  0
VERTEX
  8
Unknown_Area_Type
  10
235760.500
  20
4643013.500
  0
VERTEX
  8
Unknown_Area_Type
  10
235570.890
  20
4643047.870
  0
VERTEX
  8
Unknown_Area_Type
  10
235573.767
  20
4643125.245
  0
VERTEX
  8
Unknown_Area_Type
  10
235659.819
  20
4645438.699
  0
VERTEX
  8
Unknown_Area_Type
  10
235744.727
  20
4647720.460
  0
VERTEX
  8
Unknown_Area_Type
  10
236004.405
  20
4647666.818
  0
SEQEND
  8
Unknown_Area_Type
  0
INSERT
  8
FeatureAttribs
  2
FEATURE
  41
1
  42
1
  43
1
  50
0
  10
234788.742
  20
4645438.534
 66
1
  0
ATTRIB
  8
FeatureAttribs
 70
0
  1
PNOA-H_AMS_1956-57_33k_ES_PAN_2
  2
NAME
  10
234788.742
  20
4645438.534
 40
34.47813
  0
SEQEND
  0
POLYLINE
  8
Unknown_Area_Type
  70
1
  66
1
  0
VERTEX
  8
Unknown_Area_Type
  10
235744.727
  20
4647720.460
  0
VERTEX
  8
Unknown_Area_Type
  10
235659.819
  20
4645438.699
  0
VERTEX
  8
Unknown_Area_Type
  10
235573.767
  20
4643125.245
  0
VERTEX
  8
Unknown_Area_Type
  10
235570.890
  20
4643047.870
  0
VERTEX
  8
Unknown_Area_Type
  10
233774.500
  20
4643373.500
  0
VERTEX
  8
Unknown_Area_Type
  10
233998.000
  20
4647593.500
  0
VERTEX
  8
Unknown_Area_Type
  10
235452.500
  20
4647779.500
  0
VERTEX
  8
Unknown_Area_Type
  10
235456.500
  20
4647780.000
  0
VERTEX
  8
Unknown_Area_Type
  10
235744.727
  20
4647720.460
  0
SEQEND
  8
Unknown_Area_Type
  0
INSERT
  8
FeatureAttribs
  2
FEATURE
  41
1
  42
1
  43
1
  50
0
  10
234788.742
  20
4645438.534
 66
1
  0
ATTRIB
  8
FeatureAttribs
 70
0
  1
PNOA-H_AMS_1956-57_33k_ES_PAN_2
  2
NAME
  10
234788.742
  20
4645438.534
 40
34.47813
  0
SEQEND
  0
POLYLINE
  8
Unknown_Area_Type
  70
1
  66
1
  0
VERTEX
  8
Unknown_Area_Type
  10
235744.727
  20
4647720.460
  0
VERTEX
  8
Unknown_Area_Type
  10
235456.500
  20
4647780.000
  0
VERTEX
  8
Unknown_Area_Type
  10
235452.500
  20
4647779.500
  0
VERTEX
  8
Unknown_Area_Type
  10
233998.000
  20
4647593.500
  0
VERTEX
  8
Unknown_Area_Type
  10
233774.500
  20
4643373.500
  0
VERTEX
  8
Unknown_Area_Type
  10
235570.890
  20
4643047.870
  0
VERTEX
  8
Unknown_Area_Type
  10
235573.767
  20
4643125.245
  0
VERTEX
  8
Unknown_Area_Type
  10
235659.819
  20
4645438.699
  0
VERTEX
  8
Unknown_Area_Type
  10
235744.727
  20
4647720.460
  0
SEQEND
  8
Unknown_Area_Type
  0
INSERT
  8
FeatureAttribs
  2
FEATURE
  41
1
  42
1
  43
1
  50
0
  10
235921.323
  20
4650232.431
 66
1
  0
ATTRIB
  8
FeatureAttribs
 70
0
  1
PNOA-H_AMS_1956-57_33k_ES_PAN_2
  2
NAME
  10
235921.323
  20
4650232.431
 40
34.47813
  0
SEQEND
  0
POLYLINE
  8
Unknown_Area_Type
  70
1
  66
1
  0
VERTEX
  8
Unknown_Area_Type
  10
236004.405
  20
4652798.195
  0
VERTEX
  8
Unknown_Area_Type
  10
236004.405
  20
4647666.667
  0
VERTEX
  8
Unknown_Area_Type
  10
235744.724
  20
4647720.382
  0
VERTEX
  8
Unknown_Area_Type
  10
235745.906
  20
4647752.159
  0
VERTEX
  8
Unknown_Area_Type
  10
235832.028
  20
4650065.624
  0
VERTEX
  8
Unknown_Area_Type
  10
235918.185
  20
4652379.096
  0
VERTEX
  8
Unknown_Area_Type
  10
235933.675
  20
4652794.861
  0
VERTEX
  8
Unknown_Area_Type
  10
236004.405
  20
4652798.195
  0
SEQEND
  8
Unknown_Area_Type
  0
INSERT
  8
FeatureAttribs
  2
FEATURE
  41
1
  42
1
  43
1
  50
0
  10
235577.382
  20
4650637.110
 66
1
  0
ATTRIB
  8
FeatureAttribs
 70
0
  1
PNOA-H_AMS_1956-57_33k_ES_PAN_2
  2
NAME
  10
235577.382
  20
4650637.110
 40
34.47813
  0
SEQEND
  0
POLYLINE
  8
Unknown_Area_Type
  70
1
  66
1
  0
VERTEX
  8
Unknown_Area_Type
  10
235933.675
  20
4652794.861
  0
VERTEX
  8
Unknown_Area_Type
  10
235918.185
  20
4652379.096
  0
VERTEX
  8
Unknown_Area_Type
  10
235832.028
  20
4650065.624
  0
VERTEX
  8
Unknown_Area_Type
  10
235745.906
  20
4647752.159
  0
VERTEX
  8
Unknown_Area_Type
  10
235744.724
  20
4647720.382
  0
VERTEX
  8
Unknown_Area_Type
  10
235456.500
  20
4647780.000
  0
VERTEX
  8
Unknown_Area_Type
  10
235183.500
  20
4652759.500
  0
VERTEX
  8
Unknown_Area_Type
  10
235933.675
  20
4652794.861
  0
SEQEND
  8
Unknown_Area_Type
  0
INSERT
  8
FeatureAttribs
  2
FEATURE
  41
1
  42
1
  43
1
  50
0
  10
235577.382
  20
4650637.110
 66
1
  0
ATTRIB
  8
FeatureAttribs
 70
0
  1
PNOA-H_AMS_1956-57_33k_ES_PAN_2
  2
NAME
  10
235577.382
  20
4650637.110
 40
34.47813
  0
SEQEND
  0
POLYLINE
  8
Unknown_Area_Type
  70
1
  66
1
  0
VERTEX
  8
Unknown_Area_Type
  10
235933.675
  20
4652794.861
  0
VERTEX
  8
Unknown_Area_Type
  10
235183.500
  20
4652759.500
  0
VERTEX
  8
Unknown_Area_Type
  10
235456.500
  20
4647780.000
  0
VERTEX
  8
Unknown_Area_Type
  10
235744.724
  20
4647720.382
  0
VERTEX
  8
Unknown_Area_Type
  10
235745.906
  20
4647752.159
  0
VERTEX
  8
Unknown_Area_Type
  10
235832.028
  20
4650065.624
  0
VERTEX
  8
Unknown_Area_Type
  10
235918.185
  20
4652379.096
  0
VERTEX
  8
Unknown_Area_Type
  10
235933.675
  20
4652794.861
  0
SEQEND
  8
Unknown_Area_Type
  0
INSERT
  8
FeatureAttribs
  2
FEATURE
  41
1
  42
1
  43
1
  50
0
  10
230459.640
  20
4651309.305
 66
1
  0
ATTRIB
  8
FeatureAttribs
 70
0
  1
PNOA-H_AMS_1956-57_33k_ES_PAN_2
  2
NAME
  10
230459.640
  20
4651309.305
 40
34.47813
  0
SEQEND
  0
POLYLINE
  8
Unknown_Area_Type
  70
1
  66
1
  0
VERTEX
  8
Unknown_Area_Type
  10
229359.000
  20
4653018.500
  0
VERTEX
  8
Unknown_Area_Type
  10
231328.000
  20
4653268.500
  0
VERTEX
  8
Unknown_Area_Type
  10
231332.000
  20
4653269.000
  0
VERTEX
  8
Unknown_Area_Type
  10
231998.000
  20
4652935.500
  0
VERTEX
  8
Unknown_Area_Type
  10
231998.500
  20
4652934.000
  0
VERTEX
  8
Unknown_Area_Type
  10
230286.000
  20
4648041.000
  0
VERTEX
  8
Unknown_Area_Type
  10
230113.000
  20
4648056.500
  0
VERTEX
  8
Unknown_Area_Type
  10
229287.000
  20
4651887.000
  0
VERTEX
  8
Unknown_Area_Type
  10
229359.000
  20
4653018.500
  0
SEQEND
  8
Unknown_Area_Type
  0
INSERT
  8
FeatureAttribs
  2
FEATURE
  41
1
  42
1
  43
1
  50
0
  10
230459.640
  20
4651309.305
 66
1
  0
ATTRIB
  8
FeatureAttribs
 70
0
  1
PNOA-H_AMS_1956-57_33k_ES_PAN_2
  2
NAME
  10
230459.640
  20
4651309.305
 40
34.47813
  0
SEQEND
  0
POLYLINE
  8
Unknown_Area_Type
  70
1
  66
1
  0
VERTEX
  8
Unknown_Area_Type
  10
229359.000
  20
4653018.500
  0
VERTEX
  8
Unknown_Area_Type
  10
229287.000
  20
4651887.000
  0
VERTEX
  8
Unknown_Area_Type
  10
230113.000
  20
4648056.500
  0
VERTEX
  8
Unknown_Area_Type
  10
230286.000
  20
4648041.000
  0
VERTEX
  8
Unknown_Area_Type
  10
231998.500
  20
4652934.000
  0
VERTEX
  8
Unknown_Area_Type
  10
231998.000
  20
4652935.500
  0
VERTEX
  8
Unknown_Area_Type
  10
231332.000
  20
4653269.000
  0
VERTEX
  8
Unknown_Area_Type
  10
231328.000
  20
4653268.500
  0
VERTEX
  8
Unknown_Area_Type
  10
229359.000
  20
4653018.500
  0
SEQEND
  8
Unknown_Area_Type
  0
INSERT
  8
FeatureAttribs
  2
FEATURE
  41
1
  42
1
  43
1
  50
0
  10
233238.726
  20
4650887.152
 66
1
  0
ATTRIB
  8
FeatureAttribs
 70
0
  1
PNOA-H_AMS_1956-57_33k_ES_PAN_2
  2
NAME
  10
233238.726
  20
4650887.152
 40
34.47813
  0
SEQEND
  0
POLYLINE
  8
Unknown_Area_Type
  70
1
  66
1
  0
VERTEX
  8
Unknown_Area_Type
  10
233101.500
  20
4652945.500
  0
VERTEX
  8
Unknown_Area_Type
  10
234325.000
  20
4653036.500
  0
VERTEX
  8
Unknown_Area_Type
  10
234329.500
  20
4653035.000
  0
VERTEX
  8
Unknown_Area_Type
  10
234409.500
  20
4652991.500
  0
VERTEX
  8
Unknown_Area_Type
  10
233413.000
  20
4647807.000
  0
VERTEX
  8
Unknown_Area_Type
  10
232816.500
  20
4647889.000
  0
VERTEX
  8
Unknown_Area_Type
  10
232809.500
  20
4647890.000
  0
VERTEX
  8
Unknown_Area_Type
  10
232808.500
  20
4647892.500
  0
VERTEX
  8
Unknown_Area_Type
  10
232218.500
  20
4652877.500
  0
VERTEX
  8
Unknown_Area_Type
  10
232218.500
  20
4652879.500
  0
VERTEX
  8
Unknown_Area_Type
  10
232221.000
  20
4652880.000
  0
VERTEX
  8
Unknown_Area_Type
  10
233095.000
  20
4652945.000
  0
VERTEX
  8
Unknown_Area_Type
  10
233101.500
  20
4652945.500
  0
SEQEND
  8
Unknown_Area_Type
  0
INSERT
  8
FeatureAttribs
  2
FEATURE
  41
1
  42
1
  43
1
  50
0
  10
233238.726
  20
4650887.152
 66
1
  0
ATTRIB
  8
FeatureAttribs
 70
0
  1
PNOA-H_AMS_1956-57_33k_ES_PAN_2
  2
NAME
  10
233238.726
  20
4650887.152
 40
34.47813
  0
SEQEND
  0
POLYLINE
  8
Unknown_Area_Type
  70
1
  66
1
  0
VERTEX
  8
Unknown_Area_Type
  10
233101.500
  20
4652945.500
  0
VERTEX
  8
Unknown_Area_Type
  10
233095.000
  20
4652945.000
  0
VERTEX
  8
Unknown_Area_Type
  10
232221.000
  20
4652880.000
  0
VERTEX
  8
Unknown_Area_Type
  10
232218.500
  20
4652879.500
  0
VERTEX
  8
Unknown_Area_Type
  10
232218.500
  20
4652877.500
  0
VERTEX
  8
Unknown_Area_Type
  10
232808.500
  20
4647892.500
  0
VERTEX
  8
Unknown_Area_Type
  10
232809.500
  20
4647890.000
  0
VERTEX
  8
Unknown_Area_Type
  10
232816.500
  20
4647889.000
  0
VERTEX
  8
Unknown_Area_Type
  10
233413.000
  20
4647807.000
  0
VERTEX
  8
Unknown_Area_Type
  10
234409.500
  20
4652991.500
  0
VERTEX
  8
Unknown_Area_Type
  10
234329.500
  20
4653035.000
  0
VERTEX
  8
Unknown_Area_Type
  10
234325.000
  20
4653036.500
  0
VERTEX
  8
Unknown_Area_Type
  10
233101.500
  20
4652945.500
  0
SEQEND
  8
Unknown_Area_Type
  0
INSERT
  8
FeatureAttribs
  2
FEATURE
  41
1
  42
1
  43
1
  50
0
  10
217142.836
  20
4652354.499
 66
1
  0
ATTRIB
  8
FeatureAttribs
 70
0
  1
PNOA-H_AMS_1956-57_33k_ES_PAN_2
  2
NAME
  10
217142.836
  20
4652354.499
 40
34.47813
  0
SEQEND
  0
POLYLINE
  8
Unknown_Area_Type
  70
1
  66
1
  0
VERTEX
  8
Unknown_Area_Type
  10
215794.500
  20
4653551.500
  0
VERTEX
  8
Unknown_Area_Type
  10
216659.000
  20
4653878.000
  0
VERTEX
  8
Unknown_Area_Type
  10
216660.000
  20
4653878.500
  0
VERTEX
  8
Unknown_Area_Type
  10
218499.500
  20
4653469.500
  0
VERTEX
  8
Unknown_Area_Type
  10
218369.500
  20
4650634.500
  0
VERTEX
  8
Unknown_Area_Type
  10
215689.000
  20
4651445.000
  0
VERTEX
  8
Unknown_Area_Type
  10
215794.500
  20
4653551.500
  0
SEQEND
  8
Unknown_Area_Type
  0
INSERT
  8
FeatureAttribs
  2
FEATURE
  41
1
  42
1
  43
1
  50
0
  10
217142.836
  20
4652354.499
 66
1
  0
ATTRIB
  8
FeatureAttribs
 70
0
  1
PNOA-H_AMS_1956-57_33k_ES_PAN_2
  2
NAME
  10
217142.836
  20
4652354.499
 40
34.47813
  0
SEQEND
  0
POLYLINE
  8
Unknown_Area_Type
  70
1
  66
1
  0
VERTEX
  8
Unknown_Area_Type
  10
215794.500
  20
4653551.500
  0
VERTEX
  8
Unknown_Area_Type
  10
215689.000
  20
4651445.000
  0
VERTEX
  8
Unknown_Area_Type
  10
218369.500
  20
4650634.500
  0
VERTEX
  8
Unknown_Area_Type
  10
218499.500
  20
4653469.500
  0
VERTEX
  8
Unknown_Area_Type
  10
216660.000
  20
4653878.500
  0
VERTEX
  8
Unknown_Area_Type
  10
216659.000
  20
4653878.000
  0
VERTEX
  8
Unknown_Area_Type
  10
215794.500
  20
4653551.500
  0
SEQEND
  8
Unknown_Area_Type
  0
INSERT
  8
FeatureAttribs
  2
FEATURE
  41
1
  42
1
  43
1
  50
0
  10
214421.473
  20
4652420.134
 66
1
  0
ATTRIB
  8
FeatureAttribs
 70
0
  1
PNOA-H_AMS_1956-57_33k_ES_PAN_2
  2
NAME
  10
214421.473
  20
4652420.134
 40
34.47813
  0
SEQEND
  0
POLYLINE
  8
Unknown_Area_Type
  70
1
  66
1
  0
VERTEX
  8
Unknown_Area_Type
  10
213061.500
  20
4653671.000
  0
VERTEX
  8
Unknown_Area_Type
  10
213809.000
  20
4653971.500
  0
VERTEX
  8
Unknown_Area_Type
  10
213810.000
  20
4653972.000
  0
VERTEX
  8
Unknown_Area_Type
  10
215794.500
  20
4653551.500
  0
VERTEX
  8
Unknown_Area_Type
  10
215689.000
  20
4651444.500
  0
VERTEX
  8
Unknown_Area_Type
  10
215485.000
  20
4650611.000
  0
VERTEX
  8
Unknown_Area_Type
  10
212972.000
  20
4651559.500
  0
VERTEX
  8
Unknown_Area_Type
  10
213061.500
  20
4653671.000
  0
SEQEND
  8
Unknown_Area_Type
  0
INSERT
  8
FeatureAttribs
  2
FEATURE
  41
1
  42
1
  43
1
  50
0
  10
214421.473
  20
4652420.134
 66
1
  0
ATTRIB
  8
FeatureAttribs
 70
0
  1
PNOA-H_AMS_1956-57_33k_ES_PAN_2
  2
NAME
  10
214421.473
  20
4652420.134
 40
34.47813
  0
SEQEND
  0
POLYLINE
  8
Unknown_Area_Type
  70
1
  66
1
  0
VERTEX
  8
Unknown_Area_Type
  10
213061.500
  20
4653671.000
  0
VERTEX
  8
Unknown_Area_Type
  10
212972.000
  20
4651559.500
  0
VERTEX
  8
Unknown_Area_Type
  10
215485.000
  20
4650611.000
  0
VERTEX
  8
Unknown_Area_Type
  10
215689.000
  20
4651444.500
  0
VERTEX
  8
Unknown_Area_Type
  10
215794.500
  20
4653551.500
  0
VERTEX
  8
Unknown_Area_Type
  10
213810.000
  20
4653972.000
  0
VERTEX
  8
Unknown_Area_Type
  10
213809.000
  20
4653971.500
  0
VERTEX
  8
Unknown_Area_Type
  10
213061.500
  20
4653671.000
  0
SEQEND
  8
Unknown_Area_Type
  0
INSERT
  8
FeatureAttribs
  2
FEATURE
  41
1
  42
1
  43
1
  50
0
  10
222373.004
  20
4652111.268
 66
1
  0
ATTRIB
  8
FeatureAttribs
 70
0
  1
PNOA-H_AMS_1956-57_33k_ES_PAN_2
  2
NAME
  10
222373.004
  20
4652111.268
 40
34.47813
  0
SEQEND
  0
POLYLINE
  8
Unknown_Area_Type
  70
1
  66
1
  0
VERTEX
  8
Unknown_Area_Type
  10
221162.500
  20
4653355.000
  0
VERTEX
  8
Unknown_Area_Type
  10
222459.500
  20
4653714.000
  0
VERTEX
  8
Unknown_Area_Type
  10
223861.000
  20
4653251.000
  0
VERTEX
  8
Unknown_Area_Type
  10
223798.000
  20
4651332.000
  0
VERTEX
  8
Unknown_Area_Type
  10
221382.500
  20
4650248.000
  0
VERTEX
  8
Unknown_Area_Type
  10
221381.500
  20
4650248.000
  0
VERTEX
  8
Unknown_Area_Type
  10
221233.500
  20
4650181.500
  0
VERTEX
  8
Unknown_Area_Type
  10
221068.500
  20
4651294.000
  0
VERTEX
  8
Unknown_Area_Type
  10
221162.500
  20
4653355.000
  0
SEQEND
  8
Unknown_Area_Type
  0
INSERT
  8
FeatureAttribs
  2
FEATURE
  41
1
  42
1
  43
1
  50
0
  10
222373.004
  20
4652111.268
 66
1
  0
ATTRIB
  8
FeatureAttribs
 70
0
  1
PNOA-H_AMS_1956-57_33k_ES_PAN_2
  2
NAME
  10
222373.004
  20
4652111.268
 40
34.47813
  0
SEQEND
  0
POLYLINE
  8
Unknown_Area_Type
  70
1
  66
1
  0
VERTEX
  8
Unknown_Area_Type
  10
221162.500
  20
4653355.000
  0
VERTEX
  8
Unknown_Area_Type
  10
221068.500
  20
4651294.000
  0
VERTEX
  8
Unknown_Area_Type
  10
221233.500
  20
4650181.500
  0
VERTEX
  8
Unknown_Area_Type
  10
221381.500
  20
4650248.000
  0
VERTEX
  8
Unknown_Area_Type
  10
221382.500
  20
4650248.000
  0
VERTEX
  8
Unknown_Area_Type
  10
223798.000
  20
4651332.000
  0
VERTEX
  8
Unknown_Area_Type
  10
223861.000
  20
4653251.000
  0
VERTEX
  8
Unknown_Area_Type
  10
222459.500
  20
4653714.000
  0
VERTEX
  8
Unknown_Area_Type
  10
221162.500
  20
4653355.000
  0
SEQEND
  8
Unknown_Area_Type
  0
INSERT
  8
FeatureAttribs
  2
FEATURE
  41
1
  42
1
  43
1
  50
0
  10
225091.635
  20
4651973.633
 66
1
  0
ATTRIB
  8
FeatureAttribs
 70
0
  1
PNOA-H_AMS_1956-57_33k_ES_PAN_2
  2
NAME
  10
225091.635
  20
4651973.633
 40
34.47813
  0
SEQEND
  0
POLYLINE
  8
Unknown_Area_Type
  70
1
  66
1
  0
VERTEX
  8
Unknown_Area_Type
  10
223861.500
  20
4653251.500
  0
VERTEX
  8
Unknown_Area_Type
  10
225383.000
  20
4653611.500
  0
VERTEX
  8
Unknown_Area_Type
  10
225399.000
  20
4653614.500
  0
VERTEX
  8
Unknown_Area_Type
  10
226623.500
  20
4653160.000
  0
VERTEX
  8
Unknown_Area_Type
  10
226530.500
  20
4651385.500
  0
VERTEX
  8
Unknown_Area_Type
  10
224772.500
  20
4650248.500
  0
VERTEX
  8
Unknown_Area_Type
  10
224771.000
  20
4650248.000
  0
VERTEX
  8
Unknown_Area_Type
  10
224094.500
  20
4649810.500
  0
VERTEX
  8
Unknown_Area_Type
  10
223798.000
  20
4651332.000
  0
VERTEX
  8
Unknown_Area_Type
  10
223861.500
  20
4653251.500
  0
SEQEND
  8
Unknown_Area_Type
  0
INSERT
  8
FeatureAttribs
  2
FEATURE
  41
1
  42
1
  43
1
  50
0
  10
225091.635
  20
4651973.633
 66
1
  0
ATTRIB
  8
FeatureAttribs
 70
0
  1
PNOA-H_AMS_1956-57_33k_ES_PAN_2
  2
NAME
  10
225091.635
  20
4651973.633
 40
34.47813
  0
SEQEND
  0
POLYLINE
  8
Unknown_Area_Type
  70
1
  66
1
  0
VERTEX
  8
Unknown_Area_Type
  10
223861.500
  20
4653251.500
  0
VERTEX
  8
Unknown_Area_Type
  10
223798.000
  20
4651332.000
  0
VERTEX
  8
Unknown_Area_Type
  10
224094.500
  20
4649810.500
  0
VERTEX
  8
Unknown_Area_Type
  10
224771.000
  20
4650248.000
  0
VERTEX
  8
Unknown_Area_Type
  10
224772.500
  20
4650248.500
  0
VERTEX
  8
Unknown_Area_Type
  10
226530.500
  20
4651385.500
  0
VERTEX
  8
Unknown_Area_Type
  10
226623.500
  20
4653160.000
  0
VERTEX
  8
Unknown_Area_Type
  10
225399.000
  20
4653614.500
  0
VERTEX
  8
Unknown_Area_Type
  10
225383.000
  20
4653611.500
  0
VERTEX
  8
Unknown_Area_Type
  10
223861.500
  20
4653251.500
  0
SEQEND
  8
Unknown_Area_Type
  0
INSERT
  8
FeatureAttribs
  2
FEATURE
  41
1
  42
1
  43
1
  50
0
  10
219697.685
  20
4652250.567
 66
1
  0
ATTRIB
  8
FeatureAttribs
 70
0
  1
PNOA-H_AMS_1956-57_33k_ES_PAN_2
  2
NAME
  10
219697.685
  20
4652250.567
 40
34.47813
  0
SEQEND
  0
POLYLINE
  8
Unknown_Area_Type
  70
1
  66
1
  0
VERTEX
  8
Unknown_Area_Type
  10
218369.500
  20
4650642.500
  0
VERTEX
  8
Unknown_Area_Type
  10
218499.500
  20
4653469.500
  0
VERTEX
  8
Unknown_Area_Type
  10
219539.000
  20
4653807.000
  0
VERTEX
  8
Unknown_Area_Type
  10
219546.500
  20
4653808.500
  0
VERTEX
  8
Unknown_Area_Type
  10
220816.000
  20
4653452.500
  0
VERTEX
  8
Unknown_Area_Type
  10
220818.000
  20
4653452.000
  0
VERTEX
  8
Unknown_Area_Type
  10
221163.000
  20
4653355.500
  0
VERTEX
  8
Unknown_Area_Type
  10
221068.500
  20
4651295.500
  0
VERTEX
  8
Unknown_Area_Type
  10
218384.000
  20
4650529.000
  0
VERTEX
  8
Unknown_Area_Type
  10
218369.500
  20
4650631.500
  0
VERTEX
  8
Unknown_Area_Type
  10
218369.500
  20
4650642.500
  0
SEQEND
  8
Unknown_Area_Type
  0
INSERT
  8
FeatureAttribs
  2
FEATURE
  41
1
  42
1
  43
1
  50
0
  10
219697.685
  20
4652250.567
 66
1
  0
ATTRIB
  8
FeatureAttribs
 70
0
  1
PNOA-H_AMS_1956-57_33k_ES_PAN_2
  2
NAME
  10
219697.685
  20
4652250.567
 40
34.47813
  0
SEQEND
  0
POLYLINE
  8
Unknown_Area_Type
  70
1
  66
1
  0
VERTEX
  8
Unknown_Area_Type
  10
218369.500
  20
4650642.500
  0
VERTEX
  8
Unknown_Area_Type
  10
218369.500
  20
4650631.500
  0
VERTEX
  8
Unknown_Area_Type
  10
218384.000
  20
4650529.000
  0
VERTEX
  8
Unknown_Area_Type
  10
221068.500
  20
4651295.500
  0
VERTEX
  8
Unknown_Area_Type
  10
221163.000
  20
4653355.500
  0
VERTEX
  8
Unknown_Area_Type
  10
220818.000
  20
4653452.000
  0
VERTEX
  8
Unknown_Area_Type
  10
220816.000
  20
4653452.500
  0
VERTEX
  8
Unknown_Area_Type
  10
219546.500
  20
4653808.500
  0
VERTEX
  8
Unknown_Area_Type
  10
219539.000
  20
4653807.000
  0
VERTEX
  8
Unknown_Area_Type
  10
218499.500
  20
4653469.500
  0
VERTEX
  8
Unknown_Area_Type
  10
218369.500
  20
4650642.500
  0
SEQEND
  8
Unknown_Area_Type
  0
INSERT
  8
FeatureAttribs
  2
FEATURE
  41
1
  42
1
  43
1
  50
0
  10
227771.323
  20
4651732.924
 66
1
  0
ATTRIB
  8
FeatureAttribs
 70
0
  1
PNOA-H_AMS_1956-57_33k_ES_PAN_2
  2
NAME
  10
227771.323
  20
4651732.924
 40
34.47813
  0
SEQEND
  0
POLYLINE
  8
Unknown_Area_Type
  70
1
  66
1
  0
VERTEX
  8
Unknown_Area_Type
  10
226623.500
  20
4653160.000
  0
VERTEX
  8
Unknown_Area_Type
  10
226958.000
  20
4653220.500
  0
VERTEX
  8
Unknown_Area_Type
  10
226961.000
  20
4653221.000
  0
VERTEX
  8
Unknown_Area_Type
  10
228335.000
  20
4653469.000
  0
VERTEX
  8
Unknown_Area_Type
  10
229359.000
  20
4653018.500
  0
VERTEX
  8
Unknown_Area_Type
  10
229287.000
  20
4651889.000
  0
VERTEX
  8
Unknown_Area_Type
  10
227067.000
  20
4649021.500
  0
VERTEX
  8
Unknown_Area_Type
  10
227066.000
  20
4649021.500
  0
VERTEX
  8
Unknown_Area_Type
  10
227063.000
  20
4649034.500
  0
VERTEX
  8
Unknown_Area_Type
  10
226530.500
  20
4651383.500
  0
VERTEX
  8
Unknown_Area_Type
  10
226623.500
  20
4653160.000
  0
SEQEND
  8
Unknown_Area_Type
  0
INSERT
  8
FeatureAttribs
  2
FEATURE
  41
1
  42
1
  43
1
  50
0
  10
227771.323
  20
4651732.924
 66
1
  0
ATTRIB
  8
FeatureAttribs
 70
0
  1
PNOA-H_AMS_1956-57_33k_ES_PAN_2
  2
NAME
  10
227771.323
  20
4651732.924
 40
34.47813
  0
SEQEND
  0
POLYLINE
  8
Unknown_Area_Type
  70
1
  66
1
  0
VERTEX
  8
Unknown_Area_Type
  10
226623.500
  20
4653160.000
  0
VERTEX
  8
Unknown_Area_Type
  10
226530.500
  20
4651383.500
  0
VERTEX
  8
Unknown_Area_Type
  10
227063.000
  20
4649034.500
  0
VERTEX
  8
Unknown_Area_Type
  10
227066.000
  20
4649021.500
  0
VERTEX
  8
Unknown_Area_Type
  10
227067.000
  20
4649021.500
  0
VERTEX
  8
Unknown_Area_Type
  10
229287.000
  20
4651889.000
  0
VERTEX
  8
Unknown_Area_Type
  10
229359.000
  20
4653018.500
  0
VERTEX
  8
Unknown_Area_Type
  10
228335.000
  20
4653469.000
  0
VERTEX
  8
Unknown_Area_Type
  10
226961.000
  20
4653221.000
  0
VERTEX
  8
Unknown_Area_Type
  10
226958.000
  20
4653220.500
  0
VERTEX
  8
Unknown_Area_Type
  10
226623.500
  20
4653160.000
  0
SEQEND
  8
Unknown_Area_Type
  0
ENDSEC
  0
EOF
