  0
SECTION
  2
HEADER
  9
$ACADVER
  1
AC1009
  9
$LUNITS
  70
2
  9
$LIMMIN
  10
180260.000
  20
4648956.000
  9
$LIMMAX
  10
180781.606
  20
4656980.264
  9
$EXTMIN
  10
180260.000
  20
4648956.000
  9
$EXTMAX
  10
180781.606
  20
4656980.264
  999
Created by Global Mapper
  999
Projection: UTM
  999
Datum: ETRS89
  999
Ground Units: meters
  999
ZONE: 30
  0
ENDSEC
  0
SECTION
  2
TABLES
  0
ENDSEC
  0
SECTION
  2
BLOCKS
  0
BLOCK
  8
FeatureAttribs
  70
0
  2
FEATURE
  3
FEATURE
  10
0.00000000
  20
0.00000000
  0
ATTDEF
  8
FeatureAttribs
  70
0
  1
 
  2
NAME
  3
NAME
  10
0.00000000
  20
0.00000000
  40
1.00000000
  0
ENDBLK
  0
ENDSEC
  0
SECTION
  2
ENTITIES
  0
INSERT
  8
FeatureAttribs
  2
FEATURE
  41
1
  42
1
  43
1
  50
0
  10
180483.137
  20
4656865.157
 66
1
  0
ATTRIB
  8
FeatureAttribs
 70
0
  1
PNOA-H_AMS_1956-57_33k_ES_PAN_2
  2
NAME
  10
180483.137
  20
4656865.157
 40
8.04120
  0
SEQEND
  0
POLYLINE
  8
Unknown_Area_Type
  70
1
  66
1
  0
VERTEX
  8
Unknown_Area_Type
  10
180509.410
  20
4656978.477
  0
VERTEX
  8
Unknown_Area_Type
  10
180470.000
  20
4656636.729
  0
VERTEX
  8
Unknown_Area_Type
  10
180470.000
  20
4656980.264
  0
VERTEX
  8
Unknown_Area_Type
  10
180509.410
  20
4656978.477
  0
SEQEND
  8
Unknown_Area_Type
  0
INSERT
  8
FeatureAttribs
  2
FEATURE
  41
1
  42
1
  43
1
  50
0
  10
180483.137
  20
4656865.157
 66
1
  0
ATTRIB
  8
FeatureAttribs
 70
0
  1
PNOA-H_AMS_1956-57_33k_ES_PAN_2
  2
NAME
  10
180483.137
  20
4656865.157
 40
8.04120
  0
SEQEND
  0
POLYLINE
  8
Unknown_Area_Type
  70
1
  66
1
  0
VERTEX
  8
Unknown_Area_Type
  10
180509.410
  20
4656978.477
  0
VERTEX
  8
Unknown_Area_Type
  10
180470.000
  20
4656980.264
  0
VERTEX
  8
Unknown_Area_Type
  10
180470.000
  20
4656636.729
  0
VERTEX
  8
Unknown_Area_Type
  10
180509.410
  20
4656978.477
  0
SEQEND
  8
Unknown_Area_Type
  0
INSERT
  8
FeatureAttribs
  2
FEATURE
  41
1
  42
1
  43
1
  50
0
  10
180753.106
  20
4655702.071
 66
1
  0
ATTRIB
  8
FeatureAttribs
 70
0
  1
PNOA-H_AMS_1956-57_33k_ES_PAN_2
  2
NAME
  10
180753.106
  20
4655702.071
 40
8.04120
  0
SEQEND
  0
POLYLINE
  8
Unknown_Area_Type
  70
1
  66
1
  0
VERTEX
  8
Unknown_Area_Type
  10
180781.606
  20
4654442.984
  0
VERTEX
  8
Unknown_Area_Type
  10
180714.500
  20
4654438.000
  0
VERTEX
  8
Unknown_Area_Type
  10
180669.044
  20
4654469.223
  0
VERTEX
  8
Unknown_Area_Type
  10
180677.301
  20
4654652.490
  0
VERTEX
  8
Unknown_Area_Type
  10
180781.578
  20
4656966.142
  0
VERTEX
  8
Unknown_Area_Type
  10
180781.606
  20
4656966.140
  0
VERTEX
  8
Unknown_Area_Type
  10
180781.606
  20
4654442.984
  0
SEQEND
  8
Unknown_Area_Type
  0
INSERT
  8
FeatureAttribs
  2
FEATURE
  41
1
  42
1
  43
1
  50
0
  10
180602.296
  20
4655830.429
 66
1
  0
ATTRIB
  8
FeatureAttribs
 70
0
  1
PNOA-H_AMS_1956-57_33k_ES_PAN_2
  2
NAME
  10
180602.296
  20
4655830.429
 40
8.04120
  0
SEQEND
  0
POLYLINE
  8
Unknown_Area_Type
  70
1
  66
1
  0
VERTEX
  8
Unknown_Area_Type
  10
180669.044
  20
4654469.223
  0
VERTEX
  8
Unknown_Area_Type
  10
180470.000
  20
4654605.945
  0
VERTEX
  8
Unknown_Area_Type
  10
180470.000
  20
4656636.729
  0
VERTEX
  8
Unknown_Area_Type
  10
180509.410
  20
4656978.477
  0
VERTEX
  8
Unknown_Area_Type
  10
180781.578
  20
4656966.142
  0
VERTEX
  8
Unknown_Area_Type
  10
180677.301
  20
4654652.490
  0
VERTEX
  8
Unknown_Area_Type
  10
180669.044
  20
4654469.223
  0
SEQEND
  8
Unknown_Area_Type
  0
INSERT
  8
FeatureAttribs
  2
FEATURE
  41
1
  42
1
  43
1
  50
0
  10
180602.296
  20
4655830.429
 66
1
  0
ATTRIB
  8
FeatureAttribs
 70
0
  1
PNOA-H_AMS_1956-57_33k_ES_PAN_2
  2
NAME
  10
180602.296
  20
4655830.429
 40
8.04120
  0
SEQEND
  0
POLYLINE
  8
Unknown_Area_Type
  70
1
  66
1
  0
VERTEX
  8
Unknown_Area_Type
  10
180669.044
  20
4654469.223
  0
VERTEX
  8
Unknown_Area_Type
  10
180677.301
  20
4654652.490
  0
VERTEX
  8
Unknown_Area_Type
  10
180781.578
  20
4656966.142
  0
VERTEX
  8
Unknown_Area_Type
  10
180509.410
  20
4656978.477
  0
VERTEX
  8
Unknown_Area_Type
  10
180470.000
  20
4656636.729
  0
VERTEX
  8
Unknown_Area_Type
  10
180470.000
  20
4654605.945
  0
VERTEX
  8
Unknown_Area_Type
  10
180669.044
  20
4654469.223
  0
SEQEND
  8
Unknown_Area_Type
  0
INSERT
  8
FeatureAttribs
  2
FEATURE
  41
1
  42
1
  43
1
  50
0
  10
180601.392
  20
4652481.026
 66
1
  0
ATTRIB
  8
FeatureAttribs
 70
0
  1
PNOA-H_AMS_1956-57_33k_ES_PAN_2
  2
NAME
  10
180601.392
  20
4652481.026
 40
8.04120
  0
SEQEND
  0
POLYLINE
  8
Unknown_Area_Type
  70
1
  66
1
  0
VERTEX
  8
Unknown_Area_Type
  10
180781.606
  20
4649019.683
  0
VERTEX
  8
Unknown_Area_Type
  10
180758.500
  20
4649020.000
  0
VERTEX
  8
Unknown_Area_Type
  10
180740.000
  20
4649017.500
  0
VERTEX
  8
Unknown_Area_Type
  10
180729.000
  20
4649017.500
  0
VERTEX
  8
Unknown_Area_Type
  10
180701.000
  20
4649011.000
  0
VERTEX
  8
Unknown_Area_Type
  10
180688.500
  20
4649011.000
  0
VERTEX
  8
Unknown_Area_Type
  10
180651.000
  20
4649005.000
  0
VERTEX
  8
Unknown_Area_Type
  10
180577.000
  20
4648997.500
  0
VERTEX
  8
Unknown_Area_Type
  10
180553.500
  20
4648992.500
  0
VERTEX
  8
Unknown_Area_Type
  10
180546.500
  20
4648992.000
  0
VERTEX
  8
Unknown_Area_Type
  10
180517.500
  20
4648984.000
  0
VERTEX
  8
Unknown_Area_Type
  10
180502.500
  20
4648983.000
  0
VERTEX
  8
Unknown_Area_Type
  10
180483.000
  20
4648977.000
  0
VERTEX
  8
Unknown_Area_Type
  10
180436.500
  20
4648969.500
  0
VERTEX
  8
Unknown_Area_Type
  10
180431.500
  20
4648967.500
  0
VERTEX
  8
Unknown_Area_Type
  10
180421.178
  20
4648965.657
  0
VERTEX
  8
Unknown_Area_Type
  10
180468.874
  20
4650025.202
  0
VERTEX
  8
Unknown_Area_Type
  10
180573.066
  20
4652338.844
  0
VERTEX
  8
Unknown_Area_Type
  10
180669.065
  20
4654469.693
  0
VERTEX
  8
Unknown_Area_Type
  10
180714.500
  20
4654438.500
  0
VERTEX
  8
Unknown_Area_Type
  10
180462.000
  20
4648982.500
  0
VERTEX
  8
Unknown_Area_Type
  10
180480.500
  20
4648985.000
  0
VERTEX
  8
Unknown_Area_Type
  10
180500.500
  20
4648991.000
  0
VERTEX
  8
Unknown_Area_Type
  10
180510.000
  20
4648992.500
  0
VERTEX
  8
Unknown_Area_Type
  10
180516.000
  20
4648992.000
  0
VERTEX
  8
Unknown_Area_Type
  10
180518.500
  20
4648993.500
  0
VERTEX
  8
Unknown_Area_Type
  10
180533.000
  20
4648996.000
  0
VERTEX
  8
Unknown_Area_Type
  10
180541.500
  20
4648999.000
  0
VERTEX
  8
Unknown_Area_Type
  10
180582.000
  20
4649006.000
  0
VERTEX
  8
Unknown_Area_Type
  10
180653.000
  20
4649012.500
  0
VERTEX
  8
Unknown_Area_Type
  10
180690.000
  20
4649018.000
  0
VERTEX
  8
Unknown_Area_Type
  10
180700.500
  20
4649018.000
  0
VERTEX
  8
Unknown_Area_Type
  10
180725.000
  20
4649023.500
  0
VERTEX
  8
Unknown_Area_Type
  10
180756.500
  20
4649026.000
  0
VERTEX
  8
Unknown_Area_Type
  10
180781.606
  20
4649025.636
  0
VERTEX
  8
Unknown_Area_Type
  10
180781.606
  20
4649019.683
  0
SEQEND
  8
Unknown_Area_Type
  0
INSERT
  8
FeatureAttribs
  2
FEATURE
  41
1
  42
1
  43
1
  50
0
  10
180430.170
  20
4651651.205
 66
1
  0
ATTRIB
  8
FeatureAttribs
 70
0
  1
PNOA-H_AMS_1956-57_33k_ES_PAN_2
  2
NAME
  10
180430.170
  20
4651651.205
 40
8.04120
  0
SEQEND
  0
POLYLINE
  8
Unknown_Area_Type
  70
1
  66
1
  0
VERTEX
  8
Unknown_Area_Type
  10
180669.065
  20
4654469.693
  0
VERTEX
  8
Unknown_Area_Type
  10
180573.066
  20
4652338.844
  0
VERTEX
  8
Unknown_Area_Type
  10
180468.874
  20
4650025.202
  0
VERTEX
  8
Unknown_Area_Type
  10
180421.178
  20
4648965.657
  0
VERTEX
  8
Unknown_Area_Type
  10
180403.500
  20
4648962.500
  0
VERTEX
  8
Unknown_Area_Type
  10
180393.000
  20
4648959.000
  0
VERTEX
  8
Unknown_Area_Type
  10
180378.000
  20
4648956.000
  0
VERTEX
  8
Unknown_Area_Type
  10
180368.000
  20
4648957.000
  0
VERTEX
  8
Unknown_Area_Type
  10
180362.000
  20
4648960.000
  0
VERTEX
  8
Unknown_Area_Type
  10
180348.500
  20
4648962.500
  0
VERTEX
  8
Unknown_Area_Type
  10
180336.500
  20
4648963.000
  0
VERTEX
  8
Unknown_Area_Type
  10
180328.500
  20
4648965.500
  0
VERTEX
  8
Unknown_Area_Type
  10
180306.500
  20
4648967.500
  0
VERTEX
  8
Unknown_Area_Type
  10
180278.500
  20
4648974.000
  0
VERTEX
  8
Unknown_Area_Type
  10
180260.000
  20
4648975.682
  0
VERTEX
  8
Unknown_Area_Type
  10
180260.000
  20
4652440.000
  0
VERTEX
  8
Unknown_Area_Type
  10
180470.000
  20
4652440.000
  0
VERTEX
  8
Unknown_Area_Type
  10
180470.000
  20
4654606.362
  0
VERTEX
  8
Unknown_Area_Type
  10
180669.065
  20
4654469.693
  0
SEQEND
  8
Unknown_Area_Type
  0
INSERT
  8
FeatureAttribs
  2
FEATURE
  41
1
  42
1
  43
1
  50
0
  10
180430.170
  20
4651651.205
 66
1
  0
ATTRIB
  8
FeatureAttribs
 70
0
  1
PNOA-H_AMS_1956-57_33k_ES_PAN_2
  2
NAME
  10
180430.170
  20
4651651.205
 40
8.04120
  0
SEQEND
  0
POLYLINE
  8
Unknown_Area_Type
  70
1
  66
1
  0
VERTEX
  8
Unknown_Area_Type
  10
180669.065
  20
4654469.693
  0
VERTEX
  8
Unknown_Area_Type
  10
180470.000
  20
4654606.362
  0
VERTEX
  8
Unknown_Area_Type
  10
180470.000
  20
4652440.000
  0
VERTEX
  8
Unknown_Area_Type
  10
180260.000
  20
4652440.000
  0
VERTEX
  8
Unknown_Area_Type
  10
180260.000
  20
4648975.682
  0
VERTEX
  8
Unknown_Area_Type
  10
180278.500
  20
4648974.000
  0
VERTEX
  8
Unknown_Area_Type
  10
180306.500
  20
4648967.500
  0
VERTEX
  8
Unknown_Area_Type
  10
180328.500
  20
4648965.500
  0
VERTEX
  8
Unknown_Area_Type
  10
180336.500
  20
4648963.000
  0
VERTEX
  8
Unknown_Area_Type
  10
180348.500
  20
4648962.500
  0
VERTEX
  8
Unknown_Area_Type
  10
180362.000
  20
4648960.000
  0
VERTEX
  8
Unknown_Area_Type
  10
180368.000
  20
4648957.000
  0
VERTEX
  8
Unknown_Area_Type
  10
180378.000
  20
4648956.000
  0
VERTEX
  8
Unknown_Area_Type
  10
180393.000
  20
4648959.000
  0
VERTEX
  8
Unknown_Area_Type
  10
180403.500
  20
4648962.500
  0
VERTEX
  8
Unknown_Area_Type
  10
180421.178
  20
4648965.657
  0
VERTEX
  8
Unknown_Area_Type
  10
180468.874
  20
4650025.202
  0
VERTEX
  8
Unknown_Area_Type
  10
180573.066
  20
4652338.844
  0
VERTEX
  8
Unknown_Area_Type
  10
180669.065
  20
4654469.693
  0
SEQEND
  8
Unknown_Area_Type
  0
INSERT
  8
FeatureAttribs
  2
FEATURE
  41
1
  42
1
  43
1
  50
0
  10
180684.986
  20
4651712.754
 66
1
  0
ATTRIB
  8
FeatureAttribs
 70
0
  1
PNOA-H_AMS_1956-57_33k_ES_PAN_2
  2
NAME
  10
180684.986
  20
4651712.754
 40
8.04120
  0
SEQEND
  0
POLYLINE
  8
Unknown_Area_Type
  70
1
  66
1
  0
VERTEX
  8
Unknown_Area_Type
  10
180781.606
  20
4654443.009
  0
VERTEX
  8
Unknown_Area_Type
  10
180781.606
  20
4649025.594
  0
VERTEX
  8
Unknown_Area_Type
  10
180774.500
  20
4649026.000
  0
VERTEX
  8
Unknown_Area_Type
  10
180756.500
  20
4649026.000
  0
VERTEX
  8
Unknown_Area_Type
  10
180740.500
  20
4649024.000
  0
VERTEX
  8
Unknown_Area_Type
  10
180729.000
  20
4649024.000
  0
VERTEX
  8
Unknown_Area_Type
  10
180700.500
  20
4649018.000
  0
VERTEX
  8
Unknown_Area_Type
  10
180690.000
  20
4649018.000
  0
VERTEX
  8
Unknown_Area_Type
  10
180653.000
  20
4649012.500
  0
VERTEX
  8
Unknown_Area_Type
  10
180582.000
  20
4649006.000
  0
VERTEX
  8
Unknown_Area_Type
  10
180541.500
  20
4648999.000
  0
VERTEX
  8
Unknown_Area_Type
  10
180533.000
  20
4648996.000
  0
VERTEX
  8
Unknown_Area_Type
  10
180518.500
  20
4648993.500
  0
VERTEX
  8
Unknown_Area_Type
  10
180516.000
  20
4648992.000
  0
VERTEX
  8
Unknown_Area_Type
  10
180510.000
  20
4648992.500
  0
VERTEX
  8
Unknown_Area_Type
  10
180500.500
  20
4648991.000
  0
VERTEX
  8
Unknown_Area_Type
  10
180480.500
  20
4648985.000
  0
VERTEX
  8
Unknown_Area_Type
  10
180462.000
  20
4648982.500
  0
VERTEX
  8
Unknown_Area_Type
  10
180714.500
  20
4654438.000
  0
VERTEX
  8
Unknown_Area_Type
  10
180781.606
  20
4654443.009
  0
SEQEND
  8
Unknown_Area_Type
  0
ENDSEC
  0
EOF
