  0
SECTION
  2
HEADER
  9
$ACADVER
  1
AC1009
  9
$LUNITS
  70
2
  9
$LIMMIN
  10
539656.773
  20
4649887.260
  9
$LIMMAX
  10
567289.558
  20
4663960.000
  9
$EXTMIN
  10
539656.773
  20
4649887.260
  9
$EXTMAX
  10
567289.558
  20
4663960.000
  999
Created by Global Mapper
  999
Projection: UTM
  999
Datum: ETRS89
  999
Ground Units: meters
  999
ZONE: 30
  0
ENDSEC
  0
SECTION
  2
TABLES
  0
ENDSEC
  0
SECTION
  2
BLOCKS
  0
BLOCK
  8
FeatureAttribs
  70
0
  2
FEATURE
  3
FEATURE
  10
0.00000000
  20
0.00000000
  0
ATTDEF
  8
FeatureAttribs
  70
0
  1
 
  2
NAME
  3
NAME
  10
0.00000000
  20
0.00000000
  40
1.00000000
  0
ENDBLK
  0
ENDSEC
  0
SECTION
  2
ENTITIES
  0
INSERT
  8
FeatureAttribs
  2
FEATURE
  41
1
  42
1
  43
1
  50
0
  10
539770.317
  20
4652101.872
 66
1
  0
ATTRIB
  8
FeatureAttribs
 70
0
  1
PNOA-H_AMS_1956-57_33k_ES_PAN_21mic_H50_0279_fot_000-50644_R.tif
  2
NAME
  10
539770.317
  20
4652101.872
 40
31.00988
  0
SEQEND
  0
POLYLINE
  8
PNOA-H_AMS_1956-57_33k_ES_PAN_21mic_H50_0279_fot_000-50644_R_tif
  70
9
  66
1
  0
VERTEX
  8
PNOA-H_AMS_1956-57_33k_ES_PAN_21mic_H50_0279_fot_000-50644_R_tif
  70
32
  10
539905.865
  20
4651162.402
  30
1499.448
  0
VERTEX
  8
PNOA-H_AMS_1956-57_33k_ES_PAN_21mic_H50_0279_fot_000-50644_R_tif
  70
32
  10
539677.285
  20
4650996.311
  30
1526.423
  0
VERTEX
  8
PNOA-H_AMS_1956-57_33k_ES_PAN_21mic_H50_0279_fot_000-50644_R_tif
  70
32
  10
539677.283
  20
4650996.751
  30
0
  0
VERTEX
  8
PNOA-H_AMS_1956-57_33k_ES_PAN_21mic_H50_0279_fot_000-50644_R_tif
  70
32
  10
539670.546
  20
4652200.374
  30
0
  0
VERTEX
  8
PNOA-H_AMS_1956-57_33k_ES_PAN_21mic_H50_0279_fot_000-50644_R_tif
  70
32
  10
539664.907
  20
4653207.433
  30
1526.872
  0
VERTEX
  8
PNOA-H_AMS_1956-57_33k_ES_PAN_21mic_H50_0279_fot_000-50644_R_tif
  70
32
  10
539828.000
  20
4653172.000
  30
1505.04
  0
VERTEX
  8
PNOA-H_AMS_1956-57_33k_ES_PAN_21mic_H50_0279_fot_000-50644_R_tif
  70
32
  10
539906.000
  20
4651162.500
  30
1499.432
  0
VERTEX
  8
PNOA-H_AMS_1956-57_33k_ES_PAN_21mic_H50_0279_fot_000-50644_R_tif
  70
32
  10
539905.865
  20
4651162.402
  30
1499.448
  0
SEQEND
  8
PNOA-H_AMS_1956-57_33k_ES_PAN_21mic_H50_0279_fot_000-50644_R_tif
  0
INSERT
  8
FeatureAttribs
  2
FEATURE
  41
1
  42
1
  43
1
  50
0
  10
543668.950
  20
4652224.000
 66
1
  0
ATTRIB
  8
FeatureAttribs
 70
0
  1
PNOA-H_AMS_1956-57_33k_ES_PAN_21mic_H50_0280_fot_000-50642_R.tif
  2
NAME
  10
543668.950
  20
4652224.000
 40
31.00988
  0
SEQEND
  0
POLYLINE
  8
PNOA-H_AMS_1956-57_33k_ES_PAN_21mic_H50_0280_fot_000-50642_R_tif
  70
9
  66
1
  0
VERTEX
  8
PNOA-H_AMS_1956-57_33k_ES_PAN_21mic_H50_0280_fot_000-50642_R_tif
  70
32
  10
544200.012
  20
4650748.509
  30
1431.939
  0
VERTEX
  8
PNOA-H_AMS_1956-57_33k_ES_PAN_21mic_H50_0280_fot_000-50642_R_tif
  70
32
  10
544200.000
  20
4650748.500
  30
1431.936
  0
VERTEX
  8
PNOA-H_AMS_1956-57_33k_ES_PAN_21mic_H50_0280_fot_000-50642_R_tif
  70
32
  10
542412.000
  20
4651262.500
  30
1391.658
  0
VERTEX
  8
PNOA-H_AMS_1956-57_33k_ES_PAN_21mic_H50_0280_fot_000-50642_R_tif
  70
32
  10
542341.017
  20
4653245.515
  30
1603.646
  0
VERTEX
  8
PNOA-H_AMS_1956-57_33k_ES_PAN_21mic_H50_0280_fot_000-50642_R_tif
  70
32
  10
542341.000
  20
4653246.000
  30
1603.698
  0
VERTEX
  8
PNOA-H_AMS_1956-57_33k_ES_PAN_21mic_H50_0280_fot_000-50642_R_tif
  70
32
  10
542755.886
  20
4653609.830
  30
1627.786
  0
VERTEX
  8
PNOA-H_AMS_1956-57_33k_ES_PAN_21mic_H50_0280_fot_000-50642_R_tif
  70
32
  10
542857.000
  20
4653698.500
  30
1633.657
  0
VERTEX
  8
PNOA-H_AMS_1956-57_33k_ES_PAN_21mic_H50_0280_fot_000-50642_R_tif
  70
32
  10
542857.109
  20
4653698.717
  30
1633.587
  0
VERTEX
  8
PNOA-H_AMS_1956-57_33k_ES_PAN_21mic_H50_0280_fot_000-50642_R_tif
  70
32
  10
542857.500
  20
4653699.500
  30
1633.656
  0
VERTEX
  8
PNOA-H_AMS_1956-57_33k_ES_PAN_21mic_H50_0280_fot_000-50642_R_tif
  70
32
  10
542857.908
  20
4653699.419
  30
1633.633
  0
VERTEX
  8
PNOA-H_AMS_1956-57_33k_ES_PAN_21mic_H50_0280_fot_000-50642_R_tif
  70
32
  10
543278.014
  20
4653615.799
  30
1610.491
  0
VERTEX
  8
PNOA-H_AMS_1956-57_33k_ES_PAN_21mic_H50_0280_fot_000-50642_R_tif
  70
32
  10
544949.988
  20
4653283.000
  30
1518.39
  0
VERTEX
  8
PNOA-H_AMS_1956-57_33k_ES_PAN_21mic_H50_0280_fot_000-50642_R_tif
  70
32
  10
544952.500
  20
4653282.500
  30
1518.252
  0
VERTEX
  8
PNOA-H_AMS_1956-57_33k_ES_PAN_21mic_H50_0280_fot_000-50642_R_tif
  70
32
  10
544966.996
  20
4651319.497
  30
1627.403
  0
VERTEX
  8
PNOA-H_AMS_1956-57_33k_ES_PAN_21mic_H50_0280_fot_000-50642_R_tif
  70
32
  10
544967.000
  20
4651319.000
  30
1627.431
  0
VERTEX
  8
PNOA-H_AMS_1956-57_33k_ES_PAN_21mic_H50_0280_fot_000-50642_R_tif
  70
32
  10
544200.012
  20
4650748.509
  30
1431.939
  0
SEQEND
  8
PNOA-H_AMS_1956-57_33k_ES_PAN_21mic_H50_0280_fot_000-50642_R_tif
  0
INSERT
  8
FeatureAttribs
  2
FEATURE
  41
1
  42
1
  43
1
  50
0
  10
546212.238
  20
4652250.250
 66
1
  0
ATTRIB
  8
FeatureAttribs
 70
0
  1
PNOA-H_AMS_1956-57_33k_ES_PAN_21mic_H50_0280_fot_000-50641_R.tif
  2
NAME
  10
546212.238
  20
4652250.250
 40
31.00988
  0
SEQEND
  0
POLYLINE
  8
PNOA-H_AMS_1956-57_33k_ES_PAN_21mic_H50_0280_fot_000-50641_R_tif
  70
9
  66
1
  0
VERTEX
  8
PNOA-H_AMS_1956-57_33k_ES_PAN_21mic_H50_0280_fot_000-50641_R_tif
  70
32
  10
546911.601
  20
4653429.365
  30
1316.128
  0
VERTEX
  8
PNOA-H_AMS_1956-57_33k_ES_PAN_21mic_H50_0280_fot_000-50641_R_tif
  70
32
  10
547275.000
  20
4653361.000
  30
1290.514
  0
VERTEX
  8
PNOA-H_AMS_1956-57_33k_ES_PAN_21mic_H50_0280_fot_000-50641_R_tif
  70
32
  10
547275.407
  20
4653361.000
  30
1290.519
  0
VERTEX
  8
PNOA-H_AMS_1956-57_33k_ES_PAN_21mic_H50_0280_fot_000-50641_R_tif
  70
32
  10
547276.000
  20
4653361.000
  30
1290.525
  0
VERTEX
  8
PNOA-H_AMS_1956-57_33k_ES_PAN_21mic_H50_0280_fot_000-50641_R_tif
  70
32
  10
547459.000
  20
4653326.500
  30
1299.95
  0
VERTEX
  8
PNOA-H_AMS_1956-57_33k_ES_PAN_21mic_H50_0280_fot_000-50641_R_tif
  70
32
  10
547469.000
  20
4651314.500
  30
1379.319
  0
VERTEX
  8
PNOA-H_AMS_1956-57_33k_ES_PAN_21mic_H50_0280_fot_000-50641_R_tif
  70
32
  10
547468.884
  20
4651314.411
  30
1379.329
  0
VERTEX
  8
PNOA-H_AMS_1956-57_33k_ES_PAN_21mic_H50_0280_fot_000-50641_R_tif
  70
32
  10
547468.193
  20
4651313.885
  30
1379.388
  0
VERTEX
  8
PNOA-H_AMS_1956-57_33k_ES_PAN_21mic_H50_0280_fot_000-50641_R_tif
  70
32
  10
547204.166
  20
4651112.832
  30
1402.05
  0
VERTEX
  8
PNOA-H_AMS_1956-57_33k_ES_PAN_21mic_H50_0280_fot_000-50641_R_tif
  70
32
  10
546783.500
  20
4650792.500
  30
1438.156
  0
VERTEX
  8
PNOA-H_AMS_1956-57_33k_ES_PAN_21mic_H50_0280_fot_000-50641_R_tif
  70
32
  10
546783.138
  20
4650792.605
  30
1438.194
  0
VERTEX
  8
PNOA-H_AMS_1956-57_33k_ES_PAN_21mic_H50_0280_fot_000-50641_R_tif
  70
32
  10
544967.000
  20
4651319.500
  30
1627.595
  0
VERTEX
  8
PNOA-H_AMS_1956-57_33k_ES_PAN_21mic_H50_0280_fot_000-50641_R_tif
  70
32
  10
544952.500
  20
4653283.000
  30
1518.169
  0
VERTEX
  8
PNOA-H_AMS_1956-57_33k_ES_PAN_21mic_H50_0280_fot_000-50641_R_tif
  70
32
  10
545430.496
  20
4653707.997
  30
1420.523
  0
VERTEX
  8
PNOA-H_AMS_1956-57_33k_ES_PAN_21mic_H50_0280_fot_000-50641_R_tif
  70
32
  10
545430.500
  20
4653708.000
  30
1420.522
  0
VERTEX
  8
PNOA-H_AMS_1956-57_33k_ES_PAN_21mic_H50_0280_fot_000-50641_R_tif
  70
32
  10
546911.601
  20
4653429.365
  30
1316.128
  0
SEQEND
  8
PNOA-H_AMS_1956-57_33k_ES_PAN_21mic_H50_0280_fot_000-50641_R_tif
  0
INSERT
  8
FeatureAttribs
  2
FEATURE
  41
1
  42
1
  43
1
  50
0
  10
542927.099
  20
4650580.664
 66
1
  0
ATTRIB
  8
FeatureAttribs
 70
0
  1
PNOA-H_AMS_1956-57_33k_ES_PAN_21mic_H50_0280_fot_29C-50618_E.tif
  2
NAME
  10
542927.099
  20
4650580.664
 40
31.00988
  0
SEQEND
  0
POLYLINE
  8
PNOA-H_AMS_1956-57_33k_ES_PAN_21mic_H50_0280_fot_29C-50618_E_tif
  70
9
  66
1
  0
VERTEX
  8
PNOA-H_AMS_1956-57_33k_ES_PAN_21mic_H50_0280_fot_29C-50618_E_tif
  70
32
  10
543134.241
  20
4649907.410
  30
0
  0
VERTEX
  8
PNOA-H_AMS_1956-57_33k_ES_PAN_21mic_H50_0280_fot_29C-50618_E_tif
  70
32
  10
541664.558
  20
4649898.828
  30
1259.906
  0
VERTEX
  8
PNOA-H_AMS_1956-57_33k_ES_PAN_21mic_H50_0280_fot_29C-50618_E_tif
  70
32
  10
541647.500
  20
4650696.000
  30
1263.579
  0
VERTEX
  8
PNOA-H_AMS_1956-57_33k_ES_PAN_21mic_H50_0280_fot_29C-50618_E_tif
  70
32
  10
541647.633
  20
4650696.098
  30
1263.601
  0
VERTEX
  8
PNOA-H_AMS_1956-57_33k_ES_PAN_21mic_H50_0280_fot_29C-50618_E_tif
  70
32
  10
542411.500
  20
4651262.500
  30
1391.59
  0
VERTEX
  8
PNOA-H_AMS_1956-57_33k_ES_PAN_21mic_H50_0280_fot_29C-50618_E_tif
  70
32
  10
542411.860
  20
4651262.396
  30
1391.607
  0
VERTEX
  8
PNOA-H_AMS_1956-57_33k_ES_PAN_21mic_H50_0280_fot_29C-50618_E_tif
  70
32
  10
543178.000
  20
4651042.000
  30
1427.921
  0
VERTEX
  8
PNOA-H_AMS_1956-57_33k_ES_PAN_21mic_H50_0280_fot_29C-50618_E_tif
  70
32
  10
543180.000
  20
4651041.500
  30
1428.026
  0
VERTEX
  8
PNOA-H_AMS_1956-57_33k_ES_PAN_21mic_H50_0280_fot_29C-50618_E_tif
  70
32
  10
544200.000
  20
4650748.500
  30
1431.936
  0
VERTEX
  8
PNOA-H_AMS_1956-57_33k_ES_PAN_21mic_H50_0280_fot_29C-50618_E_tif
  70
32
  10
544221.028
  20
4649914.285
  30
1389.5
  0
VERTEX
  8
PNOA-H_AMS_1956-57_33k_ES_PAN_21mic_H50_0280_fot_29C-50618_E_tif
  70
32
  10
543134.241
  20
4649907.410
  30
0
  0
SEQEND
  8
PNOA-H_AMS_1956-57_33k_ES_PAN_21mic_H50_0280_fot_29C-50618_E_tif
  0
INSERT
  8
FeatureAttribs
  2
FEATURE
  41
1
  42
1
  43
1
  50
0
  10
541123.672
  20
4652157.500
 66
1
  0
ATTRIB
  8
FeatureAttribs
 70
0
  1
PNOA-H_AMS_1956-57_33k_ES_PAN_21mic_H50_0280_fot_000-50643_R.tif
  2
NAME
  10
541123.672
  20
4652157.500
 40
31.00988
  0
SEQEND
  0
POLYLINE
  8
PNOA-H_AMS_1956-57_33k_ES_PAN_21mic_H50_0280_fot_000-50643_R_tif
  70
9
  66
1
  0
VERTEX
  8
PNOA-H_AMS_1956-57_33k_ES_PAN_21mic_H50_0280_fot_000-50643_R_tif
  70
32
  10
542411.860
  20
4651262.396
  30
1391.635
  0
VERTEX
  8
PNOA-H_AMS_1956-57_33k_ES_PAN_21mic_H50_0280_fot_000-50643_R_tif
  70
32
  10
541648.000
  20
4650696.000
  30
1263.567
  0
VERTEX
  8
PNOA-H_AMS_1956-57_33k_ES_PAN_21mic_H50_0280_fot_000-50643_R_tif
  70
32
  10
541647.633
  20
4650696.098
  30
1263.617
  0
VERTEX
  8
PNOA-H_AMS_1956-57_33k_ES_PAN_21mic_H50_0280_fot_000-50643_R_tif
  70
32
  10
539906.000
  20
4651162.500
  30
1499.432
  0
VERTEX
  8
PNOA-H_AMS_1956-57_33k_ES_PAN_21mic_H50_0280_fot_000-50643_R_tif
  70
32
  10
539828.019
  20
4653172.015
  30
1504.984
  0
VERTEX
  8
PNOA-H_AMS_1956-57_33k_ES_PAN_21mic_H50_0280_fot_000-50643_R_tif
  70
32
  10
539828.000
  20
4653172.500
  30
1504.985
  0
VERTEX
  8
PNOA-H_AMS_1956-57_33k_ES_PAN_21mic_H50_0280_fot_000-50643_R_tif
  70
32
  10
540296.967
  20
4653537.434
  30
1398.929
  0
VERTEX
  8
PNOA-H_AMS_1956-57_33k_ES_PAN_21mic_H50_0280_fot_000-50643_R_tif
  70
32
  10
540400.500
  20
4653618.000
  30
1375.516
  0
VERTEX
  8
PNOA-H_AMS_1956-57_33k_ES_PAN_21mic_H50_0280_fot_000-50643_R_tif
  70
32
  10
540400.590
  20
4653618.181
  30
1375.493
  0
VERTEX
  8
PNOA-H_AMS_1956-57_33k_ES_PAN_21mic_H50_0280_fot_000-50643_R_tif
  70
32
  10
540400.991
  20
4653618.981
  30
1375.39
  0
VERTEX
  8
PNOA-H_AMS_1956-57_33k_ES_PAN_21mic_H50_0280_fot_000-50643_R_tif
  70
32
  10
540401.000
  20
4653619.000
  30
1375.388
  0
VERTEX
  8
PNOA-H_AMS_1956-57_33k_ES_PAN_21mic_H50_0280_fot_000-50643_R_tif
  70
32
  10
542341.000
  20
4653245.500
  30
1603.846
  0
VERTEX
  8
PNOA-H_AMS_1956-57_33k_ES_PAN_21mic_H50_0280_fot_000-50643_R_tif
  70
32
  10
542412.000
  20
4651262.500
  30
1391.658
  0
VERTEX
  8
PNOA-H_AMS_1956-57_33k_ES_PAN_21mic_H50_0280_fot_000-50643_R_tif
  70
32
  10
542411.860
  20
4651262.396
  30
1391.635
  0
SEQEND
  8
PNOA-H_AMS_1956-57_33k_ES_PAN_21mic_H50_0280_fot_000-50643_R_tif
  0
INSERT
  8
FeatureAttribs
  2
FEATURE
  41
1
  42
1
  43
1
  50
0
  10
545496.192
  20
4650616.893
 66
1
  0
ATTRIB
  8
FeatureAttribs
 70
0
  1
PNOA-H_AMS_1956-57_33k_ES_PAN_21mic_H50_0280_fot_29C-50619_E.tif
  2
NAME
  10
545496.192
  20
4650616.893
 40
31.00988
  0
SEQEND
  0
POLYLINE
  8
PNOA-H_AMS_1956-57_33k_ES_PAN_21mic_H50_0280_fot_29C-50619_E_tif
  70
9
  66
1
  0
VERTEX
  8
PNOA-H_AMS_1956-57_33k_ES_PAN_21mic_H50_0280_fot_29C-50619_E_tif
  70
32
  10
546584.992
  20
4649929.240
  30
0
  0
VERTEX
  8
PNOA-H_AMS_1956-57_33k_ES_PAN_21mic_H50_0280_fot_29C-50619_E_tif
  70
32
  10
544221.181
  20
4649914.286
  30
1389.535
  0
VERTEX
  8
PNOA-H_AMS_1956-57_33k_ES_PAN_21mic_H50_0280_fot_29C-50619_E_tif
  70
32
  10
544200.012
  20
4650748.509
  30
1431.976
  0
VERTEX
  8
PNOA-H_AMS_1956-57_33k_ES_PAN_21mic_H50_0280_fot_29C-50619_E_tif
  70
32
  10
544200.000
  20
4650749.000
  30
1432.001
  0
VERTEX
  8
PNOA-H_AMS_1956-57_33k_ES_PAN_21mic_H50_0280_fot_29C-50619_E_tif
  70
32
  10
544966.996
  20
4651319.497
  30
1627.594
  0
VERTEX
  8
PNOA-H_AMS_1956-57_33k_ES_PAN_21mic_H50_0280_fot_29C-50619_E_tif
  70
32
  10
544967.000
  20
4651319.500
  30
1627.595
  0
VERTEX
  8
PNOA-H_AMS_1956-57_33k_ES_PAN_21mic_H50_0280_fot_29C-50619_E_tif
  70
32
  10
545226.000
  20
4651244.000
  30
1624.656
  0
VERTEX
  8
PNOA-H_AMS_1956-57_33k_ES_PAN_21mic_H50_0280_fot_29C-50619_E_tif
  70
32
  10
545228.000
  20
4651243.500
  30
1624.863
  0
VERTEX
  8
PNOA-H_AMS_1956-57_33k_ES_PAN_21mic_H50_0280_fot_29C-50619_E_tif
  70
32
  10
546783.000
  20
4650792.500
  30
1438.299
  0
VERTEX
  8
PNOA-H_AMS_1956-57_33k_ES_PAN_21mic_H50_0280_fot_29C-50619_E_tif
  70
32
  10
546812.602
  20
4649930.790
  30
1423.032
  0
VERTEX
  8
PNOA-H_AMS_1956-57_33k_ES_PAN_21mic_H50_0280_fot_29C-50619_E_tif
  70
32
  10
546584.992
  20
4649929.240
  30
0
  0
SEQEND
  8
PNOA-H_AMS_1956-57_33k_ES_PAN_21mic_H50_0280_fot_29C-50619_E_tif
  0
INSERT
  8
FeatureAttribs
  2
FEATURE
  41
1
  42
1
  43
1
  50
0
  10
540665.543
  20
4650524.880
 66
1
  0
ATTRIB
  8
FeatureAttribs
 70
0
  1
PNOA-H_AMS_1956-57_33k_ES_PAN_21mic_H50_0280_fot_29C-50617_E.tif
  2
NAME
  10
540665.543
  20
4650524.880
 40
31.00988
  0
SEQEND
  0
POLYLINE
  8
PNOA-H_AMS_1956-57_33k_ES_PAN_21mic_H50_0280_fot_29C-50617_E_tif
  70
9
  66
1
  0
VERTEX
  8
PNOA-H_AMS_1956-57_33k_ES_PAN_21mic_H50_0280_fot_29C-50617_E_tif
  70
32
  10
541664.558
  20
4649898.828
  30
1259.906
  0
VERTEX
  8
PNOA-H_AMS_1956-57_33k_ES_PAN_21mic_H50_0280_fot_29C-50617_E_tif
  70
32
  10
539683.493
  20
4649887.260
  30
0
  0
VERTEX
  8
PNOA-H_AMS_1956-57_33k_ES_PAN_21mic_H50_0280_fot_29C-50617_E_tif
  70
32
  10
539677.285
  20
4650996.311
  30
1526.569
  0
VERTEX
  8
PNOA-H_AMS_1956-57_33k_ES_PAN_21mic_H50_0280_fot_29C-50617_E_tif
  70
32
  10
539677.283
  20
4650996.751
  30
1526.565
  0
VERTEX
  8
PNOA-H_AMS_1956-57_33k_ES_PAN_21mic_H50_0280_fot_29C-50617_E_tif
  70
32
  10
539905.500
  20
4651162.500
  30
1499.521
  0
VERTEX
  8
PNOA-H_AMS_1956-57_33k_ES_PAN_21mic_H50_0280_fot_29C-50617_E_tif
  70
32
  10
539905.865
  20
4651162.402
  30
1499.472
  0
VERTEX
  8
PNOA-H_AMS_1956-57_33k_ES_PAN_21mic_H50_0280_fot_29C-50617_E_tif
  70
32
  10
541647.500
  20
4650696.000
  30
1263.579
  0
VERTEX
  8
PNOA-H_AMS_1956-57_33k_ES_PAN_21mic_H50_0280_fot_29C-50617_E_tif
  70
32
  10
541664.558
  20
4649898.828
  30
1259.906
  0
SEQEND
  8
PNOA-H_AMS_1956-57_33k_ES_PAN_21mic_H50_0280_fot_29C-50617_E_tif
  0
INSERT
  8
FeatureAttribs
  2
FEATURE
  41
1
  42
1
  43
1
  50
0
  10
540028.039
  20
4653916.000
 66
1
  0
ATTRIB
  8
FeatureAttribs
 70
0
  1
PNOA-H_AMS_1956-57_33k_ES_PAN_21mic_H50_0279_fot_28E-24118_E.tif
  2
NAME
  10
540028.039
  20
4653916.000
 40
31.00988
  0
SEQEND
  0
POLYLINE
  8
PNOA-H_AMS_1956-57_33k_ES_PAN_21mic_H50_0279_fot_28E-24118_E_tif
  70
9
  66
1
  0
VERTEX
  8
PNOA-H_AMS_1956-57_33k_ES_PAN_21mic_H50_0279_fot_28E-24118_E_tif
  70
32
  10
539828.019
  20
4653172.015
  30
1505.036
  0
VERTEX
  8
PNOA-H_AMS_1956-57_33k_ES_PAN_21mic_H50_0279_fot_28E-24118_E_tif
  70
32
  10
539828.000
  20
4653172.000
  30
1505.04
  0
VERTEX
  8
PNOA-H_AMS_1956-57_33k_ES_PAN_21mic_H50_0279_fot_28E-24118_E_tif
  70
32
  10
539664.907
  20
4653207.443
  30
1526.875
  0
VERTEX
  8
PNOA-H_AMS_1956-57_33k_ES_PAN_21mic_H50_0279_fot_28E-24118_E_tif
  70
32
  10
539657.594
  20
4654513.496
  30
0
  0
VERTEX
  8
PNOA-H_AMS_1956-57_33k_ES_PAN_21mic_H50_0279_fot_28E-24118_E_tif
  70
32
  10
539656.773
  20
4654660.000
  30
1659.239
  0
VERTEX
  8
PNOA-H_AMS_1956-57_33k_ES_PAN_21mic_H50_0279_fot_28E-24118_E_tif
  70
32
  10
540380.479
  20
4654660.000
  30
1437.781
  0
VERTEX
  8
PNOA-H_AMS_1956-57_33k_ES_PAN_21mic_H50_0279_fot_28E-24118_E_tif
  70
32
  10
540400.991
  20
4653618.981
  30
1375.418
  0
VERTEX
  8
PNOA-H_AMS_1956-57_33k_ES_PAN_21mic_H50_0279_fot_28E-24118_E_tif
  70
32
  10
540401.000
  20
4653618.500
  30
1375.389
  0
VERTEX
  8
PNOA-H_AMS_1956-57_33k_ES_PAN_21mic_H50_0279_fot_28E-24118_E_tif
  70
32
  10
540400.590
  20
4653618.181
  30
1375.482
  0
VERTEX
  8
PNOA-H_AMS_1956-57_33k_ES_PAN_21mic_H50_0279_fot_28E-24118_E_tif
  70
32
  10
540296.967
  20
4653537.434
  30
1398.928
  0
VERTEX
  8
PNOA-H_AMS_1956-57_33k_ES_PAN_21mic_H50_0279_fot_28E-24118_E_tif
  70
32
  10
539828.019
  20
4653172.015
  30
1505.036
  0
SEQEND
  8
PNOA-H_AMS_1956-57_33k_ES_PAN_21mic_H50_0279_fot_28E-24118_E_tif
  0
INSERT
  8
FeatureAttribs
  2
FEATURE
  41
1
  42
1
  43
1
  50
0
  10
541625.708
  20
4653952.750
 66
1
  0
ATTRIB
  8
FeatureAttribs
 70
0
  1
PNOA-H_AMS_1956-57_33k_ES_PAN_21mic_H50_0280_fot_28E-24119_E.tif
  2
NAME
  10
541625.708
  20
4653952.750
 40
31.00988
  0
SEQEND
  0
POLYLINE
  8
PNOA-H_AMS_1956-57_33k_ES_PAN_21mic_H50_0280_fot_28E-24119_E_tif
  70
9
  66
1
  0
VERTEX
  8
PNOA-H_AMS_1956-57_33k_ES_PAN_21mic_H50_0280_fot_28E-24119_E_tif
  70
32
  10
542341.017
  20
4653245.515
  30
1603.847
  0
VERTEX
  8
PNOA-H_AMS_1956-57_33k_ES_PAN_21mic_H50_0280_fot_28E-24119_E_tif
  70
32
  10
542341.000
  20
4653245.500
  30
1603.846
  0
VERTEX
  8
PNOA-H_AMS_1956-57_33k_ES_PAN_21mic_H50_0280_fot_28E-24119_E_tif
  70
32
  10
540401.000
  20
4653619.000
  30
1375.388
  0
VERTEX
  8
PNOA-H_AMS_1956-57_33k_ES_PAN_21mic_H50_0280_fot_28E-24119_E_tif
  70
32
  10
540380.485
  20
4654660.000
  30
1437.762
  0
VERTEX
  8
PNOA-H_AMS_1956-57_33k_ES_PAN_21mic_H50_0280_fot_28E-24119_E_tif
  70
32
  10
542854.182
  20
4654660.000
  30
1544.682
  0
VERTEX
  8
PNOA-H_AMS_1956-57_33k_ES_PAN_21mic_H50_0280_fot_28E-24119_E_tif
  70
32
  10
542858.000
  20
4653699.500
  30
1633.764
  0
VERTEX
  8
PNOA-H_AMS_1956-57_33k_ES_PAN_21mic_H50_0280_fot_28E-24119_E_tif
  70
32
  10
542857.908
  20
4653699.419
  30
1633.759
  0
VERTEX
  8
PNOA-H_AMS_1956-57_33k_ES_PAN_21mic_H50_0280_fot_28E-24119_E_tif
  70
32
  10
542857.109
  20
4653698.717
  30
1633.712
  0
VERTEX
  8
PNOA-H_AMS_1956-57_33k_ES_PAN_21mic_H50_0280_fot_28E-24119_E_tif
  70
32
  10
542755.886
  20
4653609.830
  30
1627.855
  0
VERTEX
  8
PNOA-H_AMS_1956-57_33k_ES_PAN_21mic_H50_0280_fot_28E-24119_E_tif
  70
32
  10
542341.017
  20
4653245.515
  30
1603.847
  0
SEQEND
  8
PNOA-H_AMS_1956-57_33k_ES_PAN_21mic_H50_0280_fot_28E-24119_E_tif
  0
INSERT
  8
FeatureAttribs
  2
FEATURE
  41
1
  42
1
  43
1
  50
0
  10
547223.822
  20
4655188.500
 66
1
  0
ATTRIB
  8
FeatureAttribs
 70
0
  1
PNOA-H_AMS_1956-57_33k_ES_PAN_21mic_H50_0280_fot_28E-24121_E.tif
  2
NAME
  10
547223.822
  20
4655188.500
 40
31.00988
  0
SEQEND
  0
POLYLINE
  8
PNOA-H_AMS_1956-57_33k_ES_PAN_21mic_H50_0280_fot_28E-24121_E_tif
  70
9
  66
1
  0
VERTEX
  8
PNOA-H_AMS_1956-57_33k_ES_PAN_21mic_H50_0280_fot_28E-24121_E_tif
  70
32
  10
547459.002
  20
4653326.502
  30
1299.95
  0
VERTEX
  8
PNOA-H_AMS_1956-57_33k_ES_PAN_21mic_H50_0280_fot_28E-24121_E_tif
  70
32
  10
547459.000
  20
4653326.500
  30
1299.95
  0
VERTEX
  8
PNOA-H_AMS_1956-57_33k_ES_PAN_21mic_H50_0280_fot_28E-24121_E_tif
  70
32
  10
547275.407
  20
4653361.000
  30
1310.879
  0
VERTEX
  8
PNOA-H_AMS_1956-57_33k_ES_PAN_21mic_H50_0280_fot_28E-24121_E_tif
  70
32
  10
546911.601
  20
4653429.365
  30
1332.536
  0
VERTEX
  8
PNOA-H_AMS_1956-57_33k_ES_PAN_21mic_H50_0280_fot_28E-24121_E_tif
  70
32
  10
545431.500
  20
4653707.500
  30
1420.646
  0
VERTEX
  8
PNOA-H_AMS_1956-57_33k_ES_PAN_21mic_H50_0280_fot_28E-24121_E_tif
  70
32
  10
545430.500
  20
4653708.000
  30
1420.522
  0
VERTEX
  8
PNOA-H_AMS_1956-57_33k_ES_PAN_21mic_H50_0280_fot_28E-24121_E_tif
  70
32
  10
545430.472
  20
4653711.439
  30
1419.593
  0
VERTEX
  8
PNOA-H_AMS_1956-57_33k_ES_PAN_21mic_H50_0280_fot_28E-24121_E_tif
  70
32
  10
545430.000
  20
4653769.500
  30
1403.904
  0
VERTEX
  8
PNOA-H_AMS_1956-57_33k_ES_PAN_21mic_H50_0280_fot_28E-24121_E_tif
  70
32
  10
545423.696
  20
4654660.000
  30
1336.115
  0
VERTEX
  8
PNOA-H_AMS_1956-57_33k_ES_PAN_21mic_H50_0280_fot_28E-24121_E_tif
  70
32
  10
545423.739
  20
4654660.000
  30
1336.114
  0
VERTEX
  8
PNOA-H_AMS_1956-57_33k_ES_PAN_21mic_H50_0280_fot_28E-24121_E_tif
  70
32
  10
546420.000
  20
4654660.000
  30
1307.981
  0
VERTEX
  8
PNOA-H_AMS_1956-57_33k_ES_PAN_21mic_H50_0280_fot_28E-24121_E_tif
  70
32
  10
546420.000
  20
4656922.755
  30
1222.663
  0
VERTEX
  8
PNOA-H_AMS_1956-57_33k_ES_PAN_21mic_H50_0280_fot_28E-24121_E_tif
  70
32
  10
546420.000
  20
4656923.090
  30
1222.65
  0
VERTEX
  8
PNOA-H_AMS_1956-57_33k_ES_PAN_21mic_H50_0280_fot_28E-24121_E_tif
  70
32
  10
547108.500
  20
4657050.500
  30
1253.002
  0
VERTEX
  8
PNOA-H_AMS_1956-57_33k_ES_PAN_21mic_H50_0280_fot_28E-24121_E_tif
  70
32
  10
547109.082
  20
4657050.291
  30
1252.971
  0
VERTEX
  8
PNOA-H_AMS_1956-57_33k_ES_PAN_21mic_H50_0280_fot_28E-24121_E_tif
  70
32
  10
547274.500
  20
4656991.000
  30
1244.191
  0
VERTEX
  8
PNOA-H_AMS_1956-57_33k_ES_PAN_21mic_H50_0280_fot_28E-24121_E_tif
  70
32
  10
547276.000
  20
4656990.500
  30
1243.993
  0
VERTEX
  8
PNOA-H_AMS_1956-57_33k_ES_PAN_21mic_H50_0280_fot_28E-24121_E_tif
  70
32
  10
547629.687
  20
4656863.917
  30
1240.483
  0
VERTEX
  8
PNOA-H_AMS_1956-57_33k_ES_PAN_21mic_H50_0280_fot_28E-24121_E_tif
  70
32
  10
548036.000
  20
4656718.500
  30
1236.45
  0
VERTEX
  8
PNOA-H_AMS_1956-57_33k_ES_PAN_21mic_H50_0280_fot_28E-24121_E_tif
  70
32
  10
548035.998
  20
4656718.180
  30
1236.466
  0
VERTEX
  8
PNOA-H_AMS_1956-57_33k_ES_PAN_21mic_H50_0280_fot_28E-24121_E_tif
  70
32
  10
548020.000
  20
4653789.000
  30
1379.07
  0
VERTEX
  8
PNOA-H_AMS_1956-57_33k_ES_PAN_21mic_H50_0280_fot_28E-24121_E_tif
  70
32
  10
548019.872
  20
4653788.895
  30
1379.052
  0
VERTEX
  8
PNOA-H_AMS_1956-57_33k_ES_PAN_21mic_H50_0280_fot_28E-24121_E_tif
  70
32
  10
547459.002
  20
4653326.502
  30
1299.95
  0
SEQEND
  8
PNOA-H_AMS_1956-57_33k_ES_PAN_21mic_H50_0280_fot_28E-24121_E_tif
  0
INSERT
  8
FeatureAttribs
  2
FEATURE
  41
1
  42
1
  43
1
  50
0
  10
544142.772
  20
4653971.500
 66
1
  0
ATTRIB
  8
FeatureAttribs
 70
0
  1
PNOA-H_AMS_1956-57_33k_ES_PAN_21mic_H50_0280_fot_28E-24120_E.tif
  2
NAME
  10
544142.772
  20
4653971.500
 40
31.00988
  0
SEQEND
  0
POLYLINE
  8
PNOA-H_AMS_1956-57_33k_ES_PAN_21mic_H50_0280_fot_28E-24120_E_tif
  70
9
  66
1
  0
VERTEX
  8
PNOA-H_AMS_1956-57_33k_ES_PAN_21mic_H50_0280_fot_28E-24120_E_tif
  70
32
  10
544949.988
  20
4653283.000
  30
1518.206
  0
VERTEX
  8
PNOA-H_AMS_1956-57_33k_ES_PAN_21mic_H50_0280_fot_28E-24120_E_tif
  70
32
  10
544948.000
  20
4653283.000
  30
1518.231
  0
VERTEX
  8
PNOA-H_AMS_1956-57_33k_ES_PAN_21mic_H50_0280_fot_28E-24120_E_tif
  70
32
  10
543278.014
  20
4653615.799
  30
1610.546
  0
VERTEX
  8
PNOA-H_AMS_1956-57_33k_ES_PAN_21mic_H50_0280_fot_28E-24120_E_tif
  70
32
  10
542858.000
  20
4653699.500
  30
1633.764
  0
VERTEX
  8
PNOA-H_AMS_1956-57_33k_ES_PAN_21mic_H50_0280_fot_28E-24120_E_tif
  70
32
  10
542854.182
  20
4654660.000
  30
1544.693
  0
VERTEX
  8
PNOA-H_AMS_1956-57_33k_ES_PAN_21mic_H50_0280_fot_28E-24120_E_tif
  70
32
  10
545423.696
  20
4654660.000
  30
1344.391
  0
VERTEX
  8
PNOA-H_AMS_1956-57_33k_ES_PAN_21mic_H50_0280_fot_28E-24120_E_tif
  70
32
  10
545423.739
  20
4654660.000
  30
1344.388
  0
VERTEX
  8
PNOA-H_AMS_1956-57_33k_ES_PAN_21mic_H50_0280_fot_28E-24120_E_tif
  70
32
  10
545430.472
  20
4653711.439
  30
1420.342
  0
VERTEX
  8
PNOA-H_AMS_1956-57_33k_ES_PAN_21mic_H50_0280_fot_28E-24120_E_tif
  70
32
  10
545430.496
  20
4653707.997
  30
1420.617
  0
VERTEX
  8
PNOA-H_AMS_1956-57_33k_ES_PAN_21mic_H50_0280_fot_28E-24120_E_tif
  70
32
  10
545430.500
  20
4653707.500
  30
1420.657
  0
VERTEX
  8
PNOA-H_AMS_1956-57_33k_ES_PAN_21mic_H50_0280_fot_28E-24120_E_tif
  70
32
  10
544953.500
  20
4653283.000
  30
1518.162
  0
VERTEX
  8
PNOA-H_AMS_1956-57_33k_ES_PAN_21mic_H50_0280_fot_28E-24120_E_tif
  70
32
  10
544952.500
  20
4653283.000
  30
1518.175
  0
VERTEX
  8
PNOA-H_AMS_1956-57_33k_ES_PAN_21mic_H50_0280_fot_28E-24120_E_tif
  70
32
  10
544949.988
  20
4653283.000
  30
1518.206
  0
SEQEND
  8
PNOA-H_AMS_1956-57_33k_ES_PAN_21mic_H50_0280_fot_28E-24120_E_tif
  0
INSERT
  8
FeatureAttribs
  2
FEATURE
  41
1
  42
1
  43
1
  50
0
  10
550777.023
  20
4659061.750
 66
1
  0
ATTRIB
  8
FeatureAttribs
 70
0
  1
PNOA-H_AMS_1956-57_33k_ES_PAN_21mic_H50_0280_fot_27F-13181_W.tif
  2
NAME
  10
550777.023
  20
4659061.750
 40
31.00988
  0
SEQEND
  0
POLYLINE
  8
PNOA-H_AMS_1956-57_33k_ES_PAN_21mic_H50_0280_fot_27F-13181_W_tif
  70
9
  66
1
  0
VERTEX
  8
PNOA-H_AMS_1956-57_33k_ES_PAN_21mic_H50_0280_fot_27F-13181_W_tif
  70
32
  10
550619.471
  20
4656735.676
  30
1121.593
  0
VERTEX
  8
PNOA-H_AMS_1956-57_33k_ES_PAN_21mic_H50_0280_fot_27F-13181_W_tif
  70
32
  10
550618.500
  20
4656735.500
  30
1121.658
  0
VERTEX
  8
PNOA-H_AMS_1956-57_33k_ES_PAN_21mic_H50_0280_fot_27F-13181_W_tif
  70
32
  10
549533.702
  20
4657075.780
  30
1185.386
  0
VERTEX
  8
PNOA-H_AMS_1956-57_33k_ES_PAN_21mic_H50_0280_fot_27F-13181_W_tif
  70
32
  10
549533.000
  20
4657076.000
  30
1185.427
  0
VERTEX
  8
PNOA-H_AMS_1956-57_33k_ES_PAN_21mic_H50_0280_fot_27F-13181_W_tif
  70
32
  10
549493.000
  20
4661011.500
  30
1337.281
  0
VERTEX
  8
PNOA-H_AMS_1956-57_33k_ES_PAN_21mic_H50_0280_fot_27F-13181_W_tif
  70
32
  10
549493.377
  20
4661011.640
  30
1337.203
  0
VERTEX
  8
PNOA-H_AMS_1956-57_33k_ES_PAN_21mic_H50_0280_fot_27F-13181_W_tif
  70
32
  10
550506.000
  20
4661388.000
  30
1129.217
  0
VERTEX
  8
PNOA-H_AMS_1956-57_33k_ES_PAN_21mic_H50_0280_fot_27F-13181_W_tif
  70
32
  10
550506.606
  20
4661387.854
  30
1129.242
  0
VERTEX
  8
PNOA-H_AMS_1956-57_33k_ES_PAN_21mic_H50_0280_fot_27F-13181_W_tif
  70
32
  10
551370.000
  20
4661179.500
  30
1165.923
  0
VERTEX
  8
PNOA-H_AMS_1956-57_33k_ES_PAN_21mic_H50_0280_fot_27F-13181_W_tif
  70
32
  10
551372.000
  20
4661179.000
  30
1165.688
  0
VERTEX
  8
PNOA-H_AMS_1956-57_33k_ES_PAN_21mic_H50_0280_fot_27F-13181_W_tif
  70
32
  10
552016.000
  20
4661024.000
  30
1143.774
  0
VERTEX
  8
PNOA-H_AMS_1956-57_33k_ES_PAN_21mic_H50_0280_fot_27F-13181_W_tif
  70
32
  10
552066.000
  20
4657135.000
  30
1100.768
  0
VERTEX
  8
PNOA-H_AMS_1956-57_33k_ES_PAN_21mic_H50_0280_fot_27F-13181_W_tif
  70
32
  10
552065.735
  20
4657134.927
  30
1100.772
  0
VERTEX
  8
PNOA-H_AMS_1956-57_33k_ES_PAN_21mic_H50_0280_fot_27F-13181_W_tif
  70
32
  10
550629.500
  20
4656737.500
  30
1120.928
  0
VERTEX
  8
PNOA-H_AMS_1956-57_33k_ES_PAN_21mic_H50_0280_fot_27F-13181_W_tif
  70
32
  10
550622.886
  20
4656736.297
  30
1121.367
  0
VERTEX
  8
PNOA-H_AMS_1956-57_33k_ES_PAN_21mic_H50_0280_fot_27F-13181_W_tif
  70
32
  10
550619.471
  20
4656735.676
  30
1121.593
  0
SEQEND
  8
PNOA-H_AMS_1956-57_33k_ES_PAN_21mic_H50_0280_fot_27F-13181_W_tif
  0
INSERT
  8
FeatureAttribs
  2
FEATURE
  41
1
  42
1
  43
1
  50
0
  10
553337.571
  20
4659108.750
 66
1
  0
ATTRIB
  8
FeatureAttribs
 70
0
  1
PNOA-H_AMS_1956-57_33k_ES_PAN_21mic_H50_0280_fot_27F-13180_W.tif
  2
NAME
  10
553337.571
  20
4659108.750
 40
31.00988
  0
SEQEND
  0
POLYLINE
  8
PNOA-H_AMS_1956-57_33k_ES_PAN_21mic_H50_0280_fot_27F-13180_W_tif
  70
9
  66
1
  0
VERTEX
  8
PNOA-H_AMS_1956-57_33k_ES_PAN_21mic_H50_0280_fot_27F-13180_W_tif
  70
32
  10
553391.955
  20
4661361.480
  30
1063.569
  0
VERTEX
  8
PNOA-H_AMS_1956-57_33k_ES_PAN_21mic_H50_0280_fot_27F-13180_W_tif
  70
32
  10
553418.500
  20
4661355.500
  30
1063.427
  0
VERTEX
  8
PNOA-H_AMS_1956-57_33k_ES_PAN_21mic_H50_0280_fot_27F-13180_W_tif
  70
32
  10
553418.708
  20
4661355.500
  30
1061.854
  0
VERTEX
  8
PNOA-H_AMS_1956-57_33k_ES_PAN_21mic_H50_0280_fot_27F-13180_W_tif
  70
32
  10
553420.000
  20
4661355.500
  30
1063.333
  0
VERTEX
  8
PNOA-H_AMS_1956-57_33k_ES_PAN_21mic_H50_0280_fot_27F-13180_W_tif
  70
32
  10
553520.000
  20
4661333.115
  30
1055.355
  0
VERTEX
  8
PNOA-H_AMS_1956-57_33k_ES_PAN_21mic_H50_0280_fot_27F-13180_W_tif
  70
32
  10
553520.000
  20
4661332.860
  30
1055.361
  0
VERTEX
  8
PNOA-H_AMS_1956-57_33k_ES_PAN_21mic_H50_0280_fot_27F-13180_W_tif
  70
32
  10
553520.000
  20
4659390.000
  30
1096.645
  0
VERTEX
  8
PNOA-H_AMS_1956-57_33k_ES_PAN_21mic_H50_0280_fot_27F-13180_W_tif
  70
32
  10
554631.745
  20
4659390.000
  30
1052.885
  0
VERTEX
  8
PNOA-H_AMS_1956-57_33k_ES_PAN_21mic_H50_0280_fot_27F-13180_W_tif
  70
32
  10
554653.500
  20
4657184.000
  30
1163.172
  0
VERTEX
  8
PNOA-H_AMS_1956-57_33k_ES_PAN_21mic_H50_0280_fot_27F-13180_W_tif
  70
32
  10
554322.487
  20
4657093.136
  30
1163.999
  0
VERTEX
  8
PNOA-H_AMS_1956-57_33k_ES_PAN_21mic_H50_0280_fot_27F-13180_W_tif
  70
32
  10
553194.500
  20
4656783.500
  30
1166.816
  0
VERTEX
  8
PNOA-H_AMS_1956-57_33k_ES_PAN_21mic_H50_0280_fot_27F-13180_W_tif
  70
32
  10
553193.539
  20
4656783.648
  30
1166.864
  0
VERTEX
  8
PNOA-H_AMS_1956-57_33k_ES_PAN_21mic_H50_0280_fot_27F-13180_W_tif
  70
32
  10
553191.539
  20
4656783.956
  30
1166.965
  0
VERTEX
  8
PNOA-H_AMS_1956-57_33k_ES_PAN_21mic_H50_0280_fot_27F-13180_W_tif
  70
32
  10
553188.000
  20
4656784.500
  30
1167.143
  0
VERTEX
  8
PNOA-H_AMS_1956-57_33k_ES_PAN_21mic_H50_0280_fot_27F-13180_W_tif
  70
32
  10
552310.730
  20
4657058.549
  30
1115.246
  0
VERTEX
  8
PNOA-H_AMS_1956-57_33k_ES_PAN_21mic_H50_0280_fot_27F-13180_W_tif
  70
32
  10
552066.000
  20
4657135.000
  30
1100.768
  0
VERTEX
  8
PNOA-H_AMS_1956-57_33k_ES_PAN_21mic_H50_0280_fot_27F-13180_W_tif
  70
32
  10
552016.000
  20
4661024.000
  30
1143.774
  0
VERTEX
  8
PNOA-H_AMS_1956-57_33k_ES_PAN_21mic_H50_0280_fot_27F-13180_W_tif
  70
32
  10
552016.191
  20
4661024.075
  30
1143.759
  0
VERTEX
  8
PNOA-H_AMS_1956-57_33k_ES_PAN_21mic_H50_0280_fot_27F-13180_W_tif
  70
32
  10
553066.000
  20
4661434.000
  30
1064.84
  0
VERTEX
  8
PNOA-H_AMS_1956-57_33k_ES_PAN_21mic_H50_0280_fot_27F-13180_W_tif
  70
32
  10
553067.013
  20
4661433.810
  30
1064.855
  0
VERTEX
  8
PNOA-H_AMS_1956-57_33k_ES_PAN_21mic_H50_0280_fot_27F-13180_W_tif
  70
32
  10
553075.309
  20
4661432.254
  30
1064.971
  0
VERTEX
  8
PNOA-H_AMS_1956-57_33k_ES_PAN_21mic_H50_0280_fot_27F-13180_W_tif
  70
32
  10
553090.000
  20
4661429.500
  30
1065.178
  0
VERTEX
  8
PNOA-H_AMS_1956-57_33k_ES_PAN_21mic_H50_0280_fot_27F-13180_W_tif
  70
32
  10
553391.955
  20
4661361.480
  30
1063.569
  0
SEQEND
  8
PNOA-H_AMS_1956-57_33k_ES_PAN_21mic_H50_0280_fot_27F-13180_W_tif
  0
INSERT
  8
FeatureAttribs
  2
FEATURE
  41
1
  42
1
  43
1
  50
0
  10
546756.054
  20
4659019.542
 66
1
  0
ATTRIB
  8
FeatureAttribs
 70
0
  1
PNOA-H_AMS_1956-57_33k_ES_PAN_21mic_H50_0280_fot_27F-13183_W.tif
  2
NAME
  10
546756.054
  20
4659019.542
 40
31.00988
  0
SEQEND
  0
POLYLINE
  8
PNOA-H_AMS_1956-57_33k_ES_PAN_21mic_H50_0280_fot_27F-13183_W_tif
  70
9
  66
1
  0
VERTEX
  8
PNOA-H_AMS_1956-57_33k_ES_PAN_21mic_H50_0280_fot_27F-13183_W_tif
  70
32
  10
547074.500
  20
4660965.500
  30
1461.547
  0
VERTEX
  8
PNOA-H_AMS_1956-57_33k_ES_PAN_21mic_H50_0280_fot_27F-13183_W_tif
  70
32
  10
547109.500
  20
4657097.500
  30
1263.734
  0
VERTEX
  8
PNOA-H_AMS_1956-57_33k_ES_PAN_21mic_H50_0280_fot_27F-13183_W_tif
  70
32
  10
547109.500
  20
4657050.500
  30
1253.066
  0
VERTEX
  8
PNOA-H_AMS_1956-57_33k_ES_PAN_21mic_H50_0280_fot_27F-13183_W_tif
  70
32
  10
547109.082
  20
4657050.291
  30
1253.005
  0
VERTEX
  8
PNOA-H_AMS_1956-57_33k_ES_PAN_21mic_H50_0280_fot_27F-13183_W_tif
  70
32
  10
547108.500
  20
4657050.000
  30
1252.92
  0
VERTEX
  8
PNOA-H_AMS_1956-57_33k_ES_PAN_21mic_H50_0280_fot_27F-13183_W_tif
  70
32
  10
546420.000
  20
4656922.755
  30
1222.589
  0
VERTEX
  8
PNOA-H_AMS_1956-57_33k_ES_PAN_21mic_H50_0280_fot_27F-13183_W_tif
  70
32
  10
546420.000
  20
4656923.090
  30
1222.602
  0
VERTEX
  8
PNOA-H_AMS_1956-57_33k_ES_PAN_21mic_H50_0280_fot_27F-13183_W_tif
  70
32
  10
546420.000
  20
4659080.000
  30
1308.566
  0
VERTEX
  8
PNOA-H_AMS_1956-57_33k_ES_PAN_21mic_H50_0280_fot_27F-13183_W_tif
  70
32
  10
546390.000
  20
4659080.000
  30
1308.566
  0
VERTEX
  8
PNOA-H_AMS_1956-57_33k_ES_PAN_21mic_H50_0280_fot_27F-13183_W_tif
  70
32
  10
546390.000
  20
4661116.330
  30
1424.436
  0
VERTEX
  8
PNOA-H_AMS_1956-57_33k_ES_PAN_21mic_H50_0280_fot_27F-13183_W_tif
  70
32
  10
547074.500
  20
4660965.500
  30
1461.547
  0
SEQEND
  8
PNOA-H_AMS_1956-57_33k_ES_PAN_21mic_H50_0280_fot_27F-13183_W_tif
  0
INSERT
  8
FeatureAttribs
  2
FEATURE
  41
1
  42
1
  43
1
  50
0
  10
548302.519
  20
4659025.000
 66
1
  0
ATTRIB
  8
FeatureAttribs
 70
0
  1
PNOA-H_AMS_1956-57_33k_ES_PAN_21mic_H50_0280_fot_27F-13182_W.tif
  2
NAME
  10
548302.519
  20
4659025.000
 40
31.00988
  0
SEQEND
  0
POLYLINE
  8
PNOA-H_AMS_1956-57_33k_ES_PAN_21mic_H50_0280_fot_27F-13182_W_tif
  70
9
  66
1
  0
VERTEX
  8
PNOA-H_AMS_1956-57_33k_ES_PAN_21mic_H50_0280_fot_27F-13182_W_tif
  70
32
  10
549532.558
  20
4657075.894
  30
1185.442
  0
VERTEX
  8
PNOA-H_AMS_1956-57_33k_ES_PAN_21mic_H50_0280_fot_27F-13182_W_tif
  70
32
  10
548036.500
  20
4656718.000
  30
1236.42
  0
VERTEX
  8
PNOA-H_AMS_1956-57_33k_ES_PAN_21mic_H50_0280_fot_27F-13182_W_tif
  70
32
  10
548036.300
  20
4656718.072
  30
1236.424
  0
VERTEX
  8
PNOA-H_AMS_1956-57_33k_ES_PAN_21mic_H50_0280_fot_27F-13182_W_tif
  70
32
  10
548035.998
  20
4656718.180
  30
1236.429
  0
VERTEX
  8
PNOA-H_AMS_1956-57_33k_ES_PAN_21mic_H50_0280_fot_27F-13182_W_tif
  70
32
  10
547629.687
  20
4656863.917
  30
1243.725
  0
VERTEX
  8
PNOA-H_AMS_1956-57_33k_ES_PAN_21mic_H50_0280_fot_27F-13182_W_tif
  70
32
  10
547109.500
  20
4657050.500
  30
1253.066
  0
VERTEX
  8
PNOA-H_AMS_1956-57_33k_ES_PAN_21mic_H50_0280_fot_27F-13182_W_tif
  70
32
  10
547074.500
  20
4660965.500
  30
1461.547
  0
VERTEX
  8
PNOA-H_AMS_1956-57_33k_ES_PAN_21mic_H50_0280_fot_27F-13182_W_tif
  70
32
  10
547074.873
  20
4660965.638
  30
1461.452
  0
VERTEX
  8
PNOA-H_AMS_1956-57_33k_ES_PAN_21mic_H50_0280_fot_27F-13182_W_tif
  70
32
  10
547273.000
  20
4661039.000
  30
1411.221
  0
VERTEX
  8
PNOA-H_AMS_1956-57_33k_ES_PAN_21mic_H50_0280_fot_27F-13182_W_tif
  70
32
  10
547274.500
  20
4661039.500
  30
1411.415
  0
VERTEX
  8
PNOA-H_AMS_1956-57_33k_ES_PAN_21mic_H50_0280_fot_27F-13182_W_tif
  70
32
  10
547706.286
  20
4661198.665
  30
1333.911
  0
VERTEX
  8
PNOA-H_AMS_1956-57_33k_ES_PAN_21mic_H50_0280_fot_27F-13182_W_tif
  70
32
  10
548067.621
  20
4661331.860
  30
1269.053
  0
VERTEX
  8
PNOA-H_AMS_1956-57_33k_ES_PAN_21mic_H50_0280_fot_27F-13182_W_tif
  70
32
  10
548068.000
  20
4661332.000
  30
1268.985
  0
VERTEX
  8
PNOA-H_AMS_1956-57_33k_ES_PAN_21mic_H50_0280_fot_27F-13182_W_tif
  70
32
  10
548780.500
  20
4661171.750
  30
1303.132
  0
VERTEX
  8
PNOA-H_AMS_1956-57_33k_ES_PAN_21mic_H50_0280_fot_27F-13182_W_tif
  70
32
  10
549493.000
  20
4661011.500
  30
1337.281
  0
VERTEX
  8
PNOA-H_AMS_1956-57_33k_ES_PAN_21mic_H50_0280_fot_27F-13182_W_tif
  70
32
  10
549533.000
  20
4657076.000
  30
1185.427
  0
VERTEX
  8
PNOA-H_AMS_1956-57_33k_ES_PAN_21mic_H50_0280_fot_27F-13182_W_tif
  70
32
  10
549532.558
  20
4657075.894
  30
1185.442
  0
SEQEND
  8
PNOA-H_AMS_1956-57_33k_ES_PAN_21mic_H50_0280_fot_27F-13182_W_tif
  0
INSERT
  8
FeatureAttribs
  2
FEATURE
  41
1
  42
1
  43
1
  50
0
  10
551761.680
  20
4662492.000
 66
1
  0
ATTRIB
  8
FeatureAttribs
 70
0
  1
PNOA-H_AMS_1956-57_33k_ES_PAN_21mic_H50_0280_fot_26F-23799_W.tif
  2
NAME
  10
551761.680
  20
4662492.000
 40
31.00988
  0
SEQEND
  0
POLYLINE
  8
PNOA-H_AMS_1956-57_33k_ES_PAN_21mic_H50_0280_fot_26F-23799_W_tif
  70
9
  66
1
  0
VERTEX
  8
PNOA-H_AMS_1956-57_33k_ES_PAN_21mic_H50_0280_fot_26F-23799_W_tif
  70
32
  10
553067.013
  20
4661433.810
  30
1064.91
  0
VERTEX
  8
PNOA-H_AMS_1956-57_33k_ES_PAN_21mic_H50_0280_fot_26F-23799_W_tif
  70
32
  10
552016.500
  20
4661024.000
  30
1143.742
  0
VERTEX
  8
PNOA-H_AMS_1956-57_33k_ES_PAN_21mic_H50_0280_fot_26F-23799_W_tif
  70
32
  10
552016.191
  20
4661024.075
  30
1143.739
  0
VERTEX
  8
PNOA-H_AMS_1956-57_33k_ES_PAN_21mic_H50_0280_fot_26F-23799_W_tif
  70
32
  10
550507.000
  20
4661388.000
  30
1129.352
  0
VERTEX
  8
PNOA-H_AMS_1956-57_33k_ES_PAN_21mic_H50_0280_fot_26F-23799_W_tif
  70
32
  10
550464.836
  20
4663960.000
  30
1360.443
  0
VERTEX
  8
PNOA-H_AMS_1956-57_33k_ES_PAN_21mic_H50_0280_fot_26F-23799_W_tif
  70
32
  10
552988.422
  20
4663960.000
  30
1307.199
  0
VERTEX
  8
PNOA-H_AMS_1956-57_33k_ES_PAN_21mic_H50_0280_fot_26F-23799_W_tif
  70
32
  10
552988.612
  20
4663960.000
  30
1307.195
  0
VERTEX
  8
PNOA-H_AMS_1956-57_33k_ES_PAN_21mic_H50_0280_fot_26F-23799_W_tif
  70
32
  10
553067.500
  20
4661434.000
  30
1064.873
  0
VERTEX
  8
PNOA-H_AMS_1956-57_33k_ES_PAN_21mic_H50_0280_fot_26F-23799_W_tif
  70
32
  10
553067.013
  20
4661433.810
  30
1064.91
  0
SEQEND
  8
PNOA-H_AMS_1956-57_33k_ES_PAN_21mic_H50_0280_fot_26F-23799_W_tif
  0
INSERT
  8
FeatureAttribs
  2
FEATURE
  41
1
  42
1
  43
1
  50
0
  10
549258.336
  20
4662485.750
 66
1
  0
ATTRIB
  8
FeatureAttribs
 70
0
  1
PNOA-H_AMS_1956-57_33k_ES_PAN_21mic_H50_0280_fot_26F-23800_W.tif
  2
NAME
  10
549258.336
  20
4662485.750
 40
31.00988
  0
SEQEND
  0
POLYLINE
  8
PNOA-H_AMS_1956-57_33k_ES_PAN_21mic_H50_0280_fot_26F-23800_W_tif
  70
9
  66
1
  0
VERTEX
  8
PNOA-H_AMS_1956-57_33k_ES_PAN_21mic_H50_0280_fot_26F-23800_W_tif
  70
32
  10
550506.606
  20
4661387.854
  30
1129.433
  0
VERTEX
  8
PNOA-H_AMS_1956-57_33k_ES_PAN_21mic_H50_0280_fot_26F-23800_W_tif
  70
32
  10
549494.000
  20
4661011.500
  30
1336.81
  0
VERTEX
  8
PNOA-H_AMS_1956-57_33k_ES_PAN_21mic_H50_0280_fot_26F-23800_W_tif
  70
32
  10
549493.377
  20
4661011.640
  30
1336.781
  0
VERTEX
  8
PNOA-H_AMS_1956-57_33k_ES_PAN_21mic_H50_0280_fot_26F-23800_W_tif
  70
32
  10
548780.500
  20
4661171.750
  30
1303.114
  0
VERTEX
  8
PNOA-H_AMS_1956-57_33k_ES_PAN_21mic_H50_0280_fot_26F-23800_W_tif
  70
32
  10
548067.621
  20
4661331.860
  30
1269.448
  0
VERTEX
  8
PNOA-H_AMS_1956-57_33k_ES_PAN_21mic_H50_0280_fot_26F-23800_W_tif
  70
32
  10
548067.000
  20
4661332.000
  30
1269.418
  0
VERTEX
  8
PNOA-H_AMS_1956-57_33k_ES_PAN_21mic_H50_0280_fot_26F-23800_W_tif
  70
32
  10
547977.409
  20
4663960.000
  30
1473.597
  0
VERTEX
  8
PNOA-H_AMS_1956-57_33k_ES_PAN_21mic_H50_0280_fot_26F-23800_W_tif
  70
32
  10
550464.836
  20
4663960.000
  30
1360.443
  0
VERTEX
  8
PNOA-H_AMS_1956-57_33k_ES_PAN_21mic_H50_0280_fot_26F-23800_W_tif
  70
32
  10
550507.000
  20
4661388.000
  30
1129.352
  0
VERTEX
  8
PNOA-H_AMS_1956-57_33k_ES_PAN_21mic_H50_0280_fot_26F-23800_W_tif
  70
32
  10
550506.606
  20
4661387.854
  30
1129.433
  0
SEQEND
  8
PNOA-H_AMS_1956-57_33k_ES_PAN_21mic_H50_0280_fot_26F-23800_W_tif
  0
INSERT
  8
FeatureAttribs
  2
FEATURE
  41
1
  42
1
  43
1
  50
0
  10
547209.226
  20
4662462.750
 66
1
  0
ATTRIB
  8
FeatureAttribs
 70
0
  1
PNOA-H_AMS_1956-57_33k_ES_PAN_21mic_H50_0280_fot_26F-23801_W.tif
  2
NAME
  10
547209.226
  20
4662462.750
 40
31.00988
  0
SEQEND
  0
POLYLINE
  8
PNOA-H_AMS_1956-57_33k_ES_PAN_21mic_H50_0280_fot_26F-23801_W_tif
  70
9
  66
1
  0
VERTEX
  8
PNOA-H_AMS_1956-57_33k_ES_PAN_21mic_H50_0280_fot_26F-23801_W_tif
  70
32
  10
547706.286
  20
4661198.665
  30
1339.206
  0
VERTEX
  8
PNOA-H_AMS_1956-57_33k_ES_PAN_21mic_H50_0280_fot_26F-23801_W_tif
  70
32
  10
547075.500
  20
4660965.500
  30
1461.244
  0
VERTEX
  8
PNOA-H_AMS_1956-57_33k_ES_PAN_21mic_H50_0280_fot_26F-23801_W_tif
  70
32
  10
547074.873
  20
4660965.638
  30
1461.21
  0
VERTEX
  8
PNOA-H_AMS_1956-57_33k_ES_PAN_21mic_H50_0280_fot_26F-23801_W_tif
  70
32
  10
546390.000
  20
4661116.501
  30
1424.264
  0
VERTEX
  8
PNOA-H_AMS_1956-57_33k_ES_PAN_21mic_H50_0280_fot_26F-23801_W_tif
  70
32
  10
546390.000
  20
4663960.000
  30
1492.295
  0
VERTEX
  8
PNOA-H_AMS_1956-57_33k_ES_PAN_21mic_H50_0280_fot_26F-23801_W_tif
  70
32
  10
547977.409
  20
4663960.000
  30
1473.597
  0
VERTEX
  8
PNOA-H_AMS_1956-57_33k_ES_PAN_21mic_H50_0280_fot_26F-23801_W_tif
  70
32
  10
548067.000
  20
4661332.000
  30
1269.418
  0
VERTEX
  8
PNOA-H_AMS_1956-57_33k_ES_PAN_21mic_H50_0280_fot_26F-23801_W_tif
  70
32
  10
547706.286
  20
4661198.665
  30
1339.206
  0
SEQEND
  8
PNOA-H_AMS_1956-57_33k_ES_PAN_21mic_H50_0280_fot_26F-23801_W_tif
  0
INSERT
  8
FeatureAttribs
  2
FEATURE
  41
1
  42
1
  43
1
  50
0
  10
553274.772
  20
4662646.430
 66
1
  0
ATTRIB
  8
FeatureAttribs
 70
0
  1
PNOA-H_AMS_1956-57_33k_ES_PAN_21mic_H50_0280_fot_26F-23798_W.tif
  2
NAME
  10
553274.772
  20
4662646.430
 40
31.00988
  0
SEQEND
  0
POLYLINE
  8
PNOA-H_AMS_1956-57_33k_ES_PAN_21mic_H50_0280_fot_26F-23798_W_tif
  70
9
  66
1
  0
VERTEX
  8
PNOA-H_AMS_1956-57_33k_ES_PAN_21mic_H50_0280_fot_26F-23798_W_tif
  70
32
  10
553520.000
  20
4661333.115
  30
1036.57
  0
VERTEX
  8
PNOA-H_AMS_1956-57_33k_ES_PAN_21mic_H50_0280_fot_26F-23798_W_tif
  70
32
  10
553520.000
  20
4661332.860
  30
1036.556
  0
VERTEX
  8
PNOA-H_AMS_1956-57_33k_ES_PAN_21mic_H50_0280_fot_26F-23798_W_tif
  70
32
  10
553418.708
  20
4661355.500
  30
1042.895
  0
VERTEX
  8
PNOA-H_AMS_1956-57_33k_ES_PAN_21mic_H50_0280_fot_26F-23798_W_tif
  70
32
  10
553391.955
  20
4661361.480
  30
1044.569
  0
VERTEX
  8
PNOA-H_AMS_1956-57_33k_ES_PAN_21mic_H50_0280_fot_26F-23798_W_tif
  70
32
  10
553075.309
  20
4661432.254
  30
1064.385
  0
VERTEX
  8
PNOA-H_AMS_1956-57_33k_ES_PAN_21mic_H50_0280_fot_26F-23798_W_tif
  70
32
  10
553067.500
  20
4661434.000
  30
1064.873
  0
VERTEX
  8
PNOA-H_AMS_1956-57_33k_ES_PAN_21mic_H50_0280_fot_26F-23798_W_tif
  70
32
  10
552988.422
  20
4663960.000
  30
1306.383
  0
VERTEX
  8
PNOA-H_AMS_1956-57_33k_ES_PAN_21mic_H50_0280_fot_26F-23798_W_tif
  70
32
  10
552988.612
  20
4663960.000
  30
1306.339
  0
VERTEX
  8
PNOA-H_AMS_1956-57_33k_ES_PAN_21mic_H50_0280_fot_26F-23798_W_tif
  70
32
  10
553520.000
  20
4663960.000
  30
1181.768
  0
VERTEX
  8
PNOA-H_AMS_1956-57_33k_ES_PAN_21mic_H50_0280_fot_26F-23798_W_tif
  70
32
  10
553520.000
  20
4661333.115
  30
1036.57
  0
SEQEND
  8
PNOA-H_AMS_1956-57_33k_ES_PAN_21mic_H50_0280_fot_26F-23798_W_tif
  0
INSERT
  8
FeatureAttribs
  2
FEATURE
  41
1
  42
1
  43
1
  50
0
  10
549335.536
  20
4655149.250
 66
1
  0
ATTRIB
  8
FeatureAttribs
 70
0
  1
PNOA-H_AMS_1956-57_33k_ES_PAN_21mic_H50_0280_fot_28E-24122_E.tif
  2
NAME
  10
549335.536
  20
4655149.250
 40
31.00988
  0
SEQEND
  0
POLYLINE
  8
PNOA-H_AMS_1956-57_33k_ES_PAN_21mic_H50_0280_fot_28E-24122_E_tif
  70
9
  66
1
  0
VERTEX
  8
PNOA-H_AMS_1956-57_33k_ES_PAN_21mic_H50_0280_fot_28E-24122_E_tif
  70
32
  10
550529.889
  20
4653672.777
  30
1244.916
  0
VERTEX
  8
PNOA-H_AMS_1956-57_33k_ES_PAN_21mic_H50_0280_fot_28E-24122_E_tif
  70
32
  10
550021.000
  20
4653222.500
  30
1204.189
  0
VERTEX
  8
PNOA-H_AMS_1956-57_33k_ES_PAN_21mic_H50_0280_fot_28E-24122_E_tif
  70
32
  10
550020.621
  20
4653222.607
  30
1204.222
  0
VERTEX
  8
PNOA-H_AMS_1956-57_33k_ES_PAN_21mic_H50_0280_fot_28E-24122_E_tif
  70
32
  10
548020.000
  20
4653789.000
  30
1379.07
  0
VERTEX
  8
PNOA-H_AMS_1956-57_33k_ES_PAN_21mic_H50_0280_fot_28E-24122_E_tif
  70
32
  10
548036.000
  20
4656718.000
  30
1236.434
  0
VERTEX
  8
PNOA-H_AMS_1956-57_33k_ES_PAN_21mic_H50_0280_fot_28E-24122_E_tif
  70
32
  10
548036.300
  20
4656718.072
  30
1236.424
  0
VERTEX
  8
PNOA-H_AMS_1956-57_33k_ES_PAN_21mic_H50_0280_fot_28E-24122_E_tif
  70
32
  10
549529.500
  20
4657075.500
  30
1185.652
  0
VERTEX
  8
PNOA-H_AMS_1956-57_33k_ES_PAN_21mic_H50_0280_fot_28E-24122_E_tif
  70
32
  10
549531.500
  20
4657076.000
  30
1185.471
  0
VERTEX
  8
PNOA-H_AMS_1956-57_33k_ES_PAN_21mic_H50_0280_fot_28E-24122_E_tif
  70
32
  10
549532.558
  20
4657075.894
  30
1185.447
  0
VERTEX
  8
PNOA-H_AMS_1956-57_33k_ES_PAN_21mic_H50_0280_fot_28E-24122_E_tif
  70
32
  10
549533.702
  20
4657075.780
  30
1185.42
  0
VERTEX
  8
PNOA-H_AMS_1956-57_33k_ES_PAN_21mic_H50_0280_fot_28E-24122_E_tif
  70
32
  10
549536.500
  20
4657075.500
  30
1185.356
  0
VERTEX
  8
PNOA-H_AMS_1956-57_33k_ES_PAN_21mic_H50_0280_fot_28E-24122_E_tif
  70
32
  10
550614.000
  20
4656737.500
  30
1122.065
  0
VERTEX
  8
PNOA-H_AMS_1956-57_33k_ES_PAN_21mic_H50_0280_fot_28E-24122_E_tif
  70
32
  10
550619.471
  20
4656735.676
  30
1121.42
  0
VERTEX
  8
PNOA-H_AMS_1956-57_33k_ES_PAN_21mic_H50_0280_fot_28E-24122_E_tif
  70
32
  10
550620.000
  20
4656735.500
  30
1121.357
  0
VERTEX
  8
PNOA-H_AMS_1956-57_33k_ES_PAN_21mic_H50_0280_fot_28E-24122_E_tif
  70
32
  10
550620.500
  20
4656732.000
  30
1121.868
  0
VERTEX
  8
PNOA-H_AMS_1956-57_33k_ES_PAN_21mic_H50_0280_fot_28E-24122_E_tif
  70
32
  10
550663.500
  20
4653791.000
  30
1255.609
  0
VERTEX
  8
PNOA-H_AMS_1956-57_33k_ES_PAN_21mic_H50_0280_fot_28E-24122_E_tif
  70
32
  10
550663.395
  20
4653790.907
  30
1255.6
  0
VERTEX
  8
PNOA-H_AMS_1956-57_33k_ES_PAN_21mic_H50_0280_fot_28E-24122_E_tif
  70
32
  10
550662.603
  20
4653790.207
  30
1255.537
  0
VERTEX
  8
PNOA-H_AMS_1956-57_33k_ES_PAN_21mic_H50_0280_fot_28E-24122_E_tif
  70
32
  10
550529.889
  20
4653672.777
  30
1244.916
  0
SEQEND
  8
PNOA-H_AMS_1956-57_33k_ES_PAN_21mic_H50_0280_fot_28E-24122_E_tif
  0
INSERT
  8
FeatureAttribs
  2
FEATURE
  41
1
  42
1
  43
1
  50
0
  10
551939.031
  20
4655223.750
 66
1
  0
ATTRIB
  8
FeatureAttribs
 70
0
  1
PNOA-H_AMS_1956-57_33k_ES_PAN_21mic_H50_0280_fot_28E-24123_E.tif
  2
NAME
  10
551939.031
  20
4655223.750
 40
31.00988
  0
SEQEND
  0
POLYLINE
  8
PNOA-H_AMS_1956-57_33k_ES_PAN_21mic_H50_0280_fot_28E-24123_E_tif
  70
9
  66
1
  0
VERTEX
  8
PNOA-H_AMS_1956-57_33k_ES_PAN_21mic_H50_0280_fot_28E-24123_E_tif
  70
32
  10
552691.515
  20
4653312.514
  30
1482.713
  0
VERTEX
  8
PNOA-H_AMS_1956-57_33k_ES_PAN_21mic_H50_0280_fot_28E-24123_E_tif
  70
32
  10
552691.500
  20
4653312.500
  30
1482.716
  0
VERTEX
  8
PNOA-H_AMS_1956-57_33k_ES_PAN_21mic_H50_0280_fot_28E-24123_E_tif
  70
32
  10
550663.500
  20
4653791.000
  30
1255.609
  0
VERTEX
  8
PNOA-H_AMS_1956-57_33k_ES_PAN_21mic_H50_0280_fot_28E-24123_E_tif
  70
32
  10
550620.000
  20
4656735.500
  30
1121.357
  0
VERTEX
  8
PNOA-H_AMS_1956-57_33k_ES_PAN_21mic_H50_0280_fot_28E-24123_E_tif
  70
32
  10
550622.886
  20
4656736.297
  30
1121.317
  0
VERTEX
  8
PNOA-H_AMS_1956-57_33k_ES_PAN_21mic_H50_0280_fot_28E-24123_E_tif
  70
32
  10
552064.000
  20
4657134.500
  30
1101.156
  0
VERTEX
  8
PNOA-H_AMS_1956-57_33k_ES_PAN_21mic_H50_0280_fot_28E-24123_E_tif
  70
32
  10
552065.500
  20
4657135.000
  30
1100.906
  0
VERTEX
  8
PNOA-H_AMS_1956-57_33k_ES_PAN_21mic_H50_0280_fot_28E-24123_E_tif
  70
32
  10
552065.735
  20
4657134.927
  30
1100.92
  0
VERTEX
  8
PNOA-H_AMS_1956-57_33k_ES_PAN_21mic_H50_0280_fot_28E-24123_E_tif
  70
32
  10
552310.730
  20
4657058.549
  30
1115.258
  0
VERTEX
  8
PNOA-H_AMS_1956-57_33k_ES_PAN_21mic_H50_0280_fot_28E-24123_E_tif
  70
32
  10
553191.539
  20
4656783.956
  30
1166.805
  0
VERTEX
  8
PNOA-H_AMS_1956-57_33k_ES_PAN_21mic_H50_0280_fot_28E-24123_E_tif
  70
32
  10
553193.000
  20
4656783.500
  30
1166.89
  0
VERTEX
  8
PNOA-H_AMS_1956-57_33k_ES_PAN_21mic_H50_0280_fot_28E-24123_E_tif
  70
32
  10
553273.500
  20
4653845.000
  30
1390.13
  0
VERTEX
  8
PNOA-H_AMS_1956-57_33k_ES_PAN_21mic_H50_0280_fot_28E-24123_E_tif
  70
32
  10
553273.406
  20
4653844.914
  30
1390.146
  0
VERTEX
  8
PNOA-H_AMS_1956-57_33k_ES_PAN_21mic_H50_0280_fot_28E-24123_E_tif
  70
32
  10
552691.515
  20
4653312.514
  30
1482.713
  0
SEQEND
  8
PNOA-H_AMS_1956-57_33k_ES_PAN_21mic_H50_0280_fot_28E-24123_E_tif
  0
INSERT
  8
FeatureAttribs
  2
FEATURE
  41
1
  42
1
  43
1
  50
0
  10
554551.888
  20
4655236.500
 66
1
  0
ATTRIB
  8
FeatureAttribs
 70
0
  1
PNOA-H_AMS_1956-57_33k_ES_PAN_21mic_H50_0280_fot_28E-24124_E.tif
  2
NAME
  10
554551.888
  20
4655236.500
 40
31.00988
  0
SEQEND
  0
POLYLINE
  8
PNOA-H_AMS_1956-57_33k_ES_PAN_21mic_H50_0280_fot_28E-24124_E_tif
  70
9
  66
1
  0
VERTEX
  8
PNOA-H_AMS_1956-57_33k_ES_PAN_21mic_H50_0280_fot_28E-24124_E_tif
  70
32
  10
555887.499
  20
4653289.107
  30
1300.196
  0
VERTEX
  8
PNOA-H_AMS_1956-57_33k_ES_PAN_21mic_H50_0280_fot_28E-24124_E_tif
  70
32
  10
555887.500
  20
4653289.000
  30
1300.202
  0
VERTEX
  8
PNOA-H_AMS_1956-57_33k_ES_PAN_21mic_H50_0280_fot_28E-24124_E_tif
  70
32
  10
555466.721
  20
4653378.500
  30
1314.678
  0
VERTEX
  8
PNOA-H_AMS_1956-57_33k_ES_PAN_21mic_H50_0280_fot_28E-24124_E_tif
  70
32
  10
553273.500
  20
4653845.000
  30
1390.13
  0
VERTEX
  8
PNOA-H_AMS_1956-57_33k_ES_PAN_21mic_H50_0280_fot_28E-24124_E_tif
  70
32
  10
553193.000
  20
4656783.500
  30
1166.89
  0
VERTEX
  8
PNOA-H_AMS_1956-57_33k_ES_PAN_21mic_H50_0280_fot_28E-24124_E_tif
  70
32
  10
553193.539
  20
4656783.648
  30
1166.801
  0
VERTEX
  8
PNOA-H_AMS_1956-57_33k_ES_PAN_21mic_H50_0280_fot_28E-24124_E_tif
  70
32
  10
553417.000
  20
4656845.000
  30
1129.578
  0
VERTEX
  8
PNOA-H_AMS_1956-57_33k_ES_PAN_21mic_H50_0280_fot_28E-24124_E_tif
  70
32
  10
553419.000
  20
4656845.500
  30
1128.814
  0
VERTEX
  8
PNOA-H_AMS_1956-57_33k_ES_PAN_21mic_H50_0280_fot_28E-24124_E_tif
  70
32
  10
554322.487
  20
4657093.136
  30
1153.96
  0
VERTEX
  8
PNOA-H_AMS_1956-57_33k_ES_PAN_21mic_H50_0280_fot_28E-24124_E_tif
  70
32
  10
554653.732
  20
4657183.927
  30
1163.179
  0
VERTEX
  8
PNOA-H_AMS_1956-57_33k_ES_PAN_21mic_H50_0280_fot_28E-24124_E_tif
  70
32
  10
554654.000
  20
4657184.000
  30
1163.187
  0
VERTEX
  8
PNOA-H_AMS_1956-57_33k_ES_PAN_21mic_H50_0280_fot_28E-24124_E_tif
  70
32
  10
555849.985
  20
4656806.951
  30
1113.561
  0
VERTEX
  8
PNOA-H_AMS_1956-57_33k_ES_PAN_21mic_H50_0280_fot_28E-24124_E_tif
  70
32
  10
555853.000
  20
4656806.000
  30
1113.436
  0
VERTEX
  8
PNOA-H_AMS_1956-57_33k_ES_PAN_21mic_H50_0280_fot_28E-24124_E_tif
  70
32
  10
555887.499
  20
4653289.107
  30
1300.196
  0
SEQEND
  8
PNOA-H_AMS_1956-57_33k_ES_PAN_21mic_H50_0280_fot_28E-24124_E_tif
  0
INSERT
  8
FeatureAttribs
  2
FEATURE
  41
1
  42
1
  43
1
  50
0
  10
548749.495
  20
4652354.250
 66
1
  0
ATTRIB
  8
FeatureAttribs
 70
0
  1
PNOA-H_AMS_1956-57_33k_ES_PAN_21mic_H50_0280_fot_000-50640_R.tif
  2
NAME
  10
548749.495
  20
4652354.250
 40
31.00988
  0
SEQEND
  0
POLYLINE
  8
PNOA-H_AMS_1956-57_33k_ES_PAN_21mic_H50_0280_fot_000-50640_R_tif
  70
9
  66
1
  0
VERTEX
  8
PNOA-H_AMS_1956-57_33k_ES_PAN_21mic_H50_0280_fot_000-50640_R_tif
  70
32
  10
550046.651
  20
4651502.576
  30
1194.235
  0
VERTEX
  8
PNOA-H_AMS_1956-57_33k_ES_PAN_21mic_H50_0280_fot_000-50640_R_tif
  70
32
  10
549183.500
  20
4650919.500
  30
1356.795
  0
VERTEX
  8
PNOA-H_AMS_1956-57_33k_ES_PAN_21mic_H50_0280_fot_000-50640_R_tif
  70
32
  10
549182.812
  20
4650919.549
  30
1356.724
  0
VERTEX
  8
PNOA-H_AMS_1956-57_33k_ES_PAN_21mic_H50_0280_fot_000-50640_R_tif
  70
32
  10
549178.191
  20
4650919.879
  30
1356.253
  0
VERTEX
  8
PNOA-H_AMS_1956-57_33k_ES_PAN_21mic_H50_0280_fot_000-50640_R_tif
  70
32
  10
549176.500
  20
4650920.000
  30
1356.08
  0
VERTEX
  8
PNOA-H_AMS_1956-57_33k_ES_PAN_21mic_H50_0280_fot_000-50640_R_tif
  70
32
  10
547980.991
  20
4651196.210
  30
1372.351
  0
VERTEX
  8
PNOA-H_AMS_1956-57_33k_ES_PAN_21mic_H50_0280_fot_000-50640_R_tif
  70
32
  10
547469.000
  20
4651314.500
  30
1379.319
  0
VERTEX
  8
PNOA-H_AMS_1956-57_33k_ES_PAN_21mic_H50_0280_fot_000-50640_R_tif
  70
32
  10
547459.002
  20
4653326.502
  30
1299.951
  0
VERTEX
  8
PNOA-H_AMS_1956-57_33k_ES_PAN_21mic_H50_0280_fot_000-50640_R_tif
  70
32
  10
547459.000
  20
4653327.000
  30
1299.931
  0
VERTEX
  8
PNOA-H_AMS_1956-57_33k_ES_PAN_21mic_H50_0280_fot_000-50640_R_tif
  70
32
  10
548018.500
  20
4653788.500
  30
1378.799
  0
VERTEX
  8
PNOA-H_AMS_1956-57_33k_ES_PAN_21mic_H50_0280_fot_000-50640_R_tif
  70
32
  10
548019.500
  20
4653789.000
  30
1379.022
  0
VERTEX
  8
PNOA-H_AMS_1956-57_33k_ES_PAN_21mic_H50_0280_fot_000-50640_R_tif
  70
32
  10
548019.872
  20
4653788.895
  30
1378.99
  0
VERTEX
  8
PNOA-H_AMS_1956-57_33k_ES_PAN_21mic_H50_0280_fot_000-50640_R_tif
  70
32
  10
550020.500
  20
4653222.500
  30
1204.374
  0
VERTEX
  8
PNOA-H_AMS_1956-57_33k_ES_PAN_21mic_H50_0280_fot_000-50640_R_tif
  70
32
  10
550049.500
  20
4651504.500
  30
1193.698
  0
VERTEX
  8
PNOA-H_AMS_1956-57_33k_ES_PAN_21mic_H50_0280_fot_000-50640_R_tif
  70
32
  10
550046.651
  20
4651502.576
  30
1194.235
  0
SEQEND
  8
PNOA-H_AMS_1956-57_33k_ES_PAN_21mic_H50_0280_fot_000-50640_R_tif
  0
INSERT
  8
FeatureAttribs
  2
FEATURE
  41
1
  42
1
  43
1
  50
0
  10
547988.177
  20
4650622.645
 66
1
  0
ATTRIB
  8
FeatureAttribs
 70
0
  1
PNOA-H_AMS_1956-57_33k_ES_PAN_21mic_H50_0280_fot_29C-50620_E.tif
  2
NAME
  10
547988.177
  20
4650622.645
 40
31.00988
  0
SEQEND
  0
POLYLINE
  8
PNOA-H_AMS_1956-57_33k_ES_PAN_21mic_H50_0280_fot_29C-50620_E_tif
  70
9
  66
1
  0
VERTEX
  8
PNOA-H_AMS_1956-57_33k_ES_PAN_21mic_H50_0280_fot_29C-50620_E_tif
  70
32
  10
549200.102
  20
4649947.056
  30
1454.43
  0
VERTEX
  8
PNOA-H_AMS_1956-57_33k_ES_PAN_21mic_H50_0280_fot_29C-50620_E_tif
  70
32
  10
546812.602
  20
4649930.790
  30
1423.032
  0
VERTEX
  8
PNOA-H_AMS_1956-57_33k_ES_PAN_21mic_H50_0280_fot_29C-50620_E_tif
  70
32
  10
546783.000
  20
4650792.500
  30
1438.299
  0
VERTEX
  8
PNOA-H_AMS_1956-57_33k_ES_PAN_21mic_H50_0280_fot_29C-50620_E_tif
  70
32
  10
546783.138
  20
4650792.605
  30
1438.287
  0
VERTEX
  8
PNOA-H_AMS_1956-57_33k_ES_PAN_21mic_H50_0280_fot_29C-50620_E_tif
  70
32
  10
547204.166
  20
4651112.832
  30
1402.104
  0
VERTEX
  8
PNOA-H_AMS_1956-57_33k_ES_PAN_21mic_H50_0280_fot_29C-50620_E_tif
  70
32
  10
547468.000
  20
4651313.500
  30
1379.43
  0
VERTEX
  8
PNOA-H_AMS_1956-57_33k_ES_PAN_21mic_H50_0280_fot_29C-50620_E_tif
  70
32
  10
547468.193
  20
4651313.885
  30
1379.435
  0
VERTEX
  8
PNOA-H_AMS_1956-57_33k_ES_PAN_21mic_H50_0280_fot_29C-50620_E_tif
  70
32
  10
547468.500
  20
4651314.500
  30
1379.381
  0
VERTEX
  8
PNOA-H_AMS_1956-57_33k_ES_PAN_21mic_H50_0280_fot_29C-50620_E_tif
  70
32
  10
547468.884
  20
4651314.411
  30
1379.376
  0
VERTEX
  8
PNOA-H_AMS_1956-57_33k_ES_PAN_21mic_H50_0280_fot_29C-50620_E_tif
  70
32
  10
547980.991
  20
4651196.210
  30
1372.615
  0
VERTEX
  8
PNOA-H_AMS_1956-57_33k_ES_PAN_21mic_H50_0280_fot_29C-50620_E_tif
  70
32
  10
549178.191
  20
4650919.879
  30
1356.808
  0
VERTEX
  8
PNOA-H_AMS_1956-57_33k_ES_PAN_21mic_H50_0280_fot_29C-50620_E_tif
  70
32
  10
549182.000
  20
4650919.000
  30
1356.757
  0
VERTEX
  8
PNOA-H_AMS_1956-57_33k_ES_PAN_21mic_H50_0280_fot_29C-50620_E_tif
  70
32
  10
549200.102
  20
4649947.056
  30
1454.43
  0
SEQEND
  8
PNOA-H_AMS_1956-57_33k_ES_PAN_21mic_H50_0280_fot_29C-50620_E_tif
  0
INSERT
  8
FeatureAttribs
  2
FEATURE
  41
1
  42
1
  43
1
  50
0
  10
551379.370
  20
4652310.000
 66
1
  0
ATTRIB
  8
FeatureAttribs
 70
0
  1
PNOA-H_AMS_1956-57_33k_ES_PAN_21mic_H50_0280_fot_000-50639_R.tif
  2
NAME
  10
551379.370
  20
4652310.000
 40
31.00988
  0
SEQEND
  0
POLYLINE
  8
PNOA-H_AMS_1956-57_33k_ES_PAN_21mic_H50_0280_fot_000-50639_R_tif
  70
9
  66
1
  0
VERTEX
  8
PNOA-H_AMS_1956-57_33k_ES_PAN_21mic_H50_0280_fot_000-50639_R_tif
  70
32
  10
552746.278
  20
4651552.866
  30
1524.939
  0
VERTEX
  8
PNOA-H_AMS_1956-57_33k_ES_PAN_21mic_H50_0280_fot_000-50639_R_tif
  70
32
  10
551550.000
  20
4650829.000
  30
1277.48
  0
VERTEX
  8
PNOA-H_AMS_1956-57_33k_ES_PAN_21mic_H50_0280_fot_000-50639_R_tif
  70
32
  10
551549.713
  20
4650829.129
  30
1277.464
  0
VERTEX
  8
PNOA-H_AMS_1956-57_33k_ES_PAN_21mic_H50_0280_fot_000-50639_R_tif
  70
32
  10
551549.506
  20
4650829.222
  30
1277.453
  0
VERTEX
  8
PNOA-H_AMS_1956-57_33k_ES_PAN_21mic_H50_0280_fot_000-50639_R_tif
  70
32
  10
550050.026
  20
4651504.263
  30
1193.728
  0
VERTEX
  8
PNOA-H_AMS_1956-57_33k_ES_PAN_21mic_H50_0280_fot_000-50639_R_tif
  70
32
  10
550049.500
  20
4651504.500
  30
1193.698
  0
VERTEX
  8
PNOA-H_AMS_1956-57_33k_ES_PAN_21mic_H50_0280_fot_000-50639_R_tif
  70
32
  10
550020.500
  20
4653222.500
  30
1204.374
  0
VERTEX
  8
PNOA-H_AMS_1956-57_33k_ES_PAN_21mic_H50_0280_fot_000-50639_R_tif
  70
32
  10
550020.621
  20
4653222.607
  30
1204.384
  0
VERTEX
  8
PNOA-H_AMS_1956-57_33k_ES_PAN_21mic_H50_0280_fot_000-50639_R_tif
  70
32
  10
550529.889
  20
4653672.777
  30
1245.163
  0
VERTEX
  8
PNOA-H_AMS_1956-57_33k_ES_PAN_21mic_H50_0280_fot_000-50639_R_tif
  70
32
  10
550662.500
  20
4653790.000
  30
1255.782
  0
VERTEX
  8
PNOA-H_AMS_1956-57_33k_ES_PAN_21mic_H50_0280_fot_000-50639_R_tif
  70
32
  10
550662.603
  20
4653790.207
  30
1255.735
  0
VERTEX
  8
PNOA-H_AMS_1956-57_33k_ES_PAN_21mic_H50_0280_fot_000-50639_R_tif
  70
32
  10
550663.000
  20
4653791.000
  30
1255.555
  0
VERTEX
  8
PNOA-H_AMS_1956-57_33k_ES_PAN_21mic_H50_0280_fot_000-50639_R_tif
  70
32
  10
550663.395
  20
4653790.907
  30
1255.599
  0
VERTEX
  8
PNOA-H_AMS_1956-57_33k_ES_PAN_21mic_H50_0280_fot_000-50639_R_tif
  70
32
  10
552691.500
  20
4653312.500
  30
1482.716
  0
VERTEX
  8
PNOA-H_AMS_1956-57_33k_ES_PAN_21mic_H50_0280_fot_000-50639_R_tif
  70
32
  10
552746.500
  20
4651553.000
  30
1524.985
  0
VERTEX
  8
PNOA-H_AMS_1956-57_33k_ES_PAN_21mic_H50_0280_fot_000-50639_R_tif
  70
32
  10
552746.278
  20
4651552.866
  30
1524.939
  0
SEQEND
  8
PNOA-H_AMS_1956-57_33k_ES_PAN_21mic_H50_0280_fot_000-50639_R_tif
  0
INSERT
  8
FeatureAttribs
  2
FEATURE
  41
1
  42
1
  43
1
  50
0
  10
552798.230
  20
4650758.473
 66
1
  0
ATTRIB
  8
FeatureAttribs
 70
0
  1
PNOA-H_AMS_1956-57_33k_ES_PAN_21mic_H50_0280_fot_29C-50622_E.tif
  2
NAME
  10
552798.230
  20
4650758.473
 40
31.00988
  0
SEQEND
  0
POLYLINE
  8
PNOA-H_AMS_1956-57_33k_ES_PAN_21mic_H50_0280_fot_29C-50622_E_tif
  70
9
  66
1
  0
VERTEX
  8
PNOA-H_AMS_1956-57_33k_ES_PAN_21mic_H50_0280_fot_29C-50622_E_tif
  70
32
  10
551569.646
  20
4649963.945
  30
0
  0
VERTEX
  8
PNOA-H_AMS_1956-57_33k_ES_PAN_21mic_H50_0280_fot_29C-50622_E_tif
  70
32
  10
551569.638
  20
4649963.945
  30
1330.559
  0
VERTEX
  8
PNOA-H_AMS_1956-57_33k_ES_PAN_21mic_H50_0280_fot_29C-50622_E_tif
  70
32
  10
551549.500
  20
4650829.000
  30
1277.38
  0
VERTEX
  8
PNOA-H_AMS_1956-57_33k_ES_PAN_21mic_H50_0280_fot_29C-50622_E_tif
  70
32
  10
551549.511
  20
4650829.007
  30
1277.382
  0
VERTEX
  8
PNOA-H_AMS_1956-57_33k_ES_PAN_21mic_H50_0280_fot_29C-50622_E_tif
  70
32
  10
551549.713
  20
4650829.129
  30
1277.424
  0
VERTEX
  8
PNOA-H_AMS_1956-57_33k_ES_PAN_21mic_H50_0280_fot_29C-50622_E_tif
  70
32
  10
552746.000
  20
4651553.000
  30
1524.974
  0
VERTEX
  8
PNOA-H_AMS_1956-57_33k_ES_PAN_21mic_H50_0280_fot_29C-50622_E_tif
  70
32
  10
552746.278
  20
4651552.866
  30
1524.956
  0
VERTEX
  8
PNOA-H_AMS_1956-57_33k_ES_PAN_21mic_H50_0280_fot_29C-50622_E_tif
  70
32
  10
553418.000
  20
4651228.500
  30
1480.126
  0
VERTEX
  8
PNOA-H_AMS_1956-57_33k_ES_PAN_21mic_H50_0280_fot_29C-50622_E_tif
  70
32
  10
553418.327
  20
4651228.418
  30
1480.08
  0
VERTEX
  8
PNOA-H_AMS_1956-57_33k_ES_PAN_21mic_H50_0280_fot_29C-50622_E_tif
  70
32
  10
553420.000
  20
4651228.000
  30
1479.842
  0
VERTEX
  8
PNOA-H_AMS_1956-57_33k_ES_PAN_21mic_H50_0280_fot_29C-50622_E_tif
  70
32
  10
554040.269
  20
4650928.577
  30
1383.229
  0
VERTEX
  8
PNOA-H_AMS_1956-57_33k_ES_PAN_21mic_H50_0280_fot_29C-50622_E_tif
  70
32
  10
554042.500
  20
4650927.500
  30
1382.882
  0
VERTEX
  8
PNOA-H_AMS_1956-57_33k_ES_PAN_21mic_H50_0280_fot_29C-50622_E_tif
  70
32
  10
554058.262
  20
4649982.389
  30
1374.324
  0
VERTEX
  8
PNOA-H_AMS_1956-57_33k_ES_PAN_21mic_H50_0280_fot_29C-50622_E_tif
  70
32
  10
554057.993
  20
4649982.387
  30
0
  0
VERTEX
  8
PNOA-H_AMS_1956-57_33k_ES_PAN_21mic_H50_0280_fot_29C-50622_E_tif
  70
32
  10
553486.501
  20
4649977.937
  30
0
  0
VERTEX
  8
PNOA-H_AMS_1956-57_33k_ES_PAN_21mic_H50_0280_fot_29C-50622_E_tif
  70
32
  10
551569.646
  20
4649963.945
  30
0
  0
SEQEND
  8
PNOA-H_AMS_1956-57_33k_ES_PAN_21mic_H50_0280_fot_29C-50622_E_tif
  0
INSERT
  8
FeatureAttribs
  2
FEATURE
  41
1
  42
1
  43
1
  50
0
  10
554643.066
  20
4652386.250
 66
1
  0
ATTRIB
  8
FeatureAttribs
 70
0
  1
PNOA-H_AMS_1956-57_33k_ES_PAN_21mic_H50_0280_fot_000-50638_R.tif
  2
NAME
  10
554643.066
  20
4652386.250
 40
31.00988
  0
SEQEND
  0
POLYLINE
  8
PNOA-H_AMS_1956-57_33k_ES_PAN_21mic_H50_0280_fot_000-50638_R_tif
  70
9
  66
1
  0
VERTEX
  8
PNOA-H_AMS_1956-57_33k_ES_PAN_21mic_H50_0280_fot_000-50638_R_tif
  70
32
  10
553273.406
  20
4653844.914
  30
1390.145
  0
VERTEX
  8
PNOA-H_AMS_1956-57_33k_ES_PAN_21mic_H50_0280_fot_000-50638_R_tif
  70
32
  10
555466.000
  20
4653378.500
  30
1339.034
  0
VERTEX
  8
PNOA-H_AMS_1956-57_33k_ES_PAN_21mic_H50_0280_fot_000-50638_R_tif
  70
32
  10
555466.721
  20
4653378.500
  30
1339.115
  0
VERTEX
  8
PNOA-H_AMS_1956-57_33k_ES_PAN_21mic_H50_0280_fot_000-50638_R_tif
  70
32
  10
555468.000
  20
4653378.500
  30
1339.258
  0
VERTEX
  8
PNOA-H_AMS_1956-57_33k_ES_PAN_21mic_H50_0280_fot_000-50638_R_tif
  70
32
  10
555887.499
  20
4653289.107
  30
1300.141
  0
VERTEX
  8
PNOA-H_AMS_1956-57_33k_ES_PAN_21mic_H50_0280_fot_000-50638_R_tif
  70
32
  10
555888.000
  20
4653289.000
  30
1300.094
  0
VERTEX
  8
PNOA-H_AMS_1956-57_33k_ES_PAN_21mic_H50_0280_fot_000-50638_R_tif
  70
32
  10
556585.000
  20
4652360.500
  30
1238.885
  0
VERTEX
  8
PNOA-H_AMS_1956-57_33k_ES_PAN_21mic_H50_0280_fot_000-50638_R_tif
  70
32
  10
556584.885
  20
4652360.154
  30
1238.829
  0
VERTEX
  8
PNOA-H_AMS_1956-57_33k_ES_PAN_21mic_H50_0280_fot_000-50638_R_tif
  70
32
  10
556584.646
  20
4652359.437
  30
1238.712
  0
VERTEX
  8
PNOA-H_AMS_1956-57_33k_ES_PAN_21mic_H50_0280_fot_000-50638_R_tif
  70
32
  10
556584.000
  20
4652357.500
  30
1238.397
  0
VERTEX
  8
PNOA-H_AMS_1956-57_33k_ES_PAN_21mic_H50_0280_fot_000-50638_R_tif
  70
32
  10
556449.007
  20
4652143.802
  30
1253.273
  0
VERTEX
  8
PNOA-H_AMS_1956-57_33k_ES_PAN_21mic_H50_0280_fot_000-50638_R_tif
  70
32
  10
556448.517
  20
4652143.026
  30
1253.327
  0
VERTEX
  8
PNOA-H_AMS_1956-57_33k_ES_PAN_21mic_H50_0280_fot_000-50638_R_tif
  70
32
  10
556448.500
  20
4652143.000
  30
1253.329
  0
VERTEX
  8
PNOA-H_AMS_1956-57_33k_ES_PAN_21mic_H50_0280_fot_000-50638_R_tif
  70
32
  10
554043.500
  20
4650927.500
  30
1382.703
  0
VERTEX
  8
PNOA-H_AMS_1956-57_33k_ES_PAN_21mic_H50_0280_fot_000-50638_R_tif
  70
32
  10
554042.857
  20
4650927.714
  30
1382.826
  0
VERTEX
  8
PNOA-H_AMS_1956-57_33k_ES_PAN_21mic_H50_0280_fot_000-50638_R_tif
  70
32
  10
554040.269
  20
4650928.577
  30
1383.321
  0
VERTEX
  8
PNOA-H_AMS_1956-57_33k_ES_PAN_21mic_H50_0280_fot_000-50638_R_tif
  70
32
  10
554036.000
  20
4650930.000
  30
1384.138
  0
VERTEX
  8
PNOA-H_AMS_1956-57_33k_ES_PAN_21mic_H50_0280_fot_000-50638_R_tif
  70
32
  10
553418.327
  20
4651228.418
  30
1451.604
  0
VERTEX
  8
PNOA-H_AMS_1956-57_33k_ES_PAN_21mic_H50_0280_fot_000-50638_R_tif
  70
32
  10
552746.500
  20
4651553.000
  30
1524.985
  0
VERTEX
  8
PNOA-H_AMS_1956-57_33k_ES_PAN_21mic_H50_0280_fot_000-50638_R_tif
  70
32
  10
552691.515
  20
4653312.514
  30
1482.653
  0
VERTEX
  8
PNOA-H_AMS_1956-57_33k_ES_PAN_21mic_H50_0280_fot_000-50638_R_tif
  70
32
  10
552691.500
  20
4653313.000
  30
1482.642
  0
VERTEX
  8
PNOA-H_AMS_1956-57_33k_ES_PAN_21mic_H50_0280_fot_000-50638_R_tif
  70
32
  10
553273.000
  20
4653845.000
  30
1390.155
  0
VERTEX
  8
PNOA-H_AMS_1956-57_33k_ES_PAN_21mic_H50_0280_fot_000-50638_R_tif
  70
32
  10
553273.406
  20
4653844.914
  30
1390.145
  0
SEQEND
  8
PNOA-H_AMS_1956-57_33k_ES_PAN_21mic_H50_0280_fot_000-50638_R_tif
  0
INSERT
  8
FeatureAttribs
  2
FEATURE
  41
1
  42
1
  43
1
  50
0
  10
550368.757
  20
4650725.778
 66
1
  0
ATTRIB
  8
FeatureAttribs
 70
0
  1
PNOA-H_AMS_1956-57_33k_ES_PAN_21mic_H50_0280_fot_29C-50621_E.tif
  2
NAME
  10
550368.757
  20
4650725.778
 40
31.00988
  0
SEQEND
  0
POLYLINE
  8
PNOA-H_AMS_1956-57_33k_ES_PAN_21mic_H50_0280_fot_29C-50621_E_tif
  70
9
  66
1
  0
VERTEX
  8
PNOA-H_AMS_1956-57_33k_ES_PAN_21mic_H50_0280_fot_29C-50621_E_tif
  70
32
  10
550035.745
  20
4649952.749
  30
0
  0
VERTEX
  8
PNOA-H_AMS_1956-57_33k_ES_PAN_21mic_H50_0280_fot_29C-50621_E_tif
  70
32
  10
549200.105
  20
4649947.056
  30
1454.473
  0
VERTEX
  8
PNOA-H_AMS_1956-57_33k_ES_PAN_21mic_H50_0280_fot_29C-50621_E_tif
  70
32
  10
549182.000
  20
4650919.000
  30
1356.757
  0
VERTEX
  8
PNOA-H_AMS_1956-57_33k_ES_PAN_21mic_H50_0280_fot_29C-50621_E_tif
  70
32
  10
549182.812
  20
4650919.549
  30
1356.731
  0
VERTEX
  8
PNOA-H_AMS_1956-57_33k_ES_PAN_21mic_H50_0280_fot_29C-50621_E_tif
  70
32
  10
549322.500
  20
4651014.000
  30
1352.263
  0
VERTEX
  8
PNOA-H_AMS_1956-57_33k_ES_PAN_21mic_H50_0280_fot_29C-50621_E_tif
  70
32
  10
549323.500
  20
4651014.500
  30
1352.177
  0
VERTEX
  8
PNOA-H_AMS_1956-57_33k_ES_PAN_21mic_H50_0280_fot_29C-50621_E_tif
  70
32
  10
550044.500
  20
4651501.500
  30
1195.234
  0
VERTEX
  8
PNOA-H_AMS_1956-57_33k_ES_PAN_21mic_H50_0280_fot_29C-50621_E_tif
  70
32
  10
550046.651
  20
4651502.576
  30
1194.615
  0
VERTEX
  8
PNOA-H_AMS_1956-57_33k_ES_PAN_21mic_H50_0280_fot_29C-50621_E_tif
  70
32
  10
550050.026
  20
4651504.263
  30
1193.644
  0
VERTEX
  8
PNOA-H_AMS_1956-57_33k_ES_PAN_21mic_H50_0280_fot_29C-50621_E_tif
  70
32
  10
550050.500
  20
4651504.500
  30
1193.508
  0
VERTEX
  8
PNOA-H_AMS_1956-57_33k_ES_PAN_21mic_H50_0280_fot_29C-50621_E_tif
  70
32
  10
551549.500
  20
4650829.500
  30
1277.481
  0
VERTEX
  8
PNOA-H_AMS_1956-57_33k_ES_PAN_21mic_H50_0280_fot_29C-50621_E_tif
  70
32
  10
551549.506
  20
4650829.222
  30
1277.498
  0
VERTEX
  8
PNOA-H_AMS_1956-57_33k_ES_PAN_21mic_H50_0280_fot_29C-50621_E_tif
  70
32
  10
551549.511
  20
4650829.007
  30
1277.511
  0
VERTEX
  8
PNOA-H_AMS_1956-57_33k_ES_PAN_21mic_H50_0280_fot_29C-50621_E_tif
  70
32
  10
551569.646
  20
4649963.945
  30
1330.651
  0
VERTEX
  8
PNOA-H_AMS_1956-57_33k_ES_PAN_21mic_H50_0280_fot_29C-50621_E_tif
  70
32
  10
551569.638
  20
4649963.945
  30
0
  0
VERTEX
  8
PNOA-H_AMS_1956-57_33k_ES_PAN_21mic_H50_0280_fot_29C-50621_E_tif
  70
32
  10
550035.745
  20
4649952.749
  30
0
  0
SEQEND
  8
PNOA-H_AMS_1956-57_33k_ES_PAN_21mic_H50_0280_fot_29C-50621_E_tif
  0
INSERT
  8
FeatureAttribs
  2
FEATURE
  41
1
  42
1
  43
1
  50
0
  10
560794.895
  20
4658188.000
 66
1
  0
ATTRIB
  8
FeatureAttribs
 70
0
  1
PNOA-H_AMS_1956-57_33k_ES_PAN_21mic_H50_0280_fot_27F-13177_W.tif
  2
NAME
  10
560794.895
  20
4658188.000
 40
31.00988
  0
SEQEND
  0
POLYLINE
  8
PNOA-H_AMS_1956-57_33k_ES_PAN_21mic_H50_0280_fot_27F-13177_W_tif
  70
9
  66
1
  0
VERTEX
  8
PNOA-H_AMS_1956-57_33k_ES_PAN_21mic_H50_0280_fot_27F-13177_W_tif
  70
32
  10
561965.500
  20
4657252.000
  30
1259.479
  0
VERTEX
  8
PNOA-H_AMS_1956-57_33k_ES_PAN_21mic_H50_0280_fot_27F-13177_W_tif
  70
32
  10
561093.500
  20
4656926.000
  30
1449.497
  0
VERTEX
  8
PNOA-H_AMS_1956-57_33k_ES_PAN_21mic_H50_0280_fot_27F-13177_W_tif
  70
32
  10
561093.178
  20
4656926.067
  30
1449.526
  0
VERTEX
  8
PNOA-H_AMS_1956-57_33k_ES_PAN_21mic_H50_0280_fot_27F-13177_W_tif
  70
32
  10
560619.333
  20
4657024.500
  30
1492.354
  0
VERTEX
  8
PNOA-H_AMS_1956-57_33k_ES_PAN_21mic_H50_0280_fot_27F-13177_W_tif
  70
32
  10
559671.609
  20
4657221.373
  30
1578.013
  0
VERTEX
  8
PNOA-H_AMS_1956-57_33k_ES_PAN_21mic_H50_0280_fot_27F-13177_W_tif
  70
32
  10
559671.000
  20
4657221.500
  30
1578.068
  0
VERTEX
  8
PNOA-H_AMS_1956-57_33k_ES_PAN_21mic_H50_0280_fot_27F-13177_W_tif
  70
32
  10
559670.500
  20
4657239.603
  30
1576.928
  0
VERTEX
  8
PNOA-H_AMS_1956-57_33k_ES_PAN_21mic_H50_0280_fot_27F-13177_W_tif
  70
32
  10
559611.107
  20
4659390.000
  30
1441.498
  0
VERTEX
  8
PNOA-H_AMS_1956-57_33k_ES_PAN_21mic_H50_0280_fot_27F-13177_W_tif
  70
32
  10
559611.285
  20
4659390.000
  30
1441.478
  0
VERTEX
  8
PNOA-H_AMS_1956-57_33k_ES_PAN_21mic_H50_0280_fot_27F-13177_W_tif
  70
32
  10
560200.000
  20
4659390.000
  30
1373.873
  0
VERTEX
  8
PNOA-H_AMS_1956-57_33k_ES_PAN_21mic_H50_0280_fot_27F-13177_W_tif
  70
32
  10
560200.000
  20
4659450.000
  30
1373.873
  0
VERTEX
  8
PNOA-H_AMS_1956-57_33k_ES_PAN_21mic_H50_0280_fot_27F-13177_W_tif
  70
32
  10
561918.230
  20
4659450.000
  30
1391.125
  0
VERTEX
  8
PNOA-H_AMS_1956-57_33k_ES_PAN_21mic_H50_0280_fot_27F-13177_W_tif
  70
32
  10
561918.589
  20
4659450.000
  30
1391.129
  0
VERTEX
  8
PNOA-H_AMS_1956-57_33k_ES_PAN_21mic_H50_0280_fot_27F-13177_W_tif
  70
32
  10
561934.000
  20
4658739.500
  30
1438.681
  0
VERTEX
  8
PNOA-H_AMS_1956-57_33k_ES_PAN_21mic_H50_0280_fot_27F-13177_W_tif
  70
32
  10
561934.000
  20
4658725.000
  30
1439.569
  0
VERTEX
  8
PNOA-H_AMS_1956-57_33k_ES_PAN_21mic_H50_0280_fot_27F-13177_W_tif
  70
32
  10
561963.673
  20
4657337.435
  30
1269.924
  0
VERTEX
  8
PNOA-H_AMS_1956-57_33k_ES_PAN_21mic_H50_0280_fot_27F-13177_W_tif
  70
32
  10
561965.493
  20
4657252.311
  30
1259.517
  0
VERTEX
  8
PNOA-H_AMS_1956-57_33k_ES_PAN_21mic_H50_0280_fot_27F-13177_W_tif
  70
32
  10
561965.500
  20
4657252.000
  30
1259.479
  0
SEQEND
  8
PNOA-H_AMS_1956-57_33k_ES_PAN_21mic_H50_0280_fot_27F-13177_W_tif
  0
INSERT
  8
FeatureAttribs
  2
FEATURE
  41
1
  42
1
  43
1
  50
0
  10
555920.585
  20
4658098.000
 66
1
  0
ATTRIB
  8
FeatureAttribs
 70
0
  1
PNOA-H_AMS_1956-57_33k_ES_PAN_21mic_H50_0280_fot_27F-13179_W.tif
  2
NAME
  10
555920.585
  20
4658098.000
 40
31.00988
  0
SEQEND
  0
POLYLINE
  8
PNOA-H_AMS_1956-57_33k_ES_PAN_21mic_H50_0280_fot_27F-13179_W_tif
  70
9
  66
1
  0
VERTEX
  8
PNOA-H_AMS_1956-57_33k_ES_PAN_21mic_H50_0280_fot_27F-13179_W_tif
  70
32
  10
557205.500
  20
4657201.500
  30
1207.994
  0
VERTEX
  8
PNOA-H_AMS_1956-57_33k_ES_PAN_21mic_H50_0280_fot_27F-13179_W_tif
  70
32
  10
555854.500
  20
4656806.000
  30
1112.874
  0
VERTEX
  8
PNOA-H_AMS_1956-57_33k_ES_PAN_21mic_H50_0280_fot_27F-13179_W_tif
  70
32
  10
555853.627
  20
4656806.184
  30
1113.291
  0
VERTEX
  8
PNOA-H_AMS_1956-57_33k_ES_PAN_21mic_H50_0280_fot_27F-13179_W_tif
  70
32
  10
555849.985
  20
4656806.951
  30
1115.032
  0
VERTEX
  8
PNOA-H_AMS_1956-57_33k_ES_PAN_21mic_H50_0280_fot_27F-13179_W_tif
  70
32
  10
555845.000
  20
4656808.000
  30
1117.414
  0
VERTEX
  8
PNOA-H_AMS_1956-57_33k_ES_PAN_21mic_H50_0280_fot_27F-13179_W_tif
  70
32
  10
554653.732
  20
4657183.927
  30
1163.163
  0
VERTEX
  8
PNOA-H_AMS_1956-57_33k_ES_PAN_21mic_H50_0280_fot_27F-13179_W_tif
  70
32
  10
554653.500
  20
4657184.000
  30
1163.172
  0
VERTEX
  8
PNOA-H_AMS_1956-57_33k_ES_PAN_21mic_H50_0280_fot_27F-13179_W_tif
  70
32
  10
554631.745
  20
4659390.000
  30
1052.885
  0
VERTEX
  8
PNOA-H_AMS_1956-57_33k_ES_PAN_21mic_H50_0280_fot_27F-13179_W_tif
  70
32
  10
557182.386
  20
4659390.000
  30
1156.474
  0
VERTEX
  8
PNOA-H_AMS_1956-57_33k_ES_PAN_21mic_H50_0280_fot_27F-13179_W_tif
  70
32
  10
557182.417
  20
4659390.000
  30
1156.475
  0
VERTEX
  8
PNOA-H_AMS_1956-57_33k_ES_PAN_21mic_H50_0280_fot_27F-13179_W_tif
  70
32
  10
557206.500
  20
4657209.000
  30
1208.799
  0
VERTEX
  8
PNOA-H_AMS_1956-57_33k_ES_PAN_21mic_H50_0280_fot_27F-13179_W_tif
  70
32
  10
557206.500
  20
4657202.000
  30
1208.192
  0
VERTEX
  8
PNOA-H_AMS_1956-57_33k_ES_PAN_21mic_H50_0280_fot_27F-13179_W_tif
  70
32
  10
557206.140
  20
4657201.820
  30
1208.121
  0
VERTEX
  8
PNOA-H_AMS_1956-57_33k_ES_PAN_21mic_H50_0280_fot_27F-13179_W_tif
  70
32
  10
557205.500
  20
4657201.500
  30
1207.994
  0
SEQEND
  8
PNOA-H_AMS_1956-57_33k_ES_PAN_21mic_H50_0280_fot_27F-13179_W_tif
  0
INSERT
  8
FeatureAttribs
  2
FEATURE
  41
1
  42
1
  43
1
  50
0
  10
558421.542
  20
4658113.750
 66
1
  0
ATTRIB
  8
FeatureAttribs
 70
0
  1
PNOA-H_AMS_1956-57_33k_ES_PAN_21mic_H50_0280_fot_27F-13178_W.tif
  2
NAME
  10
558421.542
  20
4658113.750
 40
31.00988
  0
SEQEND
  0
POLYLINE
  8
PNOA-H_AMS_1956-57_33k_ES_PAN_21mic_H50_0280_fot_27F-13178_W_tif
  70
9
  66
1
  0
VERTEX
  8
PNOA-H_AMS_1956-57_33k_ES_PAN_21mic_H50_0280_fot_27F-13178_W_tif
  70
32
  10
559670.500
  20
4657221.000
  30
1577.881
  0
VERTEX
  8
PNOA-H_AMS_1956-57_33k_ES_PAN_21mic_H50_0280_fot_27F-13178_W_tif
  70
32
  10
558502.500
  20
4656837.500
  30
1333.055
  0
VERTEX
  8
PNOA-H_AMS_1956-57_33k_ES_PAN_21mic_H50_0280_fot_27F-13178_W_tif
  70
32
  10
558501.917
  20
4656837.637
  30
1333.237
  0
VERTEX
  8
PNOA-H_AMS_1956-57_33k_ES_PAN_21mic_H50_0280_fot_27F-13178_W_tif
  70
32
  10
558496.380
  20
4656838.940
  30
1334.973
  0
VERTEX
  8
PNOA-H_AMS_1956-57_33k_ES_PAN_21mic_H50_0280_fot_27F-13178_W_tif
  70
32
  10
558485.500
  20
4656841.500
  30
1338.384
  0
VERTEX
  8
PNOA-H_AMS_1956-57_33k_ES_PAN_21mic_H50_0280_fot_27F-13178_W_tif
  70
32
  10
557666.940
  20
4657072.220
  30
1255.061
  0
VERTEX
  8
PNOA-H_AMS_1956-57_33k_ES_PAN_21mic_H50_0280_fot_27F-13178_W_tif
  70
32
  10
557206.500
  20
4657202.000
  30
1208.192
  0
VERTEX
  8
PNOA-H_AMS_1956-57_33k_ES_PAN_21mic_H50_0280_fot_27F-13178_W_tif
  70
32
  10
557182.386
  20
4659390.000
  30
1156.192
  0
VERTEX
  8
PNOA-H_AMS_1956-57_33k_ES_PAN_21mic_H50_0280_fot_27F-13178_W_tif
  70
32
  10
557182.417
  20
4659390.000
  30
1156.195
  0
VERTEX
  8
PNOA-H_AMS_1956-57_33k_ES_PAN_21mic_H50_0280_fot_27F-13178_W_tif
  70
32
  10
559611.107
  20
4659390.000
  30
1447.516
  0
VERTEX
  8
PNOA-H_AMS_1956-57_33k_ES_PAN_21mic_H50_0280_fot_27F-13178_W_tif
  70
32
  10
559611.285
  20
4659390.000
  30
1447.537
  0
VERTEX
  8
PNOA-H_AMS_1956-57_33k_ES_PAN_21mic_H50_0280_fot_27F-13178_W_tif
  70
32
  10
559670.500
  20
4657252.000
  30
1589.5
  0
VERTEX
  8
PNOA-H_AMS_1956-57_33k_ES_PAN_21mic_H50_0280_fot_27F-13178_W_tif
  70
32
  10
559670.500
  20
4657239.603
  30
1584.854
  0
VERTEX
  8
PNOA-H_AMS_1956-57_33k_ES_PAN_21mic_H50_0280_fot_27F-13178_W_tif
  70
32
  10
559670.500
  20
4657221.014
  30
1577.886
  0
VERTEX
  8
PNOA-H_AMS_1956-57_33k_ES_PAN_21mic_H50_0280_fot_27F-13178_W_tif
  70
32
  10
559670.500
  20
4657221.000
  30
1577.881
  0
SEQEND
  8
PNOA-H_AMS_1956-57_33k_ES_PAN_21mic_H50_0280_fot_27F-13178_W_tif
  0
INSERT
  8
FeatureAttribs
  2
FEATURE
  41
1
  42
1
  43
1
  50
0
  10
559840.892
  20
4654833.250
 66
1
  0
ATTRIB
  8
FeatureAttribs
 70
0
  1
PNOA-H_AMS_1956-57_33k_ES_PAN_21mic_H50_0280_fot_28E-24126_E.tif
  2
NAME
  10
559840.892
  20
4654833.250
 40
31.00988
  0
SEQEND
  0
POLYLINE
  8
PNOA-H_AMS_1956-57_33k_ES_PAN_21mic_H50_0280_fot_28E-24126_E_tif
  70
9
  66
1
  0
VERTEX
  8
PNOA-H_AMS_1956-57_33k_ES_PAN_21mic_H50_0280_fot_28E-24126_E_tif
  70
32
  10
561194.797
  20
4652688.371
  30
1197.484
  0
VERTEX
  8
PNOA-H_AMS_1956-57_33k_ES_PAN_21mic_H50_0280_fot_28E-24126_E_tif
  70
32
  10
558933.000
  20
4652445.000
  30
1195.703
  0
VERTEX
  8
PNOA-H_AMS_1956-57_33k_ES_PAN_21mic_H50_0280_fot_28E-24126_E_tif
  70
32
  10
558931.769
  20
4652445.137
  30
1195.708
  0
VERTEX
  8
PNOA-H_AMS_1956-57_33k_ES_PAN_21mic_H50_0280_fot_28E-24126_E_tif
  70
32
  10
558930.019
  20
4652445.331
  30
1195.714
  0
VERTEX
  8
PNOA-H_AMS_1956-57_33k_ES_PAN_21mic_H50_0280_fot_28E-24126_E_tif
  70
32
  10
558928.500
  20
4652445.500
  30
1195.719
  0
VERTEX
  8
PNOA-H_AMS_1956-57_33k_ES_PAN_21mic_H50_0280_fot_28E-24126_E_tif
  70
32
  10
558578.500
  20
4652599.500
  30
1182.181
  0
VERTEX
  8
PNOA-H_AMS_1956-57_33k_ES_PAN_21mic_H50_0280_fot_28E-24126_E_tif
  70
32
  10
558501.500
  20
4656837.500
  30
1333.304
  0
VERTEX
  8
PNOA-H_AMS_1956-57_33k_ES_PAN_21mic_H50_0280_fot_28E-24126_E_tif
  70
32
  10
558501.917
  20
4656837.637
  30
1333.394
  0
VERTEX
  8
PNOA-H_AMS_1956-57_33k_ES_PAN_21mic_H50_0280_fot_28E-24126_E_tif
  70
32
  10
559561.000
  20
4657185.500
  30
1561.663
  0
VERTEX
  8
PNOA-H_AMS_1956-57_33k_ES_PAN_21mic_H50_0280_fot_28E-24126_E_tif
  70
32
  10
559562.500
  20
4657186.000
  30
1561.814
  0
VERTEX
  8
PNOA-H_AMS_1956-57_33k_ES_PAN_21mic_H50_0280_fot_28E-24126_E_tif
  70
32
  10
559670.500
  20
4657221.014
  30
1577.828
  0
VERTEX
  8
PNOA-H_AMS_1956-57_33k_ES_PAN_21mic_H50_0280_fot_28E-24126_E_tif
  70
32
  10
559671.609
  20
4657221.373
  30
1577.992
  0
VERTEX
  8
PNOA-H_AMS_1956-57_33k_ES_PAN_21mic_H50_0280_fot_28E-24126_E_tif
  70
32
  10
559672.000
  20
4657221.500
  30
1578.05
  0
VERTEX
  8
PNOA-H_AMS_1956-57_33k_ES_PAN_21mic_H50_0280_fot_28E-24126_E_tif
  70
32
  10
560619.333
  20
4657024.500
  30
1492.409
  0
VERTEX
  8
PNOA-H_AMS_1956-57_33k_ES_PAN_21mic_H50_0280_fot_28E-24126_E_tif
  70
32
  10
561093.000
  20
4656926.000
  30
1449.589
  0
VERTEX
  8
PNOA-H_AMS_1956-57_33k_ES_PAN_21mic_H50_0280_fot_28E-24126_E_tif
  70
32
  10
561196.000
  20
4652688.500
  30
1197.484
  0
VERTEX
  8
PNOA-H_AMS_1956-57_33k_ES_PAN_21mic_H50_0280_fot_28E-24126_E_tif
  70
32
  10
561195.988
  20
4652688.499
  30
1197.484
  0
VERTEX
  8
PNOA-H_AMS_1956-57_33k_ES_PAN_21mic_H50_0280_fot_28E-24126_E_tif
  70
32
  10
561194.797
  20
4652688.371
  30
1197.484
  0
SEQEND
  8
PNOA-H_AMS_1956-57_33k_ES_PAN_21mic_H50_0280_fot_28E-24126_E_tif
  0
INSERT
  8
FeatureAttribs
  2
FEATURE
  41
1
  42
1
  43
1
  50
0
  10
557205.864
  20
4654781.000
 66
1
  0
ATTRIB
  8
FeatureAttribs
 70
0
  1
PNOA-H_AMS_1956-57_33k_ES_PAN_21mic_H50_0280_fot_28E-24125_E.tif
  2
NAME
  10
557205.864
  20
4654781.000
 40
31.00988
  0
SEQEND
  0
POLYLINE
  8
PNOA-H_AMS_1956-57_33k_ES_PAN_21mic_H50_0280_fot_28E-24125_E_tif
  70
9
  66
1
  0
VERTEX
  8
PNOA-H_AMS_1956-57_33k_ES_PAN_21mic_H50_0280_fot_28E-24125_E_tif
  70
32
  10
558578.500
  20
4652599.500
  30
1182.181
  0
VERTEX
  8
PNOA-H_AMS_1956-57_33k_ES_PAN_21mic_H50_0280_fot_28E-24125_E_tif
  70
32
  10
556585.000
  20
4652360.000
  30
1238.763
  0
VERTEX
  8
PNOA-H_AMS_1956-57_33k_ES_PAN_21mic_H50_0280_fot_28E-24125_E_tif
  70
32
  10
556584.885
  20
4652360.154
  30
1238.774
  0
VERTEX
  8
PNOA-H_AMS_1956-57_33k_ES_PAN_21mic_H50_0280_fot_28E-24125_E_tif
  70
32
  10
555887.500
  20
4653289.000
  30
1300.202
  0
VERTEX
  8
PNOA-H_AMS_1956-57_33k_ES_PAN_21mic_H50_0280_fot_28E-24125_E_tif
  70
32
  10
555887.499
  20
4653289.107
  30
1300.196
  0
VERTEX
  8
PNOA-H_AMS_1956-57_33k_ES_PAN_21mic_H50_0280_fot_28E-24125_E_tif
  70
32
  10
555853.000
  20
4656806.000
  30
1113.436
  0
VERTEX
  8
PNOA-H_AMS_1956-57_33k_ES_PAN_21mic_H50_0280_fot_28E-24125_E_tif
  70
32
  10
555853.627
  20
4656806.184
  30
1113.48
  0
VERTEX
  8
PNOA-H_AMS_1956-57_33k_ES_PAN_21mic_H50_0280_fot_28E-24125_E_tif
  70
32
  10
557204.000
  20
4657201.500
  30
1207.764
  0
VERTEX
  8
PNOA-H_AMS_1956-57_33k_ES_PAN_21mic_H50_0280_fot_28E-24125_E_tif
  70
32
  10
557205.500
  20
4657202.000
  30
1208.042
  0
VERTEX
  8
PNOA-H_AMS_1956-57_33k_ES_PAN_21mic_H50_0280_fot_28E-24125_E_tif
  70
32
  10
557206.140
  20
4657201.820
  30
1208.103
  0
VERTEX
  8
PNOA-H_AMS_1956-57_33k_ES_PAN_21mic_H50_0280_fot_28E-24125_E_tif
  70
32
  10
557666.940
  20
4657072.220
  30
1252.641
  0
VERTEX
  8
PNOA-H_AMS_1956-57_33k_ES_PAN_21mic_H50_0280_fot_28E-24125_E_tif
  70
32
  10
558496.380
  20
4656838.940
  30
1332.809
  0
VERTEX
  8
PNOA-H_AMS_1956-57_33k_ES_PAN_21mic_H50_0280_fot_28E-24125_E_tif
  70
32
  10
558501.500
  20
4656837.500
  30
1333.304
  0
VERTEX
  8
PNOA-H_AMS_1956-57_33k_ES_PAN_21mic_H50_0280_fot_28E-24125_E_tif
  70
32
  10
558578.500
  20
4652599.500
  30
1182.181
  0
SEQEND
  8
PNOA-H_AMS_1956-57_33k_ES_PAN_21mic_H50_0280_fot_28E-24125_E_tif
  0
INSERT
  8
FeatureAttribs
  2
FEATURE
  41
1
  42
1
  43
1
  50
0
  10
555398.246
  20
4651062.943
 66
1
  0
ATTRIB
  8
FeatureAttribs
 70
0
  1
PNOA-H_AMS_1956-57_33k_ES_PAN_21mic_H50_0280_fot_29C-50623_E.tif
  2
NAME
  10
555398.246
  20
4651062.943
 40
31.00988
  0
SEQEND
  0
POLYLINE
  8
PNOA-H_AMS_1956-57_33k_ES_PAN_21mic_H50_0280_fot_29C-50623_E_tif
  70
9
  66
1
  0
VERTEX
  8
PNOA-H_AMS_1956-57_33k_ES_PAN_21mic_H50_0280_fot_29C-50623_E_tif
  70
32
  10
554058.262
  20
4649982.389
  30
1374.308
  0
VERTEX
  8
PNOA-H_AMS_1956-57_33k_ES_PAN_21mic_H50_0280_fot_29C-50623_E_tif
  70
32
  10
554057.993
  20
4649982.387
  30
1375.826
  0
VERTEX
  8
PNOA-H_AMS_1956-57_33k_ES_PAN_21mic_H50_0280_fot_29C-50623_E_tif
  70
32
  10
554042.500
  20
4650904.000
  30
1384.88
  0
VERTEX
  8
PNOA-H_AMS_1956-57_33k_ES_PAN_21mic_H50_0280_fot_29C-50623_E_tif
  70
32
  10
554042.500
  20
4650927.500
  30
1382.882
  0
VERTEX
  8
PNOA-H_AMS_1956-57_33k_ES_PAN_21mic_H50_0280_fot_29C-50623_E_tif
  70
32
  10
554042.857
  20
4650927.714
  30
1382.81
  0
VERTEX
  8
PNOA-H_AMS_1956-57_33k_ES_PAN_21mic_H50_0280_fot_29C-50623_E_tif
  70
32
  10
554045.000
  20
4650929.000
  30
1382.377
  0
VERTEX
  8
PNOA-H_AMS_1956-57_33k_ES_PAN_21mic_H50_0280_fot_29C-50623_E_tif
  70
32
  10
556447.500
  20
4652143.000
  30
1253.304
  0
VERTEX
  8
PNOA-H_AMS_1956-57_33k_ES_PAN_21mic_H50_0280_fot_29C-50623_E_tif
  70
32
  10
556448.500
  20
4652143.500
  30
1253.21
  0
VERTEX
  8
PNOA-H_AMS_1956-57_33k_ES_PAN_21mic_H50_0280_fot_29C-50623_E_tif
  70
32
  10
556448.517
  20
4652143.026
  30
1253.236
  0
VERTEX
  8
PNOA-H_AMS_1956-57_33k_ES_PAN_21mic_H50_0280_fot_29C-50623_E_tif
  70
32
  10
556523.664
  20
4650001.585
  30
1370.296
  0
VERTEX
  8
PNOA-H_AMS_1956-57_33k_ES_PAN_21mic_H50_0280_fot_29C-50623_E_tif
  70
32
  10
554058.262
  20
4649982.389
  30
1374.308
  0
SEQEND
  8
PNOA-H_AMS_1956-57_33k_ES_PAN_21mic_H50_0280_fot_29C-50623_E_tif
  0
INSERT
  8
FeatureAttribs
  2
FEATURE
  41
1
  42
1
  43
1
  50
0
  10
557739.727
  20
4651300.543
 66
1
  0
ATTRIB
  8
FeatureAttribs
 70
0
  1
PNOA-H_AMS_1956-57_33k_ES_PAN_21mic_H50_0280_fot_29C-50624_E.tif
  2
NAME
  10
557739.727
  20
4651300.543
 40
31.00988
  0
SEQEND
  0
POLYLINE
  8
PNOA-H_AMS_1956-57_33k_ES_PAN_21mic_H50_0280_fot_29C-50624_E_tif
  70
9
  66
1
  0
VERTEX
  8
PNOA-H_AMS_1956-57_33k_ES_PAN_21mic_H50_0280_fot_29C-50624_E_tif
  70
32
  10
558579.500
  20
4652599.500
  30
1182.22
  0
VERTEX
  8
PNOA-H_AMS_1956-57_33k_ES_PAN_21mic_H50_0280_fot_29C-50624_E_tif
  70
32
  10
558585.500
  20
4652597.000
  30
1182.284
  0
VERTEX
  8
PNOA-H_AMS_1956-57_33k_ES_PAN_21mic_H50_0280_fot_29C-50624_E_tif
  70
32
  10
558930.000
  20
4652445.500
  30
1195.74
  0
VERTEX
  8
PNOA-H_AMS_1956-57_33k_ES_PAN_21mic_H50_0280_fot_29C-50624_E_tif
  70
32
  10
558930.019
  20
4652445.331
  30
1195.709
  0
VERTEX
  8
PNOA-H_AMS_1956-57_33k_ES_PAN_21mic_H50_0280_fot_29C-50624_E_tif
  70
32
  10
558931.049
  20
4652436.061
  30
1194.01
  0
VERTEX
  8
PNOA-H_AMS_1956-57_33k_ES_PAN_21mic_H50_0280_fot_29C-50624_E_tif
  70
32
  10
558931.500
  20
4652432.000
  30
1193.265
  0
VERTEX
  8
PNOA-H_AMS_1956-57_33k_ES_PAN_21mic_H50_0280_fot_29C-50624_E_tif
  70
32
  10
559079.553
  20
4650022.527
  30
1227.832
  0
VERTEX
  8
PNOA-H_AMS_1956-57_33k_ES_PAN_21mic_H50_0280_fot_29C-50624_E_tif
  70
32
  10
559079.219
  20
4650022.525
  30
0
  0
VERTEX
  8
PNOA-H_AMS_1956-57_33k_ES_PAN_21mic_H50_0280_fot_29C-50624_E_tif
  70
32
  10
556937.260
  20
4650004.805
  30
0
  0
VERTEX
  8
PNOA-H_AMS_1956-57_33k_ES_PAN_21mic_H50_0280_fot_29C-50624_E_tif
  70
32
  10
556523.753
  20
4650001.585
  30
1369.142
  0
VERTEX
  8
PNOA-H_AMS_1956-57_33k_ES_PAN_21mic_H50_0280_fot_29C-50624_E_tif
  70
32
  10
556449.007
  20
4652143.802
  30
1253.113
  0
VERTEX
  8
PNOA-H_AMS_1956-57_33k_ES_PAN_21mic_H50_0280_fot_29C-50624_E_tif
  70
32
  10
556449.000
  20
4652144.000
  30
1253.102
  0
VERTEX
  8
PNOA-H_AMS_1956-57_33k_ES_PAN_21mic_H50_0280_fot_29C-50624_E_tif
  70
32
  10
556584.646
  20
4652359.437
  30
1238.801
  0
VERTEX
  8
PNOA-H_AMS_1956-57_33k_ES_PAN_21mic_H50_0280_fot_29C-50624_E_tif
  70
32
  10
556585.000
  20
4652360.000
  30
1238.763
  0
VERTEX
  8
PNOA-H_AMS_1956-57_33k_ES_PAN_21mic_H50_0280_fot_29C-50624_E_tif
  70
32
  10
558571.000
  20
4652599.000
  30
1181.874
  0
VERTEX
  8
PNOA-H_AMS_1956-57_33k_ES_PAN_21mic_H50_0280_fot_29C-50624_E_tif
  70
32
  10
558575.000
  20
4652599.500
  30
1182.052
  0
VERTEX
  8
PNOA-H_AMS_1956-57_33k_ES_PAN_21mic_H50_0280_fot_29C-50624_E_tif
  70
32
  10
558578.500
  20
4652599.500
  30
1182.183
  0
VERTEX
  8
PNOA-H_AMS_1956-57_33k_ES_PAN_21mic_H50_0280_fot_29C-50624_E_tif
  70
32
  10
558579.500
  20
4652599.500
  30
1182.22
  0
SEQEND
  8
PNOA-H_AMS_1956-57_33k_ES_PAN_21mic_H50_0280_fot_29C-50624_E_tif
  0
INSERT
  8
FeatureAttribs
  2
FEATURE
  41
1
  42
1
  43
1
  50
0
  10
560263.562
  20
4651355.512
 66
1
  0
ATTRIB
  8
FeatureAttribs
 70
0
  1
PNOA-H_AMS_1956-57_33k_ES_PAN_21mic_H50_0280_fot_29C-50625_E.tif
  2
NAME
  10
560263.562
  20
4651355.512
 40
31.00988
  0
SEQEND
  0
POLYLINE
  8
PNOA-H_AMS_1956-57_33k_ES_PAN_21mic_H50_0280_fot_29C-50625_E_tif
  70
9
  66
1
  0
VERTEX
  8
PNOA-H_AMS_1956-57_33k_ES_PAN_21mic_H50_0280_fot_29C-50625_E_tif
  70
32
  10
559079.553
  20
4650022.527
  30
0
  0
VERTEX
  8
PNOA-H_AMS_1956-57_33k_ES_PAN_21mic_H50_0280_fot_29C-50625_E_tif
  70
32
  10
559079.219
  20
4650022.525
  30
1229.059
  0
VERTEX
  8
PNOA-H_AMS_1956-57_33k_ES_PAN_21mic_H50_0280_fot_29C-50625_E_tif
  70
32
  10
558931.049
  20
4652436.061
  30
1195.796
  0
VERTEX
  8
PNOA-H_AMS_1956-57_33k_ES_PAN_21mic_H50_0280_fot_29C-50625_E_tif
  70
32
  10
558930.500
  20
4652445.000
  30
1195.672
  0
VERTEX
  8
PNOA-H_AMS_1956-57_33k_ES_PAN_21mic_H50_0280_fot_29C-50625_E_tif
  70
32
  10
558931.769
  20
4652445.137
  30
1195.661
  0
VERTEX
  8
PNOA-H_AMS_1956-57_33k_ES_PAN_21mic_H50_0280_fot_29C-50625_E_tif
  70
32
  10
559556.500
  20
4652512.500
  30
1189.82
  0
VERTEX
  8
PNOA-H_AMS_1956-57_33k_ES_PAN_21mic_H50_0280_fot_29C-50625_E_tif
  70
32
  10
559561.000
  20
4652513.000
  30
1189.282
  0
VERTEX
  8
PNOA-H_AMS_1956-57_33k_ES_PAN_21mic_H50_0280_fot_29C-50625_E_tif
  70
32
  10
561194.500
  20
4652688.500
  30
1197.57
  0
VERTEX
  8
PNOA-H_AMS_1956-57_33k_ES_PAN_21mic_H50_0280_fot_29C-50625_E_tif
  70
32
  10
561194.797
  20
4652688.371
  30
1197.55
  0
VERTEX
  8
PNOA-H_AMS_1956-57_33k_ES_PAN_21mic_H50_0280_fot_29C-50625_E_tif
  70
32
  10
561260.250
  20
4652659.850
  30
1193
  0
VERTEX
  8
PNOA-H_AMS_1956-57_33k_ES_PAN_21mic_H50_0280_fot_29C-50625_E_tif
  70
32
  10
561443.500
  20
4652580.000
  30
1180.262
  0
VERTEX
  8
PNOA-H_AMS_1956-57_33k_ES_PAN_21mic_H50_0280_fot_29C-50625_E_tif
  70
32
  10
561622.096
  20
4650044.162
  30
1192.451
  0
VERTEX
  8
PNOA-H_AMS_1956-57_33k_ES_PAN_21mic_H50_0280_fot_29C-50625_E_tif
  70
32
  10
561621.710
  20
4650044.158
  30
0
  0
VERTEX
  8
PNOA-H_AMS_1956-57_33k_ES_PAN_21mic_H50_0280_fot_29C-50625_E_tif
  70
32
  10
560388.023
  20
4650033.352
  30
0
  0
VERTEX
  8
PNOA-H_AMS_1956-57_33k_ES_PAN_21mic_H50_0280_fot_29C-50625_E_tif
  70
32
  10
559079.553
  20
4650022.527
  30
0
  0
SEQEND
  8
PNOA-H_AMS_1956-57_33k_ES_PAN_21mic_H50_0280_fot_29C-50625_E_tif
  0
INSERT
  8
FeatureAttribs
  2
FEATURE
  41
1
  42
1
  43
1
  50
0
  10
565513.642
  20
4658282.750
 66
1
  0
ATTRIB
  8
FeatureAttribs
 70
0
  1
PNOA-H_AMS_1956-57_33k_ES_PAN_21mic_H50_0280_fot_27F-13175_W.tif
  2
NAME
  10
565513.642
  20
4658282.750
 40
31.00988
  0
SEQEND
  0
POLYLINE
  8
PNOA-H_AMS_1956-57_33k_ES_PAN_21mic_H50_0280_fot_27F-13175_W_tif
  70
9
  66
1
  0
VERTEX
  8
PNOA-H_AMS_1956-57_33k_ES_PAN_21mic_H50_0280_fot_27F-13175_W_tif
  70
32
  10
566773.953
  20
4657290.976
  30
971.59
  0
VERTEX
  8
PNOA-H_AMS_1956-57_33k_ES_PAN_21mic_H50_0280_fot_27F-13175_W_tif
  70
32
  10
566428.500
  20
4657115.500
  30
949.496
  0
VERTEX
  8
PNOA-H_AMS_1956-57_33k_ES_PAN_21mic_H50_0280_fot_27F-13175_W_tif
  70
32
  10
566428.065
  20
4657115.533
  30
949.534
  0
VERTEX
  8
PNOA-H_AMS_1956-57_33k_ES_PAN_21mic_H50_0280_fot_27F-13175_W_tif
  70
32
  10
565357.035
  20
4657196.610
  30
1045.001
  0
VERTEX
  8
PNOA-H_AMS_1956-57_33k_ES_PAN_21mic_H50_0280_fot_27F-13175_W_tif
  70
32
  10
564321.500
  20
4657275.000
  30
1137.304
  0
VERTEX
  8
PNOA-H_AMS_1956-57_33k_ES_PAN_21mic_H50_0280_fot_27F-13175_W_tif
  70
32
  10
564320.148
  20
4657275.451
  30
1137.431
  0
VERTEX
  8
PNOA-H_AMS_1956-57_33k_ES_PAN_21mic_H50_0280_fot_27F-13175_W_tif
  70
32
  10
564320.000
  20
4657275.500
  30
1137.444
  0
VERTEX
  8
PNOA-H_AMS_1956-57_33k_ES_PAN_21mic_H50_0280_fot_27F-13175_W_tif
  70
32
  10
564319.500
  20
4657280.500
  30
1138.564
  0
VERTEX
  8
PNOA-H_AMS_1956-57_33k_ES_PAN_21mic_H50_0280_fot_27F-13175_W_tif
  70
32
  10
564251.720
  20
4659450.000
  30
1220.487
  0
VERTEX
  8
PNOA-H_AMS_1956-57_33k_ES_PAN_21mic_H50_0280_fot_27F-13175_W_tif
  70
32
  10
564251.946
  20
4659450.000
  30
1220.476
  0
VERTEX
  8
PNOA-H_AMS_1956-57_33k_ES_PAN_21mic_H50_0280_fot_27F-13175_W_tif
  70
32
  10
566698.015
  20
4659450.000
  30
1104.137
  0
VERTEX
  8
PNOA-H_AMS_1956-57_33k_ES_PAN_21mic_H50_0280_fot_27F-13175_W_tif
  70
32
  10
566774.000
  20
4657291.000
  30
971.593
  0
VERTEX
  8
PNOA-H_AMS_1956-57_33k_ES_PAN_21mic_H50_0280_fot_27F-13175_W_tif
  70
32
  10
566773.953
  20
4657290.976
  30
971.59
  0
SEQEND
  8
PNOA-H_AMS_1956-57_33k_ES_PAN_21mic_H50_0280_fot_27F-13175_W_tif
  0
INSERT
  8
FeatureAttribs
  2
FEATURE
  41
1
  42
1
  43
1
  50
0
  10
563117.543
  20
4658222.500
 66
1
  0
ATTRIB
  8
FeatureAttribs
 70
0
  1
PNOA-H_AMS_1956-57_33k_ES_PAN_21mic_H50_0280_fot_27F-13176_W.tif
  2
NAME
  10
563117.543
  20
4658222.500
 40
31.00988
  0
SEQEND
  0
POLYLINE
  8
PNOA-H_AMS_1956-57_33k_ES_PAN_21mic_H50_0280_fot_27F-13176_W_tif
  70
9
  66
1
  0
VERTEX
  8
PNOA-H_AMS_1956-57_33k_ES_PAN_21mic_H50_0280_fot_27F-13176_W_tif
  70
32
  10
563728.509
  20
4656995.004
  30
1210.093
  0
VERTEX
  8
PNOA-H_AMS_1956-57_33k_ES_PAN_21mic_H50_0280_fot_27F-13176_W_tif
  70
32
  10
563728.500
  20
4656995.000
  30
1210.094
  0
VERTEX
  8
PNOA-H_AMS_1956-57_33k_ES_PAN_21mic_H50_0280_fot_27F-13176_W_tif
  70
32
  10
561965.859
  20
4657252.448
  30
1259.637
  0
VERTEX
  8
PNOA-H_AMS_1956-57_33k_ES_PAN_21mic_H50_0280_fot_27F-13176_W_tif
  70
32
  10
561965.500
  20
4657252.500
  30
1259.648
  0
VERTEX
  8
PNOA-H_AMS_1956-57_33k_ES_PAN_21mic_H50_0280_fot_27F-13176_W_tif
  70
32
  10
561963.673
  20
4657337.435
  30
1259.96
  0
VERTEX
  8
PNOA-H_AMS_1956-57_33k_ES_PAN_21mic_H50_0280_fot_27F-13176_W_tif
  70
32
  10
561918.230
  20
4659450.000
  30
1267.737
  0
VERTEX
  8
PNOA-H_AMS_1956-57_33k_ES_PAN_21mic_H50_0280_fot_27F-13176_W_tif
  70
32
  10
561918.589
  20
4659450.000
  30
1267.73
  0
VERTEX
  8
PNOA-H_AMS_1956-57_33k_ES_PAN_21mic_H50_0280_fot_27F-13176_W_tif
  70
32
  10
564251.720
  20
4659450.000
  30
1220.483
  0
VERTEX
  8
PNOA-H_AMS_1956-57_33k_ES_PAN_21mic_H50_0280_fot_27F-13176_W_tif
  70
32
  10
564251.946
  20
4659450.000
  30
1220.478
  0
VERTEX
  8
PNOA-H_AMS_1956-57_33k_ES_PAN_21mic_H50_0280_fot_27F-13176_W_tif
  70
32
  10
564320.000
  20
4657280.500
  30
1138.545
  0
VERTEX
  8
PNOA-H_AMS_1956-57_33k_ES_PAN_21mic_H50_0280_fot_27F-13176_W_tif
  70
32
  10
564320.000
  20
4657275.500
  30
1137.444
  0
VERTEX
  8
PNOA-H_AMS_1956-57_33k_ES_PAN_21mic_H50_0280_fot_27F-13176_W_tif
  70
32
  10
564319.938
  20
4657275.467
  30
1137.439
  0
VERTEX
  8
PNOA-H_AMS_1956-57_33k_ES_PAN_21mic_H50_0280_fot_27F-13176_W_tif
  70
32
  10
564312.500
  20
4657271.500
  30
1136.787
  0
VERTEX
  8
PNOA-H_AMS_1956-57_33k_ES_PAN_21mic_H50_0280_fot_27F-13176_W_tif
  70
32
  10
563728.509
  20
4656995.004
  30
1210.093
  0
SEQEND
  8
PNOA-H_AMS_1956-57_33k_ES_PAN_21mic_H50_0280_fot_27F-13176_W_tif
  0
INSERT
  8
FeatureAttribs
  2
FEATURE
  41
1
  42
1
  43
1
  50
0
  10
566973.752
  20
4658358.819
 66
1
  0
ATTRIB
  8
FeatureAttribs
 70
0
  1
PNOA-H_AMS_1956-57_33k_ES_PAN_21mic_H50_0281_fot_000-13174_R.tif
  2
NAME
  10
566973.752
  20
4658358.819
 40
31.00988
  0
SEQEND
  0
POLYLINE
  8
PNOA-H_AMS_1956-57_33k_ES_PAN_21mic_H50_0281_fot_000-13174_R_tif
  70
9
  66
1
  0
VERTEX
  8
PNOA-H_AMS_1956-57_33k_ES_PAN_21mic_H50_0281_fot_000-13174_R_tif
  70
32
  10
566774.000
  20
4657291.000
  30
971.593
  0
VERTEX
  8
PNOA-H_AMS_1956-57_33k_ES_PAN_21mic_H50_0281_fot_000-13174_R_tif
  70
32
  10
566698.015
  20
4659450.000
  30
1104.137
  0
VERTEX
  8
PNOA-H_AMS_1956-57_33k_ES_PAN_21mic_H50_0281_fot_000-13174_R_tif
  70
32
  10
567200.716
  20
4659450.000
  30
1146.3
  0
VERTEX
  8
PNOA-H_AMS_1956-57_33k_ES_PAN_21mic_H50_0281_fot_000-13174_R_tif
  70
32
  10
567201.685
  20
4659348.055
  30
0
  0
VERTEX
  8
PNOA-H_AMS_1956-57_33k_ES_PAN_21mic_H50_0281_fot_000-13174_R_tif
  70
32
  10
567221.455
  20
4657267.637
  30
1011.108
  0
VERTEX
  8
PNOA-H_AMS_1956-57_33k_ES_PAN_21mic_H50_0281_fot_000-13174_R_tif
  70
32
  10
566774.000
  20
4657291.000
  30
971.593
  0
SEQEND
  8
PNOA-H_AMS_1956-57_33k_ES_PAN_21mic_H50_0281_fot_000-13174_R_tif
  0
INSERT
  8
FeatureAttribs
  2
FEATURE
  41
1
  42
1
  43
1
  50
0
  10
565088.527
  20
4654935.500
 66
1
  0
ATTRIB
  8
FeatureAttribs
 70
0
  1
PNOA-H_AMS_1956-57_33k_ES_PAN_21mic_H50_0280_fot_28E-24128_E.tif
  2
NAME
  10
565088.527
  20
4654935.500
 40
31.00988
  0
SEQEND
  0
POLYLINE
  8
PNOA-H_AMS_1956-57_33k_ES_PAN_21mic_H50_0280_fot_28E-24128_E_tif
  70
9
  66
1
  0
VERTEX
  8
PNOA-H_AMS_1956-57_33k_ES_PAN_21mic_H50_0280_fot_28E-24128_E_tif
  70
32
  10
565357.035
  20
4657196.610
  30
1062.162
  0
VERTEX
  8
PNOA-H_AMS_1956-57_33k_ES_PAN_21mic_H50_0280_fot_28E-24128_E_tif
  70
32
  10
565707.000
  20
4657170.000
  30
1036.764
  0
VERTEX
  8
PNOA-H_AMS_1956-57_33k_ES_PAN_21mic_H50_0280_fot_28E-24128_E_tif
  70
32
  10
565708.000
  20
4657170.000
  30
1037.088
  0
VERTEX
  8
PNOA-H_AMS_1956-57_33k_ES_PAN_21mic_H50_0280_fot_28E-24128_E_tif
  70
32
  10
566428.000
  20
4657115.500
  30
949.202
  0
VERTEX
  8
PNOA-H_AMS_1956-57_33k_ES_PAN_21mic_H50_0280_fot_28E-24128_E_tif
  70
32
  10
566396.000
  20
4652956.000
  30
1120.862
  0
VERTEX
  8
PNOA-H_AMS_1956-57_33k_ES_PAN_21mic_H50_0280_fot_28E-24128_E_tif
  70
32
  10
564214.500
  20
4652595.500
  30
1073.57
  0
VERTEX
  8
PNOA-H_AMS_1956-57_33k_ES_PAN_21mic_H50_0280_fot_28E-24128_E_tif
  70
32
  10
564214.252
  20
4652595.624
  30
1073.578
  0
VERTEX
  8
PNOA-H_AMS_1956-57_33k_ES_PAN_21mic_H50_0280_fot_28E-24128_E_tif
  70
32
  10
564213.500
  20
4652596.000
  30
1073.601
  0
VERTEX
  8
PNOA-H_AMS_1956-57_33k_ES_PAN_21mic_H50_0280_fot_28E-24128_E_tif
  70
32
  10
563804.500
  20
4652801.000
  30
1086.224
  0
VERTEX
  8
PNOA-H_AMS_1956-57_33k_ES_PAN_21mic_H50_0280_fot_28E-24128_E_tif
  70
32
  10
563728.509
  20
4656995.004
  30
1210.155
  0
VERTEX
  8
PNOA-H_AMS_1956-57_33k_ES_PAN_21mic_H50_0280_fot_28E-24128_E_tif
  70
32
  10
563728.500
  20
4656995.500
  30
1210.17
  0
VERTEX
  8
PNOA-H_AMS_1956-57_33k_ES_PAN_21mic_H50_0280_fot_28E-24128_E_tif
  70
32
  10
564319.500
  20
4657275.500
  30
1137.458
  0
VERTEX
  8
PNOA-H_AMS_1956-57_33k_ES_PAN_21mic_H50_0280_fot_28E-24128_E_tif
  70
32
  10
564319.938
  20
4657275.467
  30
1137.426
  0
VERTEX
  8
PNOA-H_AMS_1956-57_33k_ES_PAN_21mic_H50_0280_fot_28E-24128_E_tif
  70
32
  10
564320.148
  20
4657275.451
  30
1137.411
  0
VERTEX
  8
PNOA-H_AMS_1956-57_33k_ES_PAN_21mic_H50_0280_fot_28E-24128_E_tif
  70
32
  10
565357.035
  20
4657196.610
  30
1062.162
  0
SEQEND
  8
PNOA-H_AMS_1956-57_33k_ES_PAN_21mic_H50_0280_fot_28E-24128_E_tif
  0
INSERT
  8
FeatureAttribs
  2
FEATURE
  41
1
  42
1
  43
1
  50
0
  10
562454.007
  20
4654916.250
 66
1
  0
ATTRIB
  8
FeatureAttribs
 70
0
  1
PNOA-H_AMS_1956-57_33k_ES_PAN_21mic_H50_0280_fot_28E-24127_E.tif
  2
NAME
  10
562454.007
  20
4654916.250
 40
31.00988
  0
SEQEND
  0
POLYLINE
  8
PNOA-H_AMS_1956-57_33k_ES_PAN_21mic_H50_0280_fot_28E-24127_E_tif
  70
9
  66
1
  0
VERTEX
  8
PNOA-H_AMS_1956-57_33k_ES_PAN_21mic_H50_0280_fot_28E-24127_E_tif
  70
32
  10
561443.500
  20
4652580.000
  30
1180.262
  0
VERTEX
  8
PNOA-H_AMS_1956-57_33k_ES_PAN_21mic_H50_0280_fot_28E-24127_E_tif
  70
32
  10
561442.500
  20
4652580.000
  30
1180.29
  0
VERTEX
  8
PNOA-H_AMS_1956-57_33k_ES_PAN_21mic_H50_0280_fot_28E-24127_E_tif
  70
32
  10
561260.250
  20
4652659.850
  30
1193.037
  0
VERTEX
  8
PNOA-H_AMS_1956-57_33k_ES_PAN_21mic_H50_0280_fot_28E-24127_E_tif
  70
32
  10
561196.000
  20
4652688.000
  30
1197.531
  0
VERTEX
  8
PNOA-H_AMS_1956-57_33k_ES_PAN_21mic_H50_0280_fot_28E-24127_E_tif
  70
32
  10
561195.988
  20
4652688.499
  30
1197.561
  0
VERTEX
  8
PNOA-H_AMS_1956-57_33k_ES_PAN_21mic_H50_0280_fot_28E-24127_E_tif
  70
32
  10
561093.000
  20
4656926.000
  30
1449.589
  0
VERTEX
  8
PNOA-H_AMS_1956-57_33k_ES_PAN_21mic_H50_0280_fot_28E-24127_E_tif
  70
32
  10
561093.178
  20
4656926.067
  30
1449.527
  0
VERTEX
  8
PNOA-H_AMS_1956-57_33k_ES_PAN_21mic_H50_0280_fot_28E-24127_E_tif
  70
32
  10
561610.000
  20
4657119.500
  30
1271.995
  0
VERTEX
  8
PNOA-H_AMS_1956-57_33k_ES_PAN_21mic_H50_0280_fot_28E-24127_E_tif
  70
32
  10
561611.000
  20
4657120.000
  30
1271.604
  0
VERTEX
  8
PNOA-H_AMS_1956-57_33k_ES_PAN_21mic_H50_0280_fot_28E-24127_E_tif
  70
32
  10
561965.493
  20
4657252.311
  30
1259.786
  0
VERTEX
  8
PNOA-H_AMS_1956-57_33k_ES_PAN_21mic_H50_0280_fot_28E-24127_E_tif
  70
32
  10
561965.859
  20
4657252.448
  30
1259.773
  0
VERTEX
  8
PNOA-H_AMS_1956-57_33k_ES_PAN_21mic_H50_0280_fot_28E-24127_E_tif
  70
32
  10
561966.000
  20
4657252.500
  30
1259.769
  0
VERTEX
  8
PNOA-H_AMS_1956-57_33k_ES_PAN_21mic_H50_0280_fot_28E-24127_E_tif
  70
32
  10
563728.500
  20
4656995.000
  30
1210.094
  0
VERTEX
  8
PNOA-H_AMS_1956-57_33k_ES_PAN_21mic_H50_0280_fot_28E-24127_E_tif
  70
32
  10
563804.500
  20
4652801.000
  30
1086.224
  0
VERTEX
  8
PNOA-H_AMS_1956-57_33k_ES_PAN_21mic_H50_0280_fot_28E-24127_E_tif
  70
32
  10
561448.000
  20
4652580.000
  30
1180.134
  0
VERTEX
  8
PNOA-H_AMS_1956-57_33k_ES_PAN_21mic_H50_0280_fot_28E-24127_E_tif
  70
32
  10
561443.500
  20
4652580.000
  30
1180.262
  0
SEQEND
  8
PNOA-H_AMS_1956-57_33k_ES_PAN_21mic_H50_0280_fot_28E-24127_E_tif
  0
INSERT
  8
FeatureAttribs
  2
FEATURE
  41
1
  42
1
  43
1
  50
0
  10
566827.345
  20
4655018.500
 66
1
  0
ATTRIB
  8
FeatureAttribs
 70
0
  1
PNOA-H_AMS_1956-57_33k_ES_PAN_21mic_H50_0281_fot_28E-24129_E.tif
  2
NAME
  10
566827.345
  20
4655018.500
 40
31.00988
  0
SEQEND
  0
POLYLINE
  8
PNOA-H_AMS_1956-57_33k_ES_PAN_21mic_H50_0281_fot_28E-24129_E_tif
  70
9
  66
1
  0
VERTEX
  8
PNOA-H_AMS_1956-57_33k_ES_PAN_21mic_H50_0281_fot_28E-24129_E_tif
  70
32
  10
567264.195
  20
4652767.543
  30
1182.145
  0
VERTEX
  8
PNOA-H_AMS_1956-57_33k_ES_PAN_21mic_H50_0281_fot_28E-24129_E_tif
  70
32
  10
566893.000
  20
4652746.000
  30
1138.204
  0
VERTEX
  8
PNOA-H_AMS_1956-57_33k_ES_PAN_21mic_H50_0281_fot_28E-24129_E_tif
  70
32
  10
566888.609
  20
4652746.209
  30
1137.297
  0
VERTEX
  8
PNOA-H_AMS_1956-57_33k_ES_PAN_21mic_H50_0281_fot_28E-24129_E_tif
  70
32
  10
566884.002
  20
4652746.428
  30
1136.346
  0
VERTEX
  8
PNOA-H_AMS_1956-57_33k_ES_PAN_21mic_H50_0281_fot_28E-24129_E_tif
  70
32
  10
566882.500
  20
4652746.500
  30
1136.036
  0
VERTEX
  8
PNOA-H_AMS_1956-57_33k_ES_PAN_21mic_H50_0281_fot_28E-24129_E_tif
  70
32
  10
566396.000
  20
4652955.500
  30
1120.986
  0
VERTEX
  8
PNOA-H_AMS_1956-57_33k_ES_PAN_21mic_H50_0281_fot_28E-24129_E_tif
  70
32
  10
566396.004
  20
4652955.998
  30
1120.965
  0
VERTEX
  8
PNOA-H_AMS_1956-57_33k_ES_PAN_21mic_H50_0281_fot_28E-24129_E_tif
  70
32
  10
566428.000
  20
4657115.500
  30
949.202
  0
VERTEX
  8
PNOA-H_AMS_1956-57_33k_ES_PAN_21mic_H50_0281_fot_28E-24129_E_tif
  70
32
  10
566428.065
  20
4657115.533
  30
949.206
  0
VERTEX
  8
PNOA-H_AMS_1956-57_33k_ES_PAN_21mic_H50_0281_fot_28E-24129_E_tif
  70
32
  10
566773.500
  20
4657291.000
  30
971.488
  0
VERTEX
  8
PNOA-H_AMS_1956-57_33k_ES_PAN_21mic_H50_0281_fot_28E-24129_E_tif
  70
32
  10
566773.953
  20
4657290.976
  30
971.534
  0
VERTEX
  8
PNOA-H_AMS_1956-57_33k_ES_PAN_21mic_H50_0281_fot_28E-24129_E_tif
  70
32
  10
567221.457
  20
4657267.435
  30
1017.038
  0
VERTEX
  8
PNOA-H_AMS_1956-57_33k_ES_PAN_21mic_H50_0281_fot_28E-24129_E_tif
  70
32
  10
567223.667
  20
4657034.900
  30
0
  0
VERTEX
  8
PNOA-H_AMS_1956-57_33k_ES_PAN_21mic_H50_0281_fot_28E-24129_E_tif
  70
32
  10
567245.639
  20
4654721.753
  30
0
  0
VERTEX
  8
PNOA-H_AMS_1956-57_33k_ES_PAN_21mic_H50_0281_fot_28E-24129_E_tif
  70
32
  10
567264.191
  20
4652767.966
  30
0
  0
VERTEX
  8
PNOA-H_AMS_1956-57_33k_ES_PAN_21mic_H50_0281_fot_28E-24129_E_tif
  70
32
  10
567264.195
  20
4652767.543
  30
1182.145
  0
SEQEND
  8
PNOA-H_AMS_1956-57_33k_ES_PAN_21mic_H50_0281_fot_28E-24129_E_tif
  0
INSERT
  8
FeatureAttribs
  2
FEATURE
  41
1
  42
1
  43
1
  50
0
  10
565585.133
  20
4651512.216
 66
1
  0
ATTRIB
  8
FeatureAttribs
 70
0
  1
PNOA-H_AMS_1956-57_33k_ES_PAN_21mic_H50_0280_fot_29C-50627_E.tif
  2
NAME
  10
565585.133
  20
4651512.216
 40
31.00988
  0
SEQEND
  0
POLYLINE
  8
PNOA-H_AMS_1956-57_33k_ES_PAN_21mic_H50_0280_fot_29C-50627_E_tif
  70
9
  66
1
  0
VERTEX
  8
PNOA-H_AMS_1956-57_33k_ES_PAN_21mic_H50_0280_fot_29C-50627_E_tif
  70
32
  10
564364.009
  20
4650068.435
  30
0
  0
VERTEX
  8
PNOA-H_AMS_1956-57_33k_ES_PAN_21mic_H50_0280_fot_29C-50627_E_tif
  70
32
  10
564363.690
  20
4650068.432
  30
1167.387
  0
VERTEX
  8
PNOA-H_AMS_1956-57_33k_ES_PAN_21mic_H50_0280_fot_29C-50627_E_tif
  70
32
  10
564213.500
  20
4652595.500
  30
1073.619
  0
VERTEX
  8
PNOA-H_AMS_1956-57_33k_ES_PAN_21mic_H50_0280_fot_29C-50627_E_tif
  70
32
  10
564213.529
  20
4652595.505
  30
1073.621
  0
VERTEX
  8
PNOA-H_AMS_1956-57_33k_ES_PAN_21mic_H50_0280_fot_29C-50627_E_tif
  70
32
  10
564214.252
  20
4652595.624
  30
1073.665
  0
VERTEX
  8
PNOA-H_AMS_1956-57_33k_ES_PAN_21mic_H50_0280_fot_29C-50627_E_tif
  70
32
  10
565702.000
  20
4652841.500
  30
1164.49
  0
VERTEX
  8
PNOA-H_AMS_1956-57_33k_ES_PAN_21mic_H50_0280_fot_29C-50627_E_tif
  70
32
  10
565705.000
  20
4652842.000
  30
1165
  0
VERTEX
  8
PNOA-H_AMS_1956-57_33k_ES_PAN_21mic_H50_0280_fot_29C-50627_E_tif
  70
32
  10
566396.000
  20
4652956.000
  30
1120.862
  0
VERTEX
  8
PNOA-H_AMS_1956-57_33k_ES_PAN_21mic_H50_0280_fot_29C-50627_E_tif
  70
32
  10
566396.004
  20
4652955.998
  30
1120.862
  0
VERTEX
  8
PNOA-H_AMS_1956-57_33k_ES_PAN_21mic_H50_0280_fot_29C-50627_E_tif
  70
32
  10
566884.002
  20
4652746.428
  30
1136.424
  0
VERTEX
  8
PNOA-H_AMS_1956-57_33k_ES_PAN_21mic_H50_0280_fot_29C-50627_E_tif
  70
32
  10
566885.000
  20
4652746.000
  30
1136.456
  0
VERTEX
  8
PNOA-H_AMS_1956-57_33k_ES_PAN_21mic_H50_0280_fot_29C-50627_E_tif
  70
32
  10
566900.886
  20
4650091.891
  30
1082.406
  0
VERTEX
  8
PNOA-H_AMS_1956-57_33k_ES_PAN_21mic_H50_0280_fot_29C-50627_E_tif
  70
32
  10
564364.009
  20
4650068.435
  30
0
  0
SEQEND
  8
PNOA-H_AMS_1956-57_33k_ES_PAN_21mic_H50_0280_fot_29C-50627_E_tif
  0
INSERT
  8
FeatureAttribs
  2
FEATURE
  41
1
  42
1
  43
1
  50
0
  10
567084.885
  20
4651429.929
 66
1
  0
ATTRIB
  8
FeatureAttribs
 70
0
  1
PNOA-H_AMS_1956-57_33k_ES_PAN_21mic_H50_0281_fot_29C-50628_E.tif
  2
NAME
  10
567084.885
  20
4651429.929
 40
31.00988
  0
SEQEND
  0
POLYLINE
  8
PNOA-H_AMS_1956-57_33k_ES_PAN_21mic_H50_0281_fot_29C-50628_E_tif
  70
9
  66
1
  0
VERTEX
  8
PNOA-H_AMS_1956-57_33k_ES_PAN_21mic_H50_0281_fot_29C-50628_E_tif
  70
32
  10
567289.558
  20
4650095.485
  30
0
  0
VERTEX
  8
PNOA-H_AMS_1956-57_33k_ES_PAN_21mic_H50_0281_fot_29C-50628_E_tif
  70
32
  10
566900.886
  20
4650091.891
  30
1082.406
  0
VERTEX
  8
PNOA-H_AMS_1956-57_33k_ES_PAN_21mic_H50_0281_fot_29C-50628_E_tif
  70
32
  10
566885.000
  20
4652746.000
  30
1136.456
  0
VERTEX
  8
PNOA-H_AMS_1956-57_33k_ES_PAN_21mic_H50_0281_fot_29C-50628_E_tif
  70
32
  10
566888.609
  20
4652746.209
  30
1137.126
  0
VERTEX
  8
PNOA-H_AMS_1956-57_33k_ES_PAN_21mic_H50_0281_fot_29C-50628_E_tif
  70
32
  10
567264.191
  20
4652767.966
  30
1206.917
  0
VERTEX
  8
PNOA-H_AMS_1956-57_33k_ES_PAN_21mic_H50_0281_fot_29C-50628_E_tif
  70
32
  10
567264.195
  20
4652767.543
  30
0
  0
VERTEX
  8
PNOA-H_AMS_1956-57_33k_ES_PAN_21mic_H50_0281_fot_29C-50628_E_tif
  70
32
  10
567267.603
  20
4652408.615
  30
0
  0
VERTEX
  8
PNOA-H_AMS_1956-57_33k_ES_PAN_21mic_H50_0281_fot_29C-50628_E_tif
  70
32
  10
567289.558
  20
4650095.485
  30
0
  0
SEQEND
  8
PNOA-H_AMS_1956-57_33k_ES_PAN_21mic_H50_0281_fot_29C-50628_E_tif
  0
INSERT
  8
FeatureAttribs
  2
FEATURE
  41
1
  42
1
  43
1
  50
0
  10
562904.030
  20
4651422.579
 66
1
  0
ATTRIB
  8
FeatureAttribs
 70
0
  1
PNOA-H_AMS_1956-57_33k_ES_PAN_21mic_H50_0280_fot_29C-50626_E.tif
  2
NAME
  10
562904.030
  20
4651422.579
 40
31.00988
  0
SEQEND
  0
POLYLINE
  8
PNOA-H_AMS_1956-57_33k_ES_PAN_21mic_H50_0280_fot_29C-50626_E_tif
  70
9
  66
1
  0
VERTEX
  8
PNOA-H_AMS_1956-57_33k_ES_PAN_21mic_H50_0280_fot_29C-50626_E_tif
  70
32
  10
563803.000
  20
4652801.000
  30
1086.41
  0
VERTEX
  8
PNOA-H_AMS_1956-57_33k_ES_PAN_21mic_H50_0280_fot_29C-50626_E_tif
  70
32
  10
563804.500
  20
4652801.000
  30
1086.224
  0
VERTEX
  8
PNOA-H_AMS_1956-57_33k_ES_PAN_21mic_H50_0280_fot_29C-50626_E_tif
  70
32
  10
563805.000
  20
4652801.000
  30
1086.162
  0
VERTEX
  8
PNOA-H_AMS_1956-57_33k_ES_PAN_21mic_H50_0280_fot_29C-50626_E_tif
  70
32
  10
564213.500
  20
4652596.000
  30
1073.597
  0
VERTEX
  8
PNOA-H_AMS_1956-57_33k_ES_PAN_21mic_H50_0280_fot_29C-50626_E_tif
  70
32
  10
564213.529
  20
4652595.505
  30
1073.614
  0
VERTEX
  8
PNOA-H_AMS_1956-57_33k_ES_PAN_21mic_H50_0280_fot_29C-50626_E_tif
  70
32
  10
564364.009
  20
4650068.435
  30
1156.063
  0
VERTEX
  8
PNOA-H_AMS_1956-57_33k_ES_PAN_21mic_H50_0280_fot_29C-50626_E_tif
  70
32
  10
564363.690
  20
4650068.432
  30
0
  0
VERTEX
  8
PNOA-H_AMS_1956-57_33k_ES_PAN_21mic_H50_0280_fot_29C-50626_E_tif
  70
32
  10
563838.788
  20
4650063.579
  30
0
  0
VERTEX
  8
PNOA-H_AMS_1956-57_33k_ES_PAN_21mic_H50_0280_fot_29C-50626_E_tif
  70
32
  10
561622.096
  20
4650044.162
  30
1192.467
  0
VERTEX
  8
PNOA-H_AMS_1956-57_33k_ES_PAN_21mic_H50_0280_fot_29C-50626_E_tif
  70
32
  10
561621.710
  20
4650044.158
  30
1192.64
  0
VERTEX
  8
PNOA-H_AMS_1956-57_33k_ES_PAN_21mic_H50_0280_fot_29C-50626_E_tif
  70
32
  10
561443.500
  20
4652576.000
  30
1180.889
  0
VERTEX
  8
PNOA-H_AMS_1956-57_33k_ES_PAN_21mic_H50_0280_fot_29C-50626_E_tif
  70
32
  10
561443.500
  20
4652580.000
  30
1180.262
  0
VERTEX
  8
PNOA-H_AMS_1956-57_33k_ES_PAN_21mic_H50_0280_fot_29C-50626_E_tif
  70
32
  10
561453.000
  20
4652581.000
  30
1179.834
  0
VERTEX
  8
PNOA-H_AMS_1956-57_33k_ES_PAN_21mic_H50_0280_fot_29C-50626_E_tif
  70
32
  10
563803.000
  20
4652801.000
  30
1086.41
  0
SEQEND
  8
PNOA-H_AMS_1956-57_33k_ES_PAN_21mic_H50_0280_fot_29C-50626_E_tif
  0
ENDSEC
  0
EOF
