  0
SECTION
  2
HEADER
  9
$ACADVER
  1
AC1009
  9
$LUNITS
  70
2
  9
$LIMMIN
  10
429259.642
  20
4649907.392
  9
$LIMMAX
  10
456970.000
  20
4650310.000
  9
$EXTMIN
  10
429259.642
  20
4649907.392
  9
$EXTMAX
  10
456970.000
  20
4650310.000
  999
Created by Global Mapper
  999
Projection: UTM
  999
Datum: ETRS89
  999
Ground Units: meters
  999
ZONE: 30
  0
ENDSEC
  0
SECTION
  2
TABLES
  0
ENDSEC
  0
SECTION
  2
BLOCKS
  0
BLOCK
  8
FeatureAttribs
  70
0
  2
FEATURE
  3
FEATURE
  10
0.00000000
  20
0.00000000
  0
ATTDEF
  8
FeatureAttribs
  70
0
  1
 
  2
NAME
  3
NAME
  10
0.00000000
  20
0.00000000
  40
1.00000000
  0
ENDBLK
  0
ENDSEC
  0
SECTION
  2
ENTITIES
  0
INSERT
  8
FeatureAttribs
  2
FEATURE
  41
1
  42
1
  43
1
  50
0
  10
455583.245
  20
4649912.818
 66
1
  0
ATTRIB
  8
FeatureAttribs
 70
0
  1
PNOA-H_AMS_1956-57_33k_ES_PAN_2
  2
NAME
  10
455583.245
  20
4649912.818
 40
27.71328
  0
SEQEND
  0
POLYLINE
  8
Unknown_Area_Type
  70
1
  66
1
  0
VERTEX
  8
Unknown_Area_Type
  10
456526.170
  20
4649909.559
  0
VERTEX
  8
Unknown_Area_Type
  10
456525.888
  20
4649907.392
  0
VERTEX
  8
Unknown_Area_Type
  10
455157.776
  20
4649907.392
  0
VERTEX
  8
Unknown_Area_Type
  10
455153.243
  20
4649918.244
  0
VERTEX
  8
Unknown_Area_Type
  10
456526.170
  20
4649909.559
  0
SEQEND
  8
Unknown_Area_Type
  0
INSERT
  8
FeatureAttribs
  2
FEATURE
  41
1
  42
1
  43
1
  50
0
  10
455836.903
  20
4649987.618
 66
1
  0
ATTRIB
  8
FeatureAttribs
 70
0
  1
PNOA-H_AMS_1956-57_33k_ES_PAN_2
  2
NAME
  10
455836.903
  20
4649987.618
 40
27.71328
  0
SEQEND
  0
POLYLINE
  8
Unknown_Area_Type
  70
1
  66
1
  0
VERTEX
  8
Unknown_Area_Type
  10
456526.170
  20
4649909.559
  0
VERTEX
  8
Unknown_Area_Type
  10
455153.243
  20
4649918.244
  0
VERTEX
  8
Unknown_Area_Type
  10
455094.029
  20
4650060.000
  0
VERTEX
  8
Unknown_Area_Type
  10
456545.763
  20
4650060.000
  0
VERTEX
  8
Unknown_Area_Type
  10
456526.170
  20
4649909.559
  0
SEQEND
  8
Unknown_Area_Type
  0
INSERT
  8
FeatureAttribs
  2
FEATURE
  41
1
  42
1
  43
1
  50
0
  10
455836.903
  20
4649987.618
 66
1
  0
ATTRIB
  8
FeatureAttribs
 70
0
  1
PNOA-H_AMS_1956-57_33k_ES_PAN_2
  2
NAME
  10
455836.903
  20
4649987.618
 40
27.71328
  0
SEQEND
  0
POLYLINE
  8
Unknown_Area_Type
  70
1
  66
1
  0
VERTEX
  8
Unknown_Area_Type
  10
456526.170
  20
4649909.559
  0
VERTEX
  8
Unknown_Area_Type
  10
456545.763
  20
4650060.000
  0
VERTEX
  8
Unknown_Area_Type
  10
455094.029
  20
4650060.000
  0
VERTEX
  8
Unknown_Area_Type
  10
455153.243
  20
4649918.244
  0
VERTEX
  8
Unknown_Area_Type
  10
456526.170
  20
4649909.559
  0
SEQEND
  8
Unknown_Area_Type
  0
INSERT
  8
FeatureAttribs
  2
FEATURE
  41
1
  42
1
  43
1
  50
0
  10
429675.194
  20
4650215.495
 66
1
  0
ATTRIB
  8
FeatureAttribs
 70
0
  1
PNOA-H_AMS_1956-57_33k_ES_PAN_2
  2
NAME
  10
429675.194
  20
4650215.495
 40
27.71328
  0
SEQEND
  0
POLYLINE
  8
Unknown_Area_Type
  70
1
  66
1
  0
VERTEX
  8
Unknown_Area_Type
  10
430089.959
  20
4650120.990
  0
VERTEX
  8
Unknown_Area_Type
  10
429259.669
  20
4650129.071
  0
VERTEX
  8
Unknown_Area_Type
  10
429261.475
  20
4650310.000
  0
VERTEX
  8
Unknown_Area_Type
  10
429360.000
  20
4650310.000
  0
VERTEX
  8
Unknown_Area_Type
  10
429360.000
  20
4650230.000
  0
VERTEX
  8
Unknown_Area_Type
  10
430089.841
  20
4650230.000
  0
VERTEX
  8
Unknown_Area_Type
  10
430089.959
  20
4650120.990
  0
SEQEND
  8
Unknown_Area_Type
  0
INSERT
  8
FeatureAttribs
  2
FEATURE
  41
1
  42
1
  43
1
  50
0
  10
429260.558
  20
4650264.073
 66
1
  0
ATTRIB
  8
FeatureAttribs
 70
0
  1
PNOA-H_AMS_1956-57_33k_ES_PAN_2
  2
NAME
  10
429260.558
  20
4650264.073
 40
27.71328
  0
SEQEND
  0
POLYLINE
  8
Unknown_Area_Type
  70
1
  66
1
  0
VERTEX
  8
Unknown_Area_Type
  10
429261.475
  20
4650310.000
  0
VERTEX
  8
Unknown_Area_Type
  10
429259.669
  20
4650129.071
  0
VERTEX
  8
Unknown_Area_Type
  10
429259.642
  20
4650129.071
  0
VERTEX
  8
Unknown_Area_Type
  10
429259.642
  20
4650310.000
  0
VERTEX
  8
Unknown_Area_Type
  10
429261.475
  20
4650310.000
  0
SEQEND
  8
Unknown_Area_Type
  0
INSERT
  8
FeatureAttribs
  2
FEATURE
  41
1
  42
1
  43
1
  50
0
  10
429675.194
  20
4650215.495
 66
1
  0
ATTRIB
  8
FeatureAttribs
 70
0
  1
PNOA-H_AMS_1956-57_33k_ES_PAN_2
  2
NAME
  10
429675.194
  20
4650215.495
 40
27.71328
  0
SEQEND
  0
POLYLINE
  8
Unknown_Area_Type
  70
1
  66
1
  0
VERTEX
  8
Unknown_Area_Type
  10
430089.959
  20
4650120.990
  0
VERTEX
  8
Unknown_Area_Type
  10
429259.669
  20
4650129.071
  0
VERTEX
  8
Unknown_Area_Type
  10
429261.475
  20
4650310.000
  0
VERTEX
  8
Unknown_Area_Type
  10
429360.000
  20
4650310.000
  0
VERTEX
  8
Unknown_Area_Type
  10
429360.000
  20
4650230.000
  0
VERTEX
  8
Unknown_Area_Type
  10
430089.841
  20
4650230.000
  0
VERTEX
  8
Unknown_Area_Type
  10
430089.959
  20
4650120.990
  0
SEQEND
  8
Unknown_Area_Type
  0
INSERT
  8
FeatureAttribs
  2
FEATURE
  41
1
  42
1
  43
1
  50
0
  10
429259.655
  20
4650128.376
 66
1
  0
ATTRIB
  8
FeatureAttribs
 70
0
  1
PNOA-H_AMS_1956-57_33k_ES_PAN_2
  2
NAME
  10
429259.655
  20
4650128.376
 40
27.71328
  0
SEQEND
  0
POLYLINE
  8
Unknown_Area_Type
  70
1
  66
1
  0
VERTEX
  8
Unknown_Area_Type
  10
429259.642
  20
4650129.071
  0
VERTEX
  8
Unknown_Area_Type
  10
429259.669
  20
4650129.071
  0
VERTEX
  8
Unknown_Area_Type
  10
429259.642
  20
4650126.292
  0
VERTEX
  8
Unknown_Area_Type
  10
429259.642
  20
4650129.071
  0
SEQEND
  8
Unknown_Area_Type
  0
INSERT
  8
FeatureAttribs
  2
FEATURE
  41
1
  42
1
  43
1
  50
0
  10
429674.856
  20
4650018.231
 66
1
  0
ATTRIB
  8
FeatureAttribs
 70
0
  1
PNOA-H_AMS_1956-57_33k_ES_PAN_2
  2
NAME
  10
429674.856
  20
4650018.231
 40
27.71328
  0
SEQEND
  0
POLYLINE
  8
Unknown_Area_Type
  70
1
  66
1
  0
VERTEX
  8
Unknown_Area_Type
  10
430090.192
  20
4649907.392
  0
VERTEX
  8
Unknown_Area_Type
  10
429259.642
  20
4649907.392
  0
VERTEX
  8
Unknown_Area_Type
  10
429259.642
  20
4650126.292
  0
VERTEX
  8
Unknown_Area_Type
  10
429259.669
  20
4650129.071
  0
VERTEX
  8
Unknown_Area_Type
  10
430089.959
  20
4650120.990
  0
VERTEX
  8
Unknown_Area_Type
  10
430090.192
  20
4649907.392
  0
SEQEND
  8
Unknown_Area_Type
  0
INSERT
  8
FeatureAttribs
  2
FEATURE
  41
1
  42
1
  43
1
  50
0
  10
452441.539
  20
4649925.990
 66
1
  0
ATTRIB
  8
FeatureAttribs
 70
0
  1
PNOA-H_AMS_1956-57_33k_ES_PAN_2
  2
NAME
  10
452441.539
  20
4649925.990
 40
27.71328
  0
SEQEND
  0
POLYLINE
  8
Unknown_Area_Type
  70
1
  66
1
  0
VERTEX
  8
Unknown_Area_Type
  10
453721.289
  20
4649927.302
  0
VERTEX
  8
Unknown_Area_Type
  10
453718.907
  20
4649907.392
  0
VERTEX
  8
Unknown_Area_Type
  10
451161.870
  20
4649907.392
  0
VERTEX
  8
Unknown_Area_Type
  10
451162.023
  20
4649944.589
  0
VERTEX
  8
Unknown_Area_Type
  10
453415.008
  20
4649929.240
  0
VERTEX
  8
Unknown_Area_Type
  10
453721.289
  20
4649927.302
  0
SEQEND
  8
Unknown_Area_Type
  0
INSERT
  8
FeatureAttribs
  2
FEATURE
  41
1
  42
1
  43
1
  50
0
  10
452475.791
  20
4649997.896
 66
1
  0
ATTRIB
  8
FeatureAttribs
 70
0
  1
PNOA-H_AMS_1956-57_33k_ES_PAN_2
  2
NAME
  10
452475.791
  20
4649997.896
 40
27.71328
  0
SEQEND
  0
POLYLINE
  8
Unknown_Area_Type
  70
1
  66
1
  0
VERTEX
  8
Unknown_Area_Type
  10
453721.289
  20
4649927.302
  0
VERTEX
  8
Unknown_Area_Type
  10
453415.008
  20
4649929.240
  0
VERTEX
  8
Unknown_Area_Type
  10
451162.023
  20
4649944.589
  0
VERTEX
  8
Unknown_Area_Type
  10
451162.496
  20
4650060.000
  0
VERTEX
  8
Unknown_Area_Type
  10
453737.167
  20
4650060.000
  0
VERTEX
  8
Unknown_Area_Type
  10
453721.289
  20
4649927.302
  0
SEQEND
  8
Unknown_Area_Type
  0
INSERT
  8
FeatureAttribs
  2
FEATURE
  41
1
  42
1
  43
1
  50
0
  10
452475.791
  20
4649997.896
 66
1
  0
ATTRIB
  8
FeatureAttribs
 70
0
  1
PNOA-H_AMS_1956-57_33k_ES_PAN_2
  2
NAME
  10
452475.791
  20
4649997.896
 40
27.71328
  0
SEQEND
  0
POLYLINE
  8
Unknown_Area_Type
  70
1
  66
1
  0
VERTEX
  8
Unknown_Area_Type
  10
453721.289
  20
4649927.302
  0
VERTEX
  8
Unknown_Area_Type
  10
453737.167
  20
4650060.000
  0
VERTEX
  8
Unknown_Area_Type
  10
451162.496
  20
4650060.000
  0
VERTEX
  8
Unknown_Area_Type
  10
451162.023
  20
4649944.589
  0
VERTEX
  8
Unknown_Area_Type
  10
453415.008
  20
4649929.240
  0
VERTEX
  8
Unknown_Area_Type
  10
453721.289
  20
4649927.302
  0
SEQEND
  8
Unknown_Area_Type
  0
INSERT
  8
FeatureAttribs
  2
FEATURE
  41
1
  42
1
  43
1
  50
0
  10
449683.633
  20
4649936.490
 66
1
  0
ATTRIB
  8
FeatureAttribs
 70
0
  1
PNOA-H_AMS_1956-57_33k_ES_PAN_2
  2
NAME
  10
449683.633
  20
4649936.490
 40
27.71328
  0
SEQEND
  0
POLYLINE
  8
Unknown_Area_Type
  70
1
  66
1
  0
VERTEX
  8
Unknown_Area_Type
  10
451161.870
  20
4649907.392
  0
VERTEX
  8
Unknown_Area_Type
  10
448205.280
  20
4649907.392
  0
VERTEX
  8
Unknown_Area_Type
  10
448205.272
  20
4649965.588
  0
VERTEX
  8
Unknown_Area_Type
  10
449964.255
  20
4649952.749
  0
VERTEX
  8
Unknown_Area_Type
  10
451162.023
  20
4649944.589
  0
VERTEX
  8
Unknown_Area_Type
  10
451161.870
  20
4649907.392
  0
SEQEND
  8
Unknown_Area_Type
  0
INSERT
  8
FeatureAttribs
  2
FEATURE
  41
1
  42
1
  43
1
  50
0
  10
449595.714
  20
4650025.220
 66
1
  0
ATTRIB
  8
FeatureAttribs
 70
0
  1
PNOA-H_AMS_1956-57_33k_ES_PAN_2
  2
NAME
  10
449595.714
  20
4650025.220
 40
27.71328
  0
SEQEND
  0
POLYLINE
  8
Unknown_Area_Type
  70
1
  66
1
  0
VERTEX
  8
Unknown_Area_Type
  10
451162.023
  20
4649944.589
  0
VERTEX
  8
Unknown_Area_Type
  10
449964.255
  20
4649952.749
  0
VERTEX
  8
Unknown_Area_Type
  10
448205.272
  20
4649965.588
  0
VERTEX
  8
Unknown_Area_Type
  10
448205.253
  20
4650110.000
  0
VERTEX
  8
Unknown_Area_Type
  10
450070.000
  20
4650110.000
  0
VERTEX
  8
Unknown_Area_Type
  10
450070.000
  20
4650060.000
  0
VERTEX
  8
Unknown_Area_Type
  10
451162.496
  20
4650060.000
  0
VERTEX
  8
Unknown_Area_Type
  10
451162.023
  20
4649944.589
  0
SEQEND
  8
Unknown_Area_Type
  0
INSERT
  8
FeatureAttribs
  2
FEATURE
  41
1
  42
1
  43
1
  50
0
  10
449595.714
  20
4650025.220
 66
1
  0
ATTRIB
  8
FeatureAttribs
 70
0
  1
PNOA-H_AMS_1956-57_33k_ES_PAN_2
  2
NAME
  10
449595.714
  20
4650025.220
 40
27.71328
  0
SEQEND
  0
POLYLINE
  8
Unknown_Area_Type
  70
1
  66
1
  0
VERTEX
  8
Unknown_Area_Type
  10
451162.023
  20
4649944.589
  0
VERTEX
  8
Unknown_Area_Type
  10
451162.496
  20
4650060.000
  0
VERTEX
  8
Unknown_Area_Type
  10
450070.000
  20
4650060.000
  0
VERTEX
  8
Unknown_Area_Type
  10
450070.000
  20
4650110.000
  0
VERTEX
  8
Unknown_Area_Type
  10
448205.253
  20
4650110.000
  0
VERTEX
  8
Unknown_Area_Type
  10
448205.272
  20
4649965.588
  0
VERTEX
  8
Unknown_Area_Type
  10
449964.255
  20
4649952.749
  0
VERTEX
  8
Unknown_Area_Type
  10
451162.023
  20
4649944.589
  0
SEQEND
  8
Unknown_Area_Type
  0
INSERT
  8
FeatureAttribs
  2
FEATURE
  41
1
  42
1
  43
1
  50
0
  10
443690.296
  20
4649959.764
 66
1
  0
ATTRIB
  8
FeatureAttribs
 70
0
  1
PNOA-H_AMS_1956-57_33k_ES_PAN_2
  2
NAME
  10
443690.296
  20
4649959.764
 40
27.71328
  0
SEQEND
  0
POLYLINE
  8
Unknown_Area_Type
  70
1
  66
1
  0
VERTEX
  8
Unknown_Area_Type
  10
445203.649
  20
4649907.392
  0
VERTEX
  8
Unknown_Area_Type
  10
442178.395
  20
4649907.392
  0
VERTEX
  8
Unknown_Area_Type
  10
442176.518
  20
4650012.137
  0
VERTEX
  8
Unknown_Area_Type
  10
443062.740
  20
4650004.805
  0
VERTEX
  8
Unknown_Area_Type
  10
445202.857
  20
4649988.142
  0
VERTEX
  8
Unknown_Area_Type
  10
445203.649
  20
4649907.392
  0
SEQEND
  8
Unknown_Area_Type
  0
INSERT
  8
FeatureAttribs
  2
FEATURE
  41
1
  42
1
  43
1
  50
0
  10
443580.648
  20
4650067.747
 66
1
  0
ATTRIB
  8
FeatureAttribs
 70
0
  1
PNOA-H_AMS_1956-57_33k_ES_PAN_2
  2
NAME
  10
443580.648
  20
4650067.747
 40
27.71328
  0
SEQEND
  0
POLYLINE
  8
Unknown_Area_Type
  70
1
  66
1
  0
VERTEX
  8
Unknown_Area_Type
  10
445202.857
  20
4649988.142
  0
VERTEX
  8
Unknown_Area_Type
  10
443062.740
  20
4650004.805
  0
VERTEX
  8
Unknown_Area_Type
  10
442176.518
  20
4650012.137
  0
VERTEX
  8
Unknown_Area_Type
  10
442173.689
  20
4650170.000
  0
VERTEX
  8
Unknown_Area_Type
  10
443170.000
  20
4650170.000
  0
VERTEX
  8
Unknown_Area_Type
  10
443170.000
  20
4650110.000
  0
VERTEX
  8
Unknown_Area_Type
  10
445201.662
  20
4650110.000
  0
VERTEX
  8
Unknown_Area_Type
  10
445202.857
  20
4649988.142
  0
SEQEND
  8
Unknown_Area_Type
  0
INSERT
  8
FeatureAttribs
  2
FEATURE
  41
1
  42
1
  43
1
  50
0
  10
443580.648
  20
4650067.747
 66
1
  0
ATTRIB
  8
FeatureAttribs
 70
0
  1
PNOA-H_AMS_1956-57_33k_ES_PAN_2
  2
NAME
  10
443580.648
  20
4650067.747
 40
27.71328
  0
SEQEND
  0
POLYLINE
  8
Unknown_Area_Type
  70
1
  66
1
  0
VERTEX
  8
Unknown_Area_Type
  10
445202.857
  20
4649988.142
  0
VERTEX
  8
Unknown_Area_Type
  10
445201.662
  20
4650110.000
  0
VERTEX
  8
Unknown_Area_Type
  10
443170.000
  20
4650110.000
  0
VERTEX
  8
Unknown_Area_Type
  10
443170.000
  20
4650170.000
  0
VERTEX
  8
Unknown_Area_Type
  10
442173.689
  20
4650170.000
  0
VERTEX
  8
Unknown_Area_Type
  10
442176.518
  20
4650012.137
  0
VERTEX
  8
Unknown_Area_Type
  10
443062.740
  20
4650004.805
  0
VERTEX
  8
Unknown_Area_Type
  10
445202.857
  20
4649988.142
  0
SEQEND
  8
Unknown_Area_Type
  0
INSERT
  8
FeatureAttribs
  2
FEATURE
  41
1
  42
1
  43
1
  50
0
  10
437636.774
  20
4650133.745
 66
1
  0
ATTRIB
  8
FeatureAttribs
 70
0
  1
PNOA-H_AMS_1956-57_33k_ES_PAN_2
  2
NAME
  10
437636.774
  20
4650133.745
 40
27.71328
  0
SEQEND
  0
POLYLINE
  8
Unknown_Area_Type
  70
1
  66
1
  0
VERTEX
  8
Unknown_Area_Type
  10
439139.641
  20
4650037.490
  0
VERTEX
  8
Unknown_Area_Type
  10
436161.212
  20
4650063.579
  0
VERTEX
  8
Unknown_Area_Type
  10
436132.685
  20
4650063.843
  0
VERTEX
  8
Unknown_Area_Type
  10
436133.437
  20
4650230.000
  0
VERTEX
  8
Unknown_Area_Type
  10
436270.000
  20
4650230.000
  0
VERTEX
  8
Unknown_Area_Type
  10
436270.000
  20
4650170.000
  0
VERTEX
  8
Unknown_Area_Type
  10
439140.888
  20
4650170.000
  0
VERTEX
  8
Unknown_Area_Type
  10
439139.641
  20
4650037.490
  0
SEQEND
  8
Unknown_Area_Type
  0
INSERT
  8
FeatureAttribs
  2
FEATURE
  41
1
  42
1
  43
1
  50
0
  10
437636.774
  20
4650133.745
 66
1
  0
ATTRIB
  8
FeatureAttribs
 70
0
  1
PNOA-H_AMS_1956-57_33k_ES_PAN_2
  2
NAME
  10
437636.774
  20
4650133.745
 40
27.71328
  0
SEQEND
  0
POLYLINE
  8
Unknown_Area_Type
  70
1
  66
1
  0
VERTEX
  8
Unknown_Area_Type
  10
439139.641
  20
4650037.490
  0
VERTEX
  8
Unknown_Area_Type
  10
436161.212
  20
4650063.579
  0
VERTEX
  8
Unknown_Area_Type
  10
436132.685
  20
4650063.843
  0
VERTEX
  8
Unknown_Area_Type
  10
436133.437
  20
4650230.000
  0
VERTEX
  8
Unknown_Area_Type
  10
436270.000
  20
4650230.000
  0
VERTEX
  8
Unknown_Area_Type
  10
436270.000
  20
4650170.000
  0
VERTEX
  8
Unknown_Area_Type
  10
439140.888
  20
4650170.000
  0
VERTEX
  8
Unknown_Area_Type
  10
439139.641
  20
4650037.490
  0
SEQEND
  8
Unknown_Area_Type
  0
INSERT
  8
FeatureAttribs
  2
FEATURE
  41
1
  42
1
  43
1
  50
0
  10
437635.741
  20
4649985.617
 66
1
  0
ATTRIB
  8
FeatureAttribs
 70
0
  1
PNOA-H_AMS_1956-57_33k_ES_PAN_2
  2
NAME
  10
437635.741
  20
4649985.617
 40
27.71328
  0
SEQEND
  0
POLYLINE
  8
Unknown_Area_Type
  70
1
  66
1
  0
VERTEX
  8
Unknown_Area_Type
  10
439138.415
  20
4649907.392
  0
VERTEX
  8
Unknown_Area_Type
  10
436131.976
  20
4649907.392
  0
VERTEX
  8
Unknown_Area_Type
  10
436132.685
  20
4650063.843
  0
VERTEX
  8
Unknown_Area_Type
  10
436161.212
  20
4650063.579
  0
VERTEX
  8
Unknown_Area_Type
  10
439139.641
  20
4650037.490
  0
VERTEX
  8
Unknown_Area_Type
  10
439138.415
  20
4649907.392
  0
SEQEND
  8
Unknown_Area_Type
  0
INSERT
  8
FeatureAttribs
  2
FEATURE
  41
1
  42
1
  43
1
  50
0
  10
446704.265
  20
4649947.767
 66
1
  0
ATTRIB
  8
FeatureAttribs
 70
0
  1
PNOA-H_AMS_1956-57_33k_ES_PAN_2
  2
NAME
  10
446704.265
  20
4649947.767
 40
27.71328
  0
SEQEND
  0
POLYLINE
  8
Unknown_Area_Type
  70
1
  66
1
  0
VERTEX
  8
Unknown_Area_Type
  10
448205.280
  20
4649907.392
  0
VERTEX
  8
Unknown_Area_Type
  10
445203.651
  20
4649907.392
  0
VERTEX
  8
Unknown_Area_Type
  10
445202.860
  20
4649988.142
  0
VERTEX
  8
Unknown_Area_Type
  10
446513.499
  20
4649977.937
  0
VERTEX
  8
Unknown_Area_Type
  10
448205.272
  20
4649965.588
  0
VERTEX
  8
Unknown_Area_Type
  10
448205.280
  20
4649907.392
  0
SEQEND
  8
Unknown_Area_Type
  0
INSERT
  8
FeatureAttribs
  2
FEATURE
  41
1
  42
1
  43
1
  50
0
  10
446746.022
  20
4650043.189
 66
1
  0
ATTRIB
  8
FeatureAttribs
 70
0
  1
PNOA-H_AMS_1956-57_33k_ES_PAN_2
  2
NAME
  10
446746.022
  20
4650043.189
 40
27.71328
  0
SEQEND
  0
POLYLINE
  8
Unknown_Area_Type
  70
1
  66
1
  0
VERTEX
  8
Unknown_Area_Type
  10
448205.272
  20
4649965.588
  0
VERTEX
  8
Unknown_Area_Type
  10
446513.499
  20
4649977.937
  0
VERTEX
  8
Unknown_Area_Type
  10
445202.860
  20
4649988.142
  0
VERTEX
  8
Unknown_Area_Type
  10
445201.664
  20
4650110.000
  0
VERTEX
  8
Unknown_Area_Type
  10
448205.253
  20
4650110.000
  0
VERTEX
  8
Unknown_Area_Type
  10
448205.272
  20
4649965.588
  0
SEQEND
  8
Unknown_Area_Type
  0
INSERT
  8
FeatureAttribs
  2
FEATURE
  41
1
  42
1
  43
1
  50
0
  10
446746.022
  20
4650043.189
 66
1
  0
ATTRIB
  8
FeatureAttribs
 70
0
  1
PNOA-H_AMS_1956-57_33k_ES_PAN_2
  2
NAME
  10
446746.022
  20
4650043.189
 40
27.71328
  0
SEQEND
  0
POLYLINE
  8
Unknown_Area_Type
  70
1
  66
1
  0
VERTEX
  8
Unknown_Area_Type
  10
448205.272
  20
4649965.588
  0
VERTEX
  8
Unknown_Area_Type
  10
448205.253
  20
4650110.000
  0
VERTEX
  8
Unknown_Area_Type
  10
445201.664
  20
4650110.000
  0
VERTEX
  8
Unknown_Area_Type
  10
445202.860
  20
4649988.142
  0
VERTEX
  8
Unknown_Area_Type
  10
446513.499
  20
4649977.937
  0
VERTEX
  8
Unknown_Area_Type
  10
448205.272
  20
4649965.588
  0
SEQEND
  8
Unknown_Area_Type
  0
INSERT
  8
FeatureAttribs
  2
FEATURE
  41
1
  42
1
  43
1
  50
0
  10
431598.656
  20
4650160.906
 66
1
  0
ATTRIB
  8
FeatureAttribs
 70
0
  1
PNOA-H_AMS_1956-57_33k_ES_PAN_2
  2
NAME
  10
431598.656
  20
4650160.906
 40
27.71328
  0
SEQEND
  0
POLYLINE
  8
Unknown_Area_Type
  70
1
  66
1
  0
VERTEX
  8
Unknown_Area_Type
  10
433107.754
  20
4650091.811
  0
VERTEX
  8
Unknown_Area_Type
  10
432710.442
  20
4650095.485
  0
VERTEX
  8
Unknown_Area_Type
  10
430089.959
  20
4650120.990
  0
VERTEX
  8
Unknown_Area_Type
  10
430089.841
  20
4650230.000
  0
VERTEX
  8
Unknown_Area_Type
  10
433107.038
  20
4650230.000
  0
VERTEX
  8
Unknown_Area_Type
  10
433107.754
  20
4650091.811
  0
SEQEND
  8
Unknown_Area_Type
  0
INSERT
  8
FeatureAttribs
  2
FEATURE
  41
1
  42
1
  43
1
  50
0
  10
431598.656
  20
4650160.906
 66
1
  0
ATTRIB
  8
FeatureAttribs
 70
0
  1
PNOA-H_AMS_1956-57_33k_ES_PAN_2
  2
NAME
  10
431598.656
  20
4650160.906
 40
27.71328
  0
SEQEND
  0
POLYLINE
  8
Unknown_Area_Type
  70
1
  66
1
  0
VERTEX
  8
Unknown_Area_Type
  10
433107.754
  20
4650091.811
  0
VERTEX
  8
Unknown_Area_Type
  10
432710.442
  20
4650095.485
  0
VERTEX
  8
Unknown_Area_Type
  10
430089.959
  20
4650120.990
  0
VERTEX
  8
Unknown_Area_Type
  10
430089.841
  20
4650230.000
  0
VERTEX
  8
Unknown_Area_Type
  10
433107.038
  20
4650230.000
  0
VERTEX
  8
Unknown_Area_Type
  10
433107.754
  20
4650091.811
  0
SEQEND
  8
Unknown_Area_Type
  0
INSERT
  8
FeatureAttribs
  2
FEATURE
  41
1
  42
1
  43
1
  50
0
  10
431599.116
  20
4650014.191
 66
1
  0
ATTRIB
  8
FeatureAttribs
 70
0
  1
PNOA-H_AMS_1956-57_33k_ES_PAN_2
  2
NAME
  10
431599.116
  20
4650014.191
 40
27.71328
  0
SEQEND
  0
POLYLINE
  8
Unknown_Area_Type
  70
1
  66
1
  0
VERTEX
  8
Unknown_Area_Type
  10
433108.708
  20
4649907.392
  0
VERTEX
  8
Unknown_Area_Type
  10
430090.192
  20
4649907.392
  0
VERTEX
  8
Unknown_Area_Type
  10
430089.959
  20
4650120.990
  0
VERTEX
  8
Unknown_Area_Type
  10
432710.442
  20
4650095.485
  0
VERTEX
  8
Unknown_Area_Type
  10
433107.754
  20
4650091.811
  0
VERTEX
  8
Unknown_Area_Type
  10
433108.708
  20
4649907.392
  0
SEQEND
  8
Unknown_Area_Type
  0
INSERT
  8
FeatureAttribs
  2
FEATURE
  41
1
  42
1
  43
1
  50
0
  10
440658.235
  20
4649972.440
 66
1
  0
ATTRIB
  8
FeatureAttribs
 70
0
  1
PNOA-H_AMS_1956-57_33k_ES_PAN_2
  2
NAME
  10
440658.235
  20
4649972.440
 40
27.71328
  0
SEQEND
  0
POLYLINE
  8
Unknown_Area_Type
  70
1
  66
1
  0
VERTEX
  8
Unknown_Area_Type
  10
442178.391
  20
4649907.392
  0
VERTEX
  8
Unknown_Area_Type
  10
439138.638
  20
4649907.392
  0
VERTEX
  8
Unknown_Area_Type
  10
439139.850
  20
4650037.488
  0
VERTEX
  8
Unknown_Area_Type
  10
439611.977
  20
4650033.352
  0
VERTEX
  8
Unknown_Area_Type
  10
442176.514
  20
4650012.137
  0
VERTEX
  8
Unknown_Area_Type
  10
442178.391
  20
4649907.392
  0
SEQEND
  8
Unknown_Area_Type
  0
INSERT
  8
FeatureAttribs
  2
FEATURE
  41
1
  42
1
  43
1
  50
0
  10
440701.649
  20
4650097.160
 66
1
  0
ATTRIB
  8
FeatureAttribs
 70
0
  1
PNOA-H_AMS_1956-57_33k_ES_PAN_2
  2
NAME
  10
440701.649
  20
4650097.160
 40
27.71328
  0
SEQEND
  0
POLYLINE
  8
Unknown_Area_Type
  70
1
  66
1
  0
VERTEX
  8
Unknown_Area_Type
  10
442176.514
  20
4650012.137
  0
VERTEX
  8
Unknown_Area_Type
  10
439611.977
  20
4650033.352
  0
VERTEX
  8
Unknown_Area_Type
  10
439139.850
  20
4650037.488
  0
VERTEX
  8
Unknown_Area_Type
  10
439141.084
  20
4650170.000
  0
VERTEX
  8
Unknown_Area_Type
  10
442173.684
  20
4650170.000
  0
VERTEX
  8
Unknown_Area_Type
  10
442176.514
  20
4650012.137
  0
SEQEND
  8
Unknown_Area_Type
  0
INSERT
  8
FeatureAttribs
  2
FEATURE
  41
1
  42
1
  43
1
  50
0
  10
440701.649
  20
4650097.160
 66
1
  0
ATTRIB
  8
FeatureAttribs
 70
0
  1
PNOA-H_AMS_1956-57_33k_ES_PAN_2
  2
NAME
  10
440701.649
  20
4650097.160
 40
27.71328
  0
SEQEND
  0
POLYLINE
  8
Unknown_Area_Type
  70
1
  66
1
  0
VERTEX
  8
Unknown_Area_Type
  10
442176.514
  20
4650012.137
  0
VERTEX
  8
Unknown_Area_Type
  10
442173.684
  20
4650170.000
  0
VERTEX
  8
Unknown_Area_Type
  10
439141.084
  20
4650170.000
  0
VERTEX
  8
Unknown_Area_Type
  10
439139.850
  20
4650037.488
  0
VERTEX
  8
Unknown_Area_Type
  10
439611.977
  20
4650033.352
  0
VERTEX
  8
Unknown_Area_Type
  10
442176.514
  20
4650012.137
  0
SEQEND
  8
Unknown_Area_Type
  0
INSERT
  8
FeatureAttribs
  2
FEATURE
  41
1
  42
1
  43
1
  50
0
  10
434620.180
  20
4650146.922
 66
1
  0
ATTRIB
  8
FeatureAttribs
 70
0
  1
PNOA-H_AMS_1956-57_33k_ES_PAN_2
  2
NAME
  10
434620.180
  20
4650146.922
 40
27.71328
  0
SEQEND
  0
POLYLINE
  8
Unknown_Area_Type
  70
1
  66
1
  0
VERTEX
  8
Unknown_Area_Type
  10
436132.556
  20
4650063.844
  0
VERTEX
  8
Unknown_Area_Type
  10
433107.709
  20
4650091.812
  0
VERTEX
  8
Unknown_Area_Type
  10
433106.991
  20
4650230.000
  0
VERTEX
  8
Unknown_Area_Type
  10
436133.319
  20
4650230.000
  0
VERTEX
  8
Unknown_Area_Type
  10
436132.556
  20
4650063.844
  0
SEQEND
  8
Unknown_Area_Type
  0
INSERT
  8
FeatureAttribs
  2
FEATURE
  41
1
  42
1
  43
1
  50
0
  10
434620.180
  20
4650146.922
 66
1
  0
ATTRIB
  8
FeatureAttribs
 70
0
  1
PNOA-H_AMS_1956-57_33k_ES_PAN_2
  2
NAME
  10
434620.180
  20
4650146.922
 40
27.71328
  0
SEQEND
  0
POLYLINE
  8
Unknown_Area_Type
  70
1
  66
1
  0
VERTEX
  8
Unknown_Area_Type
  10
436132.556
  20
4650063.844
  0
VERTEX
  8
Unknown_Area_Type
  10
433107.709
  20
4650091.812
  0
VERTEX
  8
Unknown_Area_Type
  10
433106.991
  20
4650230.000
  0
VERTEX
  8
Unknown_Area_Type
  10
436133.319
  20
4650230.000
  0
VERTEX
  8
Unknown_Area_Type
  10
436132.556
  20
4650063.844
  0
SEQEND
  8
Unknown_Area_Type
  0
INSERT
  8
FeatureAttribs
  2
FEATURE
  41
1
  42
1
  43
1
  50
0
  10
434620.225
  20
4649999.602
 66
1
  0
ATTRIB
  8
FeatureAttribs
 70
0
  1
PNOA-H_AMS_1956-57_33k_ES_PAN_2
  2
NAME
  10
434620.225
  20
4649999.602
 40
27.71328
  0
SEQEND
  0
POLYLINE
  8
Unknown_Area_Type
  70
1
  66
1
  0
VERTEX
  8
Unknown_Area_Type
  10
436131.837
  20
4649907.392
  0
VERTEX
  8
Unknown_Area_Type
  10
433108.668
  20
4649907.392
  0
VERTEX
  8
Unknown_Area_Type
  10
433107.709
  20
4650091.812
  0
VERTEX
  8
Unknown_Area_Type
  10
436132.556
  20
4650063.844
  0
VERTEX
  8
Unknown_Area_Type
  10
436131.837
  20
4649907.392
  0
SEQEND
  8
Unknown_Area_Type
  0
INSERT
  8
FeatureAttribs
  2
FEATURE
  41
1
  42
1
  43
1
  50
0
  10
454436.946
  20
4649917.347
 66
1
  0
ATTRIB
  8
FeatureAttribs
 70
0
  1
PNOA-H_AMS_1956-57_33k_ES_PAN_2
  2
NAME
  10
454436.946
  20
4649917.347
 40
27.71328
  0
SEQEND
  0
POLYLINE
  8
Unknown_Area_Type
  70
1
  66
1
  0
VERTEX
  8
Unknown_Area_Type
  10
455153.387
  20
4649918.243
  0
VERTEX
  8
Unknown_Area_Type
  10
455157.921
  20
4649907.392
  0
VERTEX
  8
Unknown_Area_Type
  10
453718.939
  20
4649907.392
  0
VERTEX
  8
Unknown_Area_Type
  10
453721.321
  20
4649927.302
  0
VERTEX
  8
Unknown_Area_Type
  10
455153.387
  20
4649918.243
  0
SEQEND
  8
Unknown_Area_Type
  0
INSERT
  8
FeatureAttribs
  2
FEATURE
  41
1
  42
1
  43
1
  50
0
  10
454434.079
  20
4649990.758
 66
1
  0
ATTRIB
  8
FeatureAttribs
 70
0
  1
PNOA-H_AMS_1956-57_33k_ES_PAN_2
  2
NAME
  10
454434.079
  20
4649990.758
 40
27.71328
  0
SEQEND
  0
POLYLINE
  8
Unknown_Area_Type
  70
1
  66
1
  0
VERTEX
  8
Unknown_Area_Type
  10
455153.387
  20
4649918.243
  0
VERTEX
  8
Unknown_Area_Type
  10
453721.321
  20
4649927.302
  0
VERTEX
  8
Unknown_Area_Type
  10
453737.196
  20
4650060.000
  0
VERTEX
  8
Unknown_Area_Type
  10
455094.154
  20
4650060.000
  0
VERTEX
  8
Unknown_Area_Type
  10
455153.387
  20
4649918.243
  0
SEQEND
  8
Unknown_Area_Type
  0
INSERT
  8
FeatureAttribs
  2
FEATURE
  41
1
  42
1
  43
1
  50
0
  10
454434.079
  20
4649990.758
 66
1
  0
ATTRIB
  8
FeatureAttribs
 70
0
  1
PNOA-H_AMS_1956-57_33k_ES_PAN_2
  2
NAME
  10
454434.079
  20
4649990.758
 40
27.71328
  0
SEQEND
  0
POLYLINE
  8
Unknown_Area_Type
  70
1
  66
1
  0
VERTEX
  8
Unknown_Area_Type
  10
455153.387
  20
4649918.243
  0
VERTEX
  8
Unknown_Area_Type
  10
455094.154
  20
4650060.000
  0
VERTEX
  8
Unknown_Area_Type
  10
453737.196
  20
4650060.000
  0
VERTEX
  8
Unknown_Area_Type
  10
453721.321
  20
4649927.302
  0
VERTEX
  8
Unknown_Area_Type
  10
455153.387
  20
4649918.243
  0
SEQEND
  8
Unknown_Area_Type
  0
INSERT
  8
FeatureAttribs
  2
FEATURE
  41
1
  42
1
  43
1
  50
0
  10
456918.112
  20
4649983.696
 66
1
  0
ATTRIB
  8
FeatureAttribs
 70
0
  1
PNOA-H_AMS_1956-57_33k_ES_PAN_2
  2
NAME
  10
456918.112
  20
4649983.696
 40
27.71328
  0
SEQEND
  0
POLYLINE
  8
Unknown_Area_Type
  70
1
  66
1
  0
VERTEX
  8
Unknown_Area_Type
  10
456970.000
  20
4649907.392
  0
VERTEX
  8
Unknown_Area_Type
  10
456868.966
  20
4649907.392
  0
VERTEX
  8
Unknown_Area_Type
  10
456865.759
  20
4649907.410
  0
VERTEX
  8
Unknown_Area_Type
  10
456866.687
  20
4650060.000
  0
VERTEX
  8
Unknown_Area_Type
  10
456970.000
  20
4650060.000
  0
VERTEX
  8
Unknown_Area_Type
  10
456970.000
  20
4649907.392
  0
SEQEND
  8
Unknown_Area_Type
  0
INSERT
  8
FeatureAttribs
  2
FEATURE
  41
1
  42
1
  43
1
  50
0
  10
456611.451
  20
4649908.476
 66
1
  0
ATTRIB
  8
FeatureAttribs
 70
0
  1
PNOA-H_AMS_1956-57_33k_ES_PAN_2
  2
NAME
  10
456611.451
  20
4649908.476
 40
27.71328
  0
SEQEND
  0
POLYLINE
  8
Unknown_Area_Type
  70
1
  66
1
  0
VERTEX
  8
Unknown_Area_Type
  10
456525.789
  20
4649909.561
  0
VERTEX
  8
Unknown_Area_Type
  10
456865.759
  20
4649907.410
  0
VERTEX
  8
Unknown_Area_Type
  10
456865.759
  20
4649907.392
  0
VERTEX
  8
Unknown_Area_Type
  10
456525.506
  20
4649907.392
  0
VERTEX
  8
Unknown_Area_Type
  10
456525.789
  20
4649909.561
  0
SEQEND
  8
Unknown_Area_Type
  0
INSERT
  8
FeatureAttribs
  2
FEATURE
  41
1
  42
1
  43
1
  50
0
  10
456701.238
  20
4649983.523
 66
1
  0
ATTRIB
  8
FeatureAttribs
 70
0
  1
PNOA-H_AMS_1956-57_33k_ES_PAN_2
  2
NAME
  10
456701.238
  20
4649983.523
 40
27.71328
  0
SEQEND
  0
POLYLINE
  8
Unknown_Area_Type
  70
1
  66
1
  0
VERTEX
  8
Unknown_Area_Type
  10
456866.687
  20
4650060.000
  0
VERTEX
  8
Unknown_Area_Type
  10
456865.759
  20
4649907.410
  0
VERTEX
  8
Unknown_Area_Type
  10
456525.789
  20
4649909.561
  0
VERTEX
  8
Unknown_Area_Type
  10
456545.391
  20
4650060.000
  0
VERTEX
  8
Unknown_Area_Type
  10
456866.687
  20
4650060.000
  0
SEQEND
  8
Unknown_Area_Type
  0
INSERT
  8
FeatureAttribs
  2
FEATURE
  41
1
  42
1
  43
1
  50
0
  10
456701.238
  20
4649983.523
 66
1
  0
ATTRIB
  8
FeatureAttribs
 70
0
  1
PNOA-H_AMS_1956-57_33k_ES_PAN_2
  2
NAME
  10
456701.238
  20
4649983.523
 40
27.71328
  0
SEQEND
  0
POLYLINE
  8
Unknown_Area_Type
  70
1
  66
1
  0
VERTEX
  8
Unknown_Area_Type
  10
456866.687
  20
4650060.000
  0
VERTEX
  8
Unknown_Area_Type
  10
456545.391
  20
4650060.000
  0
VERTEX
  8
Unknown_Area_Type
  10
456525.789
  20
4649909.561
  0
VERTEX
  8
Unknown_Area_Type
  10
456865.759
  20
4649907.410
  0
VERTEX
  8
Unknown_Area_Type
  10
456866.687
  20
4650060.000
  0
SEQEND
  8
Unknown_Area_Type
  0
ENDSEC
  0
EOF
