  0
SECTION
  2
HEADER
  9
$ACADVER
  1
AC1009
  9
$LUNITS
  70
2
  9
$LIMMIN
  10
374046.598
  20
4650458.206
  9
$LIMMAX
  10
401910.443
  20
4669400.672
  9
$EXTMIN
  10
374046.598
  20
4650458.206
  9
$EXTMAX
  10
401910.443
  20
4669400.672
  999
Created by Global Mapper
  999
Projection: UTM
  999
Datum: ETRS89
  999
Ground Units: meters
  999
ZONE: 30
  0
ENDSEC
  0
SECTION
  2
TABLES
  0
ENDSEC
  0
SECTION
  2
BLOCKS
  0
BLOCK
  8
FeatureAttribs
  70
0
  2
FEATURE
  3
FEATURE
  10
0.00000000
  20
0.00000000
  0
ATTDEF
  8
FeatureAttribs
  70
0
  1
 
  2
NAME
  3
NAME
  10
0.00000000
  20
0.00000000
  40
1.00000000
  0
ENDBLK
  0
ENDSEC
  0
SECTION
  2
ENTITIES
  0
INSERT
  8
FeatureAttribs
  2
FEATURE
  41
1
  42
1
  43
1
  50
0
  10
392758.467
  20
4650534.421
 66
1
  0
ATTRIB
  8
FeatureAttribs
 70
0
  1
PNOA-H_AMS_1956-57_33k_ES_PAN_2
  2
NAME
  10
392758.467
  20
4650534.421
 40
33.69289
  0
SEQEND
  0
POLYLINE
  8
Unknown_Area_Type
  70
1
  66
1
  0
VERTEX
  8
Unknown_Area_Type
  10
394297.822
  20
4650458.206
  0
VERTEX
  8
Unknown_Area_Type
  10
391220.222
  20
4650458.206
  0
VERTEX
  8
Unknown_Area_Type
  10
391219.922
  20
4650610.637
  0
VERTEX
  8
Unknown_Area_Type
  10
391300.860
  20
4650609.376
  0
VERTEX
  8
Unknown_Area_Type
  10
394296.488
  20
4650564.180
  0
VERTEX
  8
Unknown_Area_Type
  10
394297.822
  20
4650458.206
  0
SEQEND
  8
Unknown_Area_Type
  0
INSERT
  8
FeatureAttribs
  2
FEATURE
  41
1
  42
1
  43
1
  50
0
  10
392763.437
  20
4651689.927
 66
1
  0
ATTRIB
  8
FeatureAttribs
 70
0
  1
PNOA-H_AMS_1956-57_33k_ES_PAN_2
  2
NAME
  10
392763.437
  20
4651689.927
 40
33.69289
  0
SEQEND
  0
POLYLINE
  8
Unknown_Area_Type
  70
1
  66
1
  0
VERTEX
  8
Unknown_Area_Type
  10
394296.488
  20
4650564.180
  0
VERTEX
  8
Unknown_Area_Type
  10
391300.860
  20
4650609.376
  0
VERTEX
  8
Unknown_Area_Type
  10
391219.922
  20
4650610.637
  0
VERTEX
  8
Unknown_Area_Type
  10
391216.000
  20
4652604.000
  0
VERTEX
  8
Unknown_Area_Type
  10
393184.000
  20
4652992.500
  0
VERTEX
  8
Unknown_Area_Type
  10
393186.500
  20
4652993.000
  0
VERTEX
  8
Unknown_Area_Type
  10
393192.500
  20
4652992.000
  0
VERTEX
  8
Unknown_Area_Type
  10
394271.500
  20
4652548.000
  0
VERTEX
  8
Unknown_Area_Type
  10
394296.488
  20
4650564.180
  0
SEQEND
  8
Unknown_Area_Type
  0
INSERT
  8
FeatureAttribs
  2
FEATURE
  41
1
  42
1
  43
1
  50
0
  10
392763.437
  20
4651689.927
 66
1
  0
ATTRIB
  8
FeatureAttribs
 70
0
  1
PNOA-H_AMS_1956-57_33k_ES_PAN_2
  2
NAME
  10
392763.437
  20
4651689.927
 40
33.69289
  0
SEQEND
  0
POLYLINE
  8
Unknown_Area_Type
  70
1
  66
1
  0
VERTEX
  8
Unknown_Area_Type
  10
394296.488
  20
4650564.180
  0
VERTEX
  8
Unknown_Area_Type
  10
394271.500
  20
4652548.000
  0
VERTEX
  8
Unknown_Area_Type
  10
393192.500
  20
4652992.000
  0
VERTEX
  8
Unknown_Area_Type
  10
393186.500
  20
4652993.000
  0
VERTEX
  8
Unknown_Area_Type
  10
393184.000
  20
4652992.500
  0
VERTEX
  8
Unknown_Area_Type
  10
391216.000
  20
4652604.000
  0
VERTEX
  8
Unknown_Area_Type
  10
391219.922
  20
4650610.637
  0
VERTEX
  8
Unknown_Area_Type
  10
391300.860
  20
4650609.376
  0
VERTEX
  8
Unknown_Area_Type
  10
394296.488
  20
4650564.180
  0
SEQEND
  8
Unknown_Area_Type
  0
INSERT
  8
FeatureAttribs
  2
FEATURE
  41
1
  42
1
  43
1
  50
0
  10
398456.634
  20
4650488.429
 66
1
  0
ATTRIB
  8
FeatureAttribs
 70
0
  1
PNOA-H_AMS_1956-57_33k_ES_PAN_2
  2
NAME
  10
398456.634
  20
4650488.429
 40
33.69289
  0
SEQEND
  0
POLYLINE
  8
Unknown_Area_Type
  70
1
  66
1
  0
VERTEX
  8
Unknown_Area_Type
  10
400446.087
  20
4650475.264
  0
VERTEX
  8
Unknown_Area_Type
  10
400446.436
  20
4650458.206
  0
VERTEX
  8
Unknown_Area_Type
  10
397400.400
  20
4650458.206
  0
VERTEX
  8
Unknown_Area_Type
  10
397399.582
  20
4650518.652
  0
VERTEX
  8
Unknown_Area_Type
  10
398202.509
  20
4650506.929
  0
VERTEX
  8
Unknown_Area_Type
  10
400446.087
  20
4650475.264
  0
SEQEND
  8
Unknown_Area_Type
  0
INSERT
  8
FeatureAttribs
  2
FEATURE
  41
1
  42
1
  43
1
  50
0
  10
398901.795
  20
4651629.261
 66
1
  0
ATTRIB
  8
FeatureAttribs
 70
0
  1
PNOA-H_AMS_1956-57_33k_ES_PAN_2
  2
NAME
  10
398901.795
  20
4651629.261
 40
33.69289
  0
SEQEND
  0
POLYLINE
  8
Unknown_Area_Type
  70
1
  66
1
  0
VERTEX
  8
Unknown_Area_Type
  10
400446.087
  20
4650475.264
  0
VERTEX
  8
Unknown_Area_Type
  10
398202.509
  20
4650506.929
  0
VERTEX
  8
Unknown_Area_Type
  10
397399.582
  20
4650518.652
  0
VERTEX
  8
Unknown_Area_Type
  10
397372.500
  20
4652520.000
  0
VERTEX
  8
Unknown_Area_Type
  10
398658.000
  20
4652986.500
  0
VERTEX
  8
Unknown_Area_Type
  10
400404.000
  20
4652529.000
  0
VERTEX
  8
Unknown_Area_Type
  10
400446.087
  20
4650475.264
  0
SEQEND
  8
Unknown_Area_Type
  0
INSERT
  8
FeatureAttribs
  2
FEATURE
  41
1
  42
1
  43
1
  50
0
  10
398901.795
  20
4651629.261
 66
1
  0
ATTRIB
  8
FeatureAttribs
 70
0
  1
PNOA-H_AMS_1956-57_33k_ES_PAN_2
  2
NAME
  10
398901.795
  20
4651629.261
 40
33.69289
  0
SEQEND
  0
POLYLINE
  8
Unknown_Area_Type
  70
1
  66
1
  0
VERTEX
  8
Unknown_Area_Type
  10
400446.087
  20
4650475.264
  0
VERTEX
  8
Unknown_Area_Type
  10
400404.000
  20
4652529.000
  0
VERTEX
  8
Unknown_Area_Type
  10
398658.000
  20
4652986.500
  0
VERTEX
  8
Unknown_Area_Type
  10
397372.500
  20
4652520.000
  0
VERTEX
  8
Unknown_Area_Type
  10
397399.582
  20
4650518.652
  0
VERTEX
  8
Unknown_Area_Type
  10
398202.509
  20
4650506.929
  0
VERTEX
  8
Unknown_Area_Type
  10
400446.087
  20
4650475.264
  0
SEQEND
  8
Unknown_Area_Type
  0
INSERT
  8
FeatureAttribs
  2
FEATURE
  41
1
  42
1
  43
1
  50
0
  10
386612.554
  20
4650582.854
 66
1
  0
ATTRIB
  8
FeatureAttribs
 70
0
  1
PNOA-H_AMS_1956-57_33k_ES_PAN_2
  2
NAME
  10
386612.554
  20
4650582.854
 40
33.69289
  0
SEQEND
  0
POLYLINE
  8
Unknown_Area_Type
  70
1
  66
1
  0
VERTEX
  8
Unknown_Area_Type
  10
388138.234
  20
4650458.206
  0
VERTEX
  8
Unknown_Area_Type
  10
385083.487
  20
4650458.206
  0
VERTEX
  8
Unknown_Area_Type
  10
385086.692
  20
4650707.502
  0
VERTEX
  8
Unknown_Area_Type
  10
387850.026
  20
4650663.120
  0
VERTEX
  8
Unknown_Area_Type
  10
388141.102
  20
4650658.587
  0
VERTEX
  8
Unknown_Area_Type
  10
388138.234
  20
4650458.206
  0
SEQEND
  8
Unknown_Area_Type
  0
INSERT
  8
FeatureAttribs
  2
FEATURE
  41
1
  42
1
  43
1
  50
0
  10
386640.015
  20
4651768.739
 66
1
  0
ATTRIB
  8
FeatureAttribs
 70
0
  1
PNOA-H_AMS_1956-57_33k_ES_PAN_2
  2
NAME
  10
386640.015
  20
4651768.739
 40
33.69289
  0
SEQEND
  0
POLYLINE
  8
Unknown_Area_Type
  70
1
  66
1
  0
VERTEX
  8
Unknown_Area_Type
  10
388141.102
  20
4650658.587
  0
VERTEX
  8
Unknown_Area_Type
  10
387850.026
  20
4650663.120
  0
VERTEX
  8
Unknown_Area_Type
  10
385086.692
  20
4650707.502
  0
VERTEX
  8
Unknown_Area_Type
  10
385113.500
  20
4652793.000
  0
VERTEX
  8
Unknown_Area_Type
  10
387689.000
  20
4652930.000
  0
VERTEX
  8
Unknown_Area_Type
  10
387698.500
  20
4652930.500
  0
VERTEX
  8
Unknown_Area_Type
  10
387703.000
  20
4652930.500
  0
VERTEX
  8
Unknown_Area_Type
  10
387709.000
  20
4652927.500
  0
VERTEX
  8
Unknown_Area_Type
  10
388170.000
  20
4652678.000
  0
VERTEX
  8
Unknown_Area_Type
  10
388141.102
  20
4650658.587
  0
SEQEND
  8
Unknown_Area_Type
  0
INSERT
  8
FeatureAttribs
  2
FEATURE
  41
1
  42
1
  43
1
  50
0
  10
386640.015
  20
4651768.739
 66
1
  0
ATTRIB
  8
FeatureAttribs
 70
0
  1
PNOA-H_AMS_1956-57_33k_ES_PAN_2
  2
NAME
  10
386640.015
  20
4651768.739
 40
33.69289
  0
SEQEND
  0
POLYLINE
  8
Unknown_Area_Type
  70
1
  66
1
  0
VERTEX
  8
Unknown_Area_Type
  10
388141.102
  20
4650658.587
  0
VERTEX
  8
Unknown_Area_Type
  10
388170.000
  20
4652678.000
  0
VERTEX
  8
Unknown_Area_Type
  10
387709.000
  20
4652927.500
  0
VERTEX
  8
Unknown_Area_Type
  10
387703.000
  20
4652930.500
  0
VERTEX
  8
Unknown_Area_Type
  10
387698.500
  20
4652930.500
  0
VERTEX
  8
Unknown_Area_Type
  10
387689.000
  20
4652930.000
  0
VERTEX
  8
Unknown_Area_Type
  10
385113.500
  20
4652793.000
  0
VERTEX
  8
Unknown_Area_Type
  10
385086.692
  20
4650707.502
  0
VERTEX
  8
Unknown_Area_Type
  10
387850.026
  20
4650663.120
  0
VERTEX
  8
Unknown_Area_Type
  10
388141.102
  20
4650658.587
  0
SEQEND
  8
Unknown_Area_Type
  0
INSERT
  8
FeatureAttribs
  2
FEATURE
  41
1
  42
1
  43
1
  50
0
  10
380589.152
  20
4650632.728
 66
1
  0
ATTRIB
  8
FeatureAttribs
 70
0
  1
PNOA-H_AMS_1956-57_33k_ES_PAN_2
  2
NAME
  10
380589.152
  20
4650632.728
 40
33.69289
  0
SEQEND
  0
POLYLINE
  8
Unknown_Area_Type
  70
1
  66
1
  0
VERTEX
  8
Unknown_Area_Type
  10
382083.621
  20
4650458.206
  0
VERTEX
  8
Unknown_Area_Type
  10
379089.160
  20
4650458.206
  0
VERTEX
  8
Unknown_Area_Type
  10
379093.275
  20
4650807.250
  0
VERTEX
  8
Unknown_Area_Type
  10
380948.339
  20
4650775.649
  0
VERTEX
  8
Unknown_Area_Type
  10
382089.549
  20
4650756.764
  0
VERTEX
  8
Unknown_Area_Type
  10
382083.621
  20
4650458.206
  0
SEQEND
  8
Unknown_Area_Type
  0
INSERT
  8
FeatureAttribs
  2
FEATURE
  41
1
  42
1
  43
1
  50
0
  10
380599.688
  20
4651869.391
 66
1
  0
ATTRIB
  8
FeatureAttribs
 70
0
  1
PNOA-H_AMS_1956-57_33k_ES_PAN_2
  2
NAME
  10
380599.688
  20
4651869.391
 40
33.69289
  0
SEQEND
  0
POLYLINE
  8
Unknown_Area_Type
  70
1
  66
1
  0
VERTEX
  8
Unknown_Area_Type
  10
382089.549
  20
4650756.764
  0
VERTEX
  8
Unknown_Area_Type
  10
380948.339
  20
4650775.649
  0
VERTEX
  8
Unknown_Area_Type
  10
379093.275
  20
4650807.250
  0
VERTEX
  8
Unknown_Area_Type
  10
379117.500
  20
4652862.000
  0
VERTEX
  8
Unknown_Area_Type
  10
379468.000
  20
4653039.000
  0
VERTEX
  8
Unknown_Area_Type
  10
380558.500
  20
4652969.500
  0
VERTEX
  8
Unknown_Area_Type
  10
380562.000
  20
4652969.500
  0
VERTEX
  8
Unknown_Area_Type
  10
382131.500
  20
4652869.500
  0
VERTEX
  8
Unknown_Area_Type
  10
382089.549
  20
4650756.764
  0
SEQEND
  8
Unknown_Area_Type
  0
INSERT
  8
FeatureAttribs
  2
FEATURE
  41
1
  42
1
  43
1
  50
0
  10
380599.688
  20
4651869.391
 66
1
  0
ATTRIB
  8
FeatureAttribs
 70
0
  1
PNOA-H_AMS_1956-57_33k_ES_PAN_2
  2
NAME
  10
380599.688
  20
4651869.391
 40
33.69289
  0
SEQEND
  0
POLYLINE
  8
Unknown_Area_Type
  70
1
  66
1
  0
VERTEX
  8
Unknown_Area_Type
  10
382089.549
  20
4650756.764
  0
VERTEX
  8
Unknown_Area_Type
  10
382131.500
  20
4652869.500
  0
VERTEX
  8
Unknown_Area_Type
  10
380562.000
  20
4652969.500
  0
VERTEX
  8
Unknown_Area_Type
  10
380558.500
  20
4652969.500
  0
VERTEX
  8
Unknown_Area_Type
  10
379468.000
  20
4653039.000
  0
VERTEX
  8
Unknown_Area_Type
  10
379117.500
  20
4652862.000
  0
VERTEX
  8
Unknown_Area_Type
  10
379093.275
  20
4650807.250
  0
VERTEX
  8
Unknown_Area_Type
  10
380948.339
  20
4650775.649
  0
VERTEX
  8
Unknown_Area_Type
  10
382089.549
  20
4650756.764
  0
SEQEND
  8
Unknown_Area_Type
  0
INSERT
  8
FeatureAttribs
  2
FEATURE
  41
1
  42
1
  43
1
  50
0
  10
395848.419
  20
4650511.193
 66
1
  0
ATTRIB
  8
FeatureAttribs
 70
0
  1
PNOA-H_AMS_1956-57_33k_ES_PAN_2
  2
NAME
  10
395848.419
  20
4650511.193
 40
33.69289
  0
SEQEND
  0
POLYLINE
  8
Unknown_Area_Type
  70
1
  66
1
  0
VERTEX
  8
Unknown_Area_Type
  10
397400.400
  20
4650458.206
  0
VERTEX
  8
Unknown_Area_Type
  10
394297.822
  20
4650458.206
  0
VERTEX
  8
Unknown_Area_Type
  10
394296.488
  20
4650564.180
  0
VERTEX
  8
Unknown_Area_Type
  10
394751.687
  20
4650557.312
  0
VERTEX
  8
Unknown_Area_Type
  10
397399.582
  20
4650518.652
  0
VERTEX
  8
Unknown_Area_Type
  10
397400.400
  20
4650458.206
  0
SEQEND
  8
Unknown_Area_Type
  0
INSERT
  8
FeatureAttribs
  2
FEATURE
  41
1
  42
1
  43
1
  50
0
  10
395839.652
  20
4651659.047
 66
1
  0
ATTRIB
  8
FeatureAttribs
 70
0
  1
PNOA-H_AMS_1956-57_33k_ES_PAN_2
  2
NAME
  10
395839.652
  20
4651659.047
 40
33.69289
  0
SEQEND
  0
POLYLINE
  8
Unknown_Area_Type
  70
1
  66
1
  0
VERTEX
  8
Unknown_Area_Type
  10
397399.582
  20
4650518.652
  0
VERTEX
  8
Unknown_Area_Type
  10
394751.687
  20
4650557.312
  0
VERTEX
  8
Unknown_Area_Type
  10
394296.488
  20
4650564.180
  0
VERTEX
  8
Unknown_Area_Type
  10
394271.500
  20
4652548.000
  0
VERTEX
  8
Unknown_Area_Type
  10
394895.000
  20
4652718.500
  0
VERTEX
  8
Unknown_Area_Type
  10
394896.500
  20
4652719.000
  0
VERTEX
  8
Unknown_Area_Type
  10
395936.500
  20
4653002.500
  0
VERTEX
  8
Unknown_Area_Type
  10
397372.500
  20
4652520.000
  0
VERTEX
  8
Unknown_Area_Type
  10
397399.582
  20
4650518.652
  0
SEQEND
  8
Unknown_Area_Type
  0
INSERT
  8
FeatureAttribs
  2
FEATURE
  41
1
  42
1
  43
1
  50
0
  10
395839.652
  20
4651659.047
 66
1
  0
ATTRIB
  8
FeatureAttribs
 70
0
  1
PNOA-H_AMS_1956-57_33k_ES_PAN_2
  2
NAME
  10
395839.652
  20
4651659.047
 40
33.69289
  0
SEQEND
  0
POLYLINE
  8
Unknown_Area_Type
  70
1
  66
1
  0
VERTEX
  8
Unknown_Area_Type
  10
397399.582
  20
4650518.652
  0
VERTEX
  8
Unknown_Area_Type
  10
397372.500
  20
4652520.000
  0
VERTEX
  8
Unknown_Area_Type
  10
395936.500
  20
4653002.500
  0
VERTEX
  8
Unknown_Area_Type
  10
394896.500
  20
4652719.000
  0
VERTEX
  8
Unknown_Area_Type
  10
394895.000
  20
4652718.500
  0
VERTEX
  8
Unknown_Area_Type
  10
394271.500
  20
4652548.000
  0
VERTEX
  8
Unknown_Area_Type
  10
394296.488
  20
4650564.180
  0
VERTEX
  8
Unknown_Area_Type
  10
394751.687
  20
4650557.312
  0
VERTEX
  8
Unknown_Area_Type
  10
397399.582
  20
4650518.652
  0
SEQEND
  8
Unknown_Area_Type
  0
INSERT
  8
FeatureAttribs
  2
FEATURE
  41
1
  42
1
  43
1
  50
0
  10
389679.728
  20
4650558.398
 66
1
  0
ATTRIB
  8
FeatureAttribs
 70
0
  1
PNOA-H_AMS_1956-57_33k_ES_PAN_2
  2
NAME
  10
389679.728
  20
4650558.398
 40
33.69289
  0
SEQEND
  0
POLYLINE
  8
Unknown_Area_Type
  70
1
  66
1
  0
VERTEX
  8
Unknown_Area_Type
  10
391220.222
  20
4650458.206
  0
VERTEX
  8
Unknown_Area_Type
  10
388137.986
  20
4650458.206
  0
VERTEX
  8
Unknown_Area_Type
  10
388140.876
  20
4650658.591
  0
VERTEX
  8
Unknown_Area_Type
  10
391219.922
  20
4650610.637
  0
VERTEX
  8
Unknown_Area_Type
  10
391220.222
  20
4650458.206
  0
SEQEND
  8
Unknown_Area_Type
  0
INSERT
  8
FeatureAttribs
  2
FEATURE
  41
1
  42
1
  43
1
  50
0
  10
389703.437
  20
4651725.419
 66
1
  0
ATTRIB
  8
FeatureAttribs
 70
0
  1
PNOA-H_AMS_1956-57_33k_ES_PAN_2
  2
NAME
  10
389703.437
  20
4651725.419
 40
33.69289
  0
SEQEND
  0
POLYLINE
  8
Unknown_Area_Type
  70
1
  66
1
  0
VERTEX
  8
Unknown_Area_Type
  10
391219.922
  20
4650610.637
  0
VERTEX
  8
Unknown_Area_Type
  10
388140.876
  20
4650658.591
  0
VERTEX
  8
Unknown_Area_Type
  10
388170.000
  20
4652677.500
  0
VERTEX
  8
Unknown_Area_Type
  10
388749.500
  20
4652754.500
  0
VERTEX
  8
Unknown_Area_Type
  10
388753.000
  20
4652755.000
  0
VERTEX
  8
Unknown_Area_Type
  10
390418.000
  20
4652974.500
  0
VERTEX
  8
Unknown_Area_Type
  10
391216.000
  20
4652604.000
  0
VERTEX
  8
Unknown_Area_Type
  10
391219.922
  20
4650610.637
  0
SEQEND
  8
Unknown_Area_Type
  0
INSERT
  8
FeatureAttribs
  2
FEATURE
  41
1
  42
1
  43
1
  50
0
  10
389703.437
  20
4651725.419
 66
1
  0
ATTRIB
  8
FeatureAttribs
 70
0
  1
PNOA-H_AMS_1956-57_33k_ES_PAN_2
  2
NAME
  10
389703.437
  20
4651725.419
 40
33.69289
  0
SEQEND
  0
POLYLINE
  8
Unknown_Area_Type
  70
1
  66
1
  0
VERTEX
  8
Unknown_Area_Type
  10
391219.922
  20
4650610.637
  0
VERTEX
  8
Unknown_Area_Type
  10
391216.000
  20
4652604.000
  0
VERTEX
  8
Unknown_Area_Type
  10
390418.000
  20
4652974.500
  0
VERTEX
  8
Unknown_Area_Type
  10
388753.000
  20
4652755.000
  0
VERTEX
  8
Unknown_Area_Type
  10
388749.500
  20
4652754.500
  0
VERTEX
  8
Unknown_Area_Type
  10
388170.000
  20
4652677.500
  0
VERTEX
  8
Unknown_Area_Type
  10
388140.876
  20
4650658.591
  0
VERTEX
  8
Unknown_Area_Type
  10
391219.922
  20
4650610.637
  0
SEQEND
  8
Unknown_Area_Type
  0
INSERT
  8
FeatureAttribs
  2
FEATURE
  41
1
  42
1
  43
1
  50
0
  10
383585.869
  20
4650607.487
 66
1
  0
ATTRIB
  8
FeatureAttribs
 70
0
  1
PNOA-H_AMS_1956-57_33k_ES_PAN_2
  2
NAME
  10
383585.869
  20
4650607.487
 40
33.69289
  0
SEQEND
  0
POLYLINE
  8
Unknown_Area_Type
  70
1
  66
1
  0
VERTEX
  8
Unknown_Area_Type
  10
385083.487
  20
4650458.206
  0
VERTEX
  8
Unknown_Area_Type
  10
382083.350
  20
4650458.206
  0
VERTEX
  8
Unknown_Area_Type
  10
382089.312
  20
4650756.768
  0
VERTEX
  8
Unknown_Area_Type
  10
384399.186
  20
4650718.545
  0
VERTEX
  8
Unknown_Area_Type
  10
385086.692
  20
4650707.502
  0
VERTEX
  8
Unknown_Area_Type
  10
385083.487
  20
4650458.206
  0
SEQEND
  8
Unknown_Area_Type
  0
INSERT
  8
FeatureAttribs
  2
FEATURE
  41
1
  42
1
  43
1
  50
0
  10
383605.000
  20
4651820.596
 66
1
  0
ATTRIB
  8
FeatureAttribs
 70
0
  1
PNOA-H_AMS_1956-57_33k_ES_PAN_2
  2
NAME
  10
383605.000
  20
4651820.596
 40
33.69289
  0
SEQEND
  0
POLYLINE
  8
Unknown_Area_Type
  70
1
  66
1
  0
VERTEX
  8
Unknown_Area_Type
  10
385086.692
  20
4650707.502
  0
VERTEX
  8
Unknown_Area_Type
  10
384399.186
  20
4650718.545
  0
VERTEX
  8
Unknown_Area_Type
  10
382089.312
  20
4650756.768
  0
VERTEX
  8
Unknown_Area_Type
  10
382131.500
  20
4652869.500
  0
VERTEX
  8
Unknown_Area_Type
  10
382247.500
  20
4652937.000
  0
VERTEX
  8
Unknown_Area_Type
  10
382248.500
  20
4652937.500
  0
VERTEX
  8
Unknown_Area_Type
  10
384945.500
  20
4652893.500
  0
VERTEX
  8
Unknown_Area_Type
  10
385113.500
  20
4652793.000
  0
VERTEX
  8
Unknown_Area_Type
  10
385086.692
  20
4650707.502
  0
SEQEND
  8
Unknown_Area_Type
  0
INSERT
  8
FeatureAttribs
  2
FEATURE
  41
1
  42
1
  43
1
  50
0
  10
383605.000
  20
4651820.596
 66
1
  0
ATTRIB
  8
FeatureAttribs
 70
0
  1
PNOA-H_AMS_1956-57_33k_ES_PAN_2
  2
NAME
  10
383605.000
  20
4651820.596
 40
33.69289
  0
SEQEND
  0
POLYLINE
  8
Unknown_Area_Type
  70
1
  66
1
  0
VERTEX
  8
Unknown_Area_Type
  10
385086.692
  20
4650707.502
  0
VERTEX
  8
Unknown_Area_Type
  10
385113.500
  20
4652793.000
  0
VERTEX
  8
Unknown_Area_Type
  10
384945.500
  20
4652893.500
  0
VERTEX
  8
Unknown_Area_Type
  10
382248.500
  20
4652937.500
  0
VERTEX
  8
Unknown_Area_Type
  10
382247.500
  20
4652937.000
  0
VERTEX
  8
Unknown_Area_Type
  10
382131.500
  20
4652869.500
  0
VERTEX
  8
Unknown_Area_Type
  10
382089.312
  20
4650756.768
  0
VERTEX
  8
Unknown_Area_Type
  10
384399.186
  20
4650718.545
  0
VERTEX
  8
Unknown_Area_Type
  10
385086.692
  20
4650707.502
  0
SEQEND
  8
Unknown_Area_Type
  0
INSERT
  8
FeatureAttribs
  2
FEATURE
  41
1
  42
1
  43
1
  50
0
  10
374056.866
  20
4652049.049
 66
1
  0
ATTRIB
  8
FeatureAttribs
 70
0
  1
PNOA-H_AMS_1956-57_33k_ES_PAN_2
  2
NAME
  10
374056.866
  20
4652049.049
 40
33.69289
  0
SEQEND
  0
POLYLINE
  8
Unknown_Area_Type
  70
1
  66
1
  0
VERTEX
  8
Unknown_Area_Type
  10
374087.642
  20
4653203.199
  0
VERTEX
  8
Unknown_Area_Type
  10
374046.626
  20
4650894.899
  0
VERTEX
  8
Unknown_Area_Type
  10
374046.598
  20
4650894.900
  0
VERTEX
  8
Unknown_Area_Type
  10
374046.598
  20
4653187.177
  0
VERTEX
  8
Unknown_Area_Type
  10
374087.642
  20
4653203.199
  0
SEQEND
  8
Unknown_Area_Type
  0
INSERT
  8
FeatureAttribs
  2
FEATURE
  41
1
  42
1
  43
1
  50
0
  10
374046.612
  20
4650894.507
 66
1
  0
ATTRIB
  8
FeatureAttribs
 70
0
  1
PNOA-H_AMS_1956-57_33k_ES_PAN_2
  2
NAME
  10
374046.612
  20
4650894.507
 40
33.69289
  0
SEQEND
  0
POLYLINE
  8
Unknown_Area_Type
  70
1
  66
1
  0
VERTEX
  8
Unknown_Area_Type
  10
374046.598
  20
4650894.900
  0
VERTEX
  8
Unknown_Area_Type
  10
374046.626
  20
4650894.899
  0
VERTEX
  8
Unknown_Area_Type
  10
374046.598
  20
4650893.331
  0
VERTEX
  8
Unknown_Area_Type
  10
374046.598
  20
4650894.900
  0
SEQEND
  8
Unknown_Area_Type
  0
INSERT
  8
FeatureAttribs
  2
FEATURE
  41
1
  42
1
  43
1
  50
0
  10
375083.104
  20
4650676.553
 66
1
  0
ATTRIB
  8
FeatureAttribs
 70
0
  1
PNOA-H_AMS_1956-57_33k_ES_PAN_2
  2
NAME
  10
375083.104
  20
4650676.553
 40
33.69289
  0
SEQEND
  0
POLYLINE
  8
Unknown_Area_Type
  70
1
  66
1
  0
VERTEX
  8
Unknown_Area_Type
  10
376116.219
  20
4650458.206
  0
VERTEX
  8
Unknown_Area_Type
  10
374046.598
  20
4650458.206
  0
VERTEX
  8
Unknown_Area_Type
  10
374046.598
  20
4650893.331
  0
VERTEX
  8
Unknown_Area_Type
  10
374046.626
  20
4650894.899
  0
VERTEX
  8
Unknown_Area_Type
  10
376122.434
  20
4650858.527
  0
VERTEX
  8
Unknown_Area_Type
  10
376116.219
  20
4650458.206
  0
SEQEND
  8
Unknown_Area_Type
  0
INSERT
  8
FeatureAttribs
  2
FEATURE
  41
1
  42
1
  43
1
  50
0
  10
375073.675
  20
4651974.624
 66
1
  0
ATTRIB
  8
FeatureAttribs
 70
0
  1
PNOA-H_AMS_1956-57_33k_ES_PAN_2
  2
NAME
  10
375073.675
  20
4651974.624
 40
33.69289
  0
SEQEND
  0
POLYLINE
  8
Unknown_Area_Type
  70
1
  66
1
  0
VERTEX
  8
Unknown_Area_Type
  10
376122.434
  20
4650858.527
  0
VERTEX
  8
Unknown_Area_Type
  10
374046.626
  20
4650894.899
  0
VERTEX
  8
Unknown_Area_Type
  10
374087.642
  20
4653203.199
  0
VERTEX
  8
Unknown_Area_Type
  10
374216.500
  20
4653253.500
  0
VERTEX
  8
Unknown_Area_Type
  10
374415.500
  20
4653213.000
  0
VERTEX
  8
Unknown_Area_Type
  10
374418.000
  20
4653212.500
  0
VERTEX
  8
Unknown_Area_Type
  10
376153.500
  20
4652859.500
  0
VERTEX
  8
Unknown_Area_Type
  10
376122.434
  20
4650858.527
  0
SEQEND
  8
Unknown_Area_Type
  0
INSERT
  8
FeatureAttribs
  2
FEATURE
  41
1
  42
1
  43
1
  50
0
  10
375073.675
  20
4651974.624
 66
1
  0
ATTRIB
  8
FeatureAttribs
 70
0
  1
PNOA-H_AMS_1956-57_33k_ES_PAN_2
  2
NAME
  10
375073.675
  20
4651974.624
 40
33.69289
  0
SEQEND
  0
POLYLINE
  8
Unknown_Area_Type
  70
1
  66
1
  0
VERTEX
  8
Unknown_Area_Type
  10
376122.434
  20
4650858.527
  0
VERTEX
  8
Unknown_Area_Type
  10
376153.500
  20
4652859.500
  0
VERTEX
  8
Unknown_Area_Type
  10
374418.000
  20
4653212.500
  0
VERTEX
  8
Unknown_Area_Type
  10
374415.500
  20
4653213.000
  0
VERTEX
  8
Unknown_Area_Type
  10
374216.500
  20
4653253.500
  0
VERTEX
  8
Unknown_Area_Type
  10
374087.642
  20
4653203.199
  0
VERTEX
  8
Unknown_Area_Type
  10
374046.626
  20
4650894.899
  0
VERTEX
  8
Unknown_Area_Type
  10
376122.434
  20
4650858.527
  0
SEQEND
  8
Unknown_Area_Type
  0
INSERT
  8
FeatureAttribs
  2
FEATURE
  41
1
  42
1
  43
1
  50
0
  10
377605.330
  20
4650658.369
 66
1
  0
ATTRIB
  8
FeatureAttribs
 70
0
  1
PNOA-H_AMS_1956-57_33k_ES_PAN_2
  2
NAME
  10
377605.330
  20
4650658.369
 40
33.69289
  0
SEQEND
  0
POLYLINE
  8
Unknown_Area_Type
  70
1
  66
1
  0
VERTEX
  8
Unknown_Area_Type
  10
379089.160
  20
4650458.206
  0
VERTEX
  8
Unknown_Area_Type
  10
376116.054
  20
4650458.206
  0
VERTEX
  8
Unknown_Area_Type
  10
376122.227
  20
4650858.531
  0
VERTEX
  8
Unknown_Area_Type
  10
377497.486
  20
4650834.434
  0
VERTEX
  8
Unknown_Area_Type
  10
379093.275
  20
4650807.250
  0
VERTEX
  8
Unknown_Area_Type
  10
379089.160
  20
4650458.206
  0
SEQEND
  8
Unknown_Area_Type
  0
INSERT
  8
FeatureAttribs
  2
FEATURE
  41
1
  42
1
  43
1
  50
0
  10
377610.811
  20
4651922.304
 66
1
  0
ATTRIB
  8
FeatureAttribs
 70
0
  1
PNOA-H_AMS_1956-57_33k_ES_PAN_2
  2
NAME
  10
377610.811
  20
4651922.304
 40
33.69289
  0
SEQEND
  0
POLYLINE
  8
Unknown_Area_Type
  70
1
  66
1
  0
VERTEX
  8
Unknown_Area_Type
  10
379093.275
  20
4650807.250
  0
VERTEX
  8
Unknown_Area_Type
  10
377497.486
  20
4650834.434
  0
VERTEX
  8
Unknown_Area_Type
  10
376122.227
  20
4650858.531
  0
VERTEX
  8
Unknown_Area_Type
  10
376153.000
  20
4652854.000
  0
VERTEX
  8
Unknown_Area_Type
  10
376153.500
  20
4652859.500
  0
VERTEX
  8
Unknown_Area_Type
  10
376155.000
  20
4652860.500
  0
VERTEX
  8
Unknown_Area_Type
  10
376464.000
  20
4652991.500
  0
VERTEX
  8
Unknown_Area_Type
  10
376465.500
  20
4652992.000
  0
VERTEX
  8
Unknown_Area_Type
  10
376846.000
  20
4653153.500
  0
VERTEX
  8
Unknown_Area_Type
  10
376855.500
  20
4653157.500
  0
VERTEX
  8
Unknown_Area_Type
  10
376858.000
  20
4653157.500
  0
VERTEX
  8
Unknown_Area_Type
  10
379117.500
  20
4652862.000
  0
VERTEX
  8
Unknown_Area_Type
  10
379093.275
  20
4650807.250
  0
SEQEND
  8
Unknown_Area_Type
  0
INSERT
  8
FeatureAttribs
  2
FEATURE
  41
1
  42
1
  43
1
  50
0
  10
377610.811
  20
4651922.304
 66
1
  0
ATTRIB
  8
FeatureAttribs
 70
0
  1
PNOA-H_AMS_1956-57_33k_ES_PAN_2
  2
NAME
  10
377610.811
  20
4651922.304
 40
33.69289
  0
SEQEND
  0
POLYLINE
  8
Unknown_Area_Type
  70
1
  66
1
  0
VERTEX
  8
Unknown_Area_Type
  10
379093.275
  20
4650807.250
  0
VERTEX
  8
Unknown_Area_Type
  10
379117.500
  20
4652862.000
  0
VERTEX
  8
Unknown_Area_Type
  10
376858.000
  20
4653157.500
  0
VERTEX
  8
Unknown_Area_Type
  10
376855.500
  20
4653157.500
  0
VERTEX
  8
Unknown_Area_Type
  10
376846.000
  20
4653153.500
  0
VERTEX
  8
Unknown_Area_Type
  10
376465.500
  20
4652992.000
  0
VERTEX
  8
Unknown_Area_Type
  10
376464.000
  20
4652991.500
  0
VERTEX
  8
Unknown_Area_Type
  10
376155.000
  20
4652860.500
  0
VERTEX
  8
Unknown_Area_Type
  10
376153.500
  20
4652859.500
  0
VERTEX
  8
Unknown_Area_Type
  10
376153.000
  20
4652854.000
  0
VERTEX
  8
Unknown_Area_Type
  10
376122.227
  20
4650858.531
  0
VERTEX
  8
Unknown_Area_Type
  10
377497.486
  20
4650834.434
  0
VERTEX
  8
Unknown_Area_Type
  10
379093.275
  20
4650807.250
  0
SEQEND
  8
Unknown_Area_Type
  0
INSERT
  8
FeatureAttribs
  2
FEATURE
  41
1
  42
1
  43
1
  50
0
  10
401790.337
  20
4651676.949
 66
1
  0
ATTRIB
  8
FeatureAttribs
 70
0
  1
PNOA-H_AMS_1956-57_33k_ES_PAN_2
  2
NAME
  10
401790.337
  20
4651676.949
 40
33.69289
  0
SEQEND
  0
POLYLINE
  8
Unknown_Area_Type
  70
1
  66
1
  0
VERTEX
  8
Unknown_Area_Type
  10
401910.443
  20
4652848.770
  0
VERTEX
  8
Unknown_Area_Type
  10
401910.443
  20
4650458.206
  0
VERTEX
  8
Unknown_Area_Type
  10
401654.715
  20
4650458.206
  0
VERTEX
  8
Unknown_Area_Type
  10
401653.325
  20
4650458.225
  0
VERTEX
  8
Unknown_Area_Type
  10
401685.415
  20
4652771.383
  0
VERTEX
  8
Unknown_Area_Type
  10
401687.141
  20
4652895.692
  0
VERTEX
  8
Unknown_Area_Type
  10
401910.443
  20
4652848.770
  0
SEQEND
  8
Unknown_Area_Type
  0
INSERT
  8
FeatureAttribs
  2
FEATURE
  41
1
  42
1
  43
1
  50
0
  10
400748.315
  20
4650466.735
 66
1
  0
ATTRIB
  8
FeatureAttribs
 70
0
  1
PNOA-H_AMS_1956-57_33k_ES_PAN_2
  2
NAME
  10
400748.315
  20
4650466.735
 40
33.69289
  0
SEQEND
  0
POLYLINE
  8
Unknown_Area_Type
  70
1
  66
1
  0
VERTEX
  8
Unknown_Area_Type
  10
400446.431
  20
4650458.206
  0
VERTEX
  8
Unknown_Area_Type
  10
400446.082
  20
4650475.264
  0
VERTEX
  8
Unknown_Area_Type
  10
401653.325
  20
4650458.225
  0
VERTEX
  8
Unknown_Area_Type
  10
401653.324
  20
4650458.206
  0
VERTEX
  8
Unknown_Area_Type
  10
400446.431
  20
4650458.206
  0
SEQEND
  8
Unknown_Area_Type
  0
INSERT
  8
FeatureAttribs
  2
FEATURE
  41
1
  42
1
  43
1
  50
0
  10
401653.672
  20
4650458.216
 66
1
  0
ATTRIB
  8
FeatureAttribs
 70
0
  1
PNOA-H_AMS_1956-57_33k_ES_PAN_2
  2
NAME
  10
401653.672
  20
4650458.216
 40
33.69289
  0
SEQEND
  0
POLYLINE
  8
Unknown_Area_Type
  70
1
  66
1
  0
VERTEX
  8
Unknown_Area_Type
  10
401653.325
  20
4650458.225
  0
VERTEX
  8
Unknown_Area_Type
  10
401654.715
  20
4650458.206
  0
VERTEX
  8
Unknown_Area_Type
  10
401653.324
  20
4650458.206
  0
VERTEX
  8
Unknown_Area_Type
  10
401653.325
  20
4650458.225
  0
SEQEND
  8
Unknown_Area_Type
  0
INSERT
  8
FeatureAttribs
  2
FEATURE
  41
1
  42
1
  43
1
  50
0
  10
401067.994
  20
4651642.016
 66
1
  0
ATTRIB
  8
FeatureAttribs
 70
0
  1
PNOA-H_AMS_1956-57_33k_ES_PAN_2
  2
NAME
  10
401067.994
  20
4651642.016
 40
33.69289
  0
SEQEND
  0
POLYLINE
  8
Unknown_Area_Type
  70
1
  66
1
  0
VERTEX
  8
Unknown_Area_Type
  10
401687.141
  20
4652895.692
  0
VERTEX
  8
Unknown_Area_Type
  10
401685.415
  20
4652771.383
  0
VERTEX
  8
Unknown_Area_Type
  10
401653.325
  20
4650458.225
  0
VERTEX
  8
Unknown_Area_Type
  10
400446.082
  20
4650475.264
  0
VERTEX
  8
Unknown_Area_Type
  10
400404.000
  20
4652528.500
  0
VERTEX
  8
Unknown_Area_Type
  10
401040.500
  20
4652805.000
  0
VERTEX
  8
Unknown_Area_Type
  10
401041.500
  20
4652805.500
  0
VERTEX
  8
Unknown_Area_Type
  10
401393.000
  20
4652957.500
  0
VERTEX
  8
Unknown_Area_Type
  10
401687.141
  20
4652895.692
  0
SEQEND
  8
Unknown_Area_Type
  0
INSERT
  8
FeatureAttribs
  2
FEATURE
  41
1
  42
1
  43
1
  50
0
  10
401067.994
  20
4651642.016
 66
1
  0
ATTRIB
  8
FeatureAttribs
 70
0
  1
PNOA-H_AMS_1956-57_33k_ES_PAN_2
  2
NAME
  10
401067.994
  20
4651642.016
 40
33.69289
  0
SEQEND
  0
POLYLINE
  8
Unknown_Area_Type
  70
1
  66
1
  0
VERTEX
  8
Unknown_Area_Type
  10
401687.141
  20
4652895.692
  0
VERTEX
  8
Unknown_Area_Type
  10
401393.000
  20
4652957.500
  0
VERTEX
  8
Unknown_Area_Type
  10
401041.500
  20
4652805.500
  0
VERTEX
  8
Unknown_Area_Type
  10
401040.500
  20
4652805.000
  0
VERTEX
  8
Unknown_Area_Type
  10
400404.000
  20
4652528.500
  0
VERTEX
  8
Unknown_Area_Type
  10
400446.082
  20
4650475.264
  0
VERTEX
  8
Unknown_Area_Type
  10
401653.325
  20
4650458.225
  0
VERTEX
  8
Unknown_Area_Type
  10
401685.415
  20
4652771.383
  0
VERTEX
  8
Unknown_Area_Type
  10
401687.141
  20
4652895.692
  0
SEQEND
  8
Unknown_Area_Type
  0
INSERT
  8
FeatureAttribs
  2
FEATURE
  41
1
  42
1
  43
1
  50
0
  10
374169.127
  20
4655540.354
 66
1
  0
ATTRIB
  8
FeatureAttribs
 70
0
  1
PNOA-H_AMS_1956-57_33k_ES_PAN_2
  2
NAME
  10
374169.127
  20
4655540.354
 40
33.69289
  0
SEQEND
  0
POLYLINE
  8
Unknown_Area_Type
  70
1
  66
1
  0
VERTEX
  8
Unknown_Area_Type
  10
374170.756
  20
4657877.840
  0
VERTEX
  8
Unknown_Area_Type
  10
374200.500
  20
4657863.500
  0
VERTEX
  8
Unknown_Area_Type
  10
374217.500
  20
4653253.500
  0
VERTEX
  8
Unknown_Area_Type
  10
374087.636
  20
4653202.869
  0
VERTEX
  8
Unknown_Area_Type
  10
374087.729
  20
4653208.091
  0
VERTEX
  8
Unknown_Area_Type
  10
374128.848
  20
4655521.291
  0
VERTEX
  8
Unknown_Area_Type
  10
374169.985
  20
4657834.498
  0
VERTEX
  8
Unknown_Area_Type
  10
374170.756
  20
4657877.840
  0
SEQEND
  8
Unknown_Area_Type
  0
INSERT
  8
FeatureAttribs
  2
FEATURE
  41
1
  42
1
  43
1
  50
0
  10
374169.127
  20
4655540.354
 66
1
  0
ATTRIB
  8
FeatureAttribs
 70
0
  1
PNOA-H_AMS_1956-57_33k_ES_PAN_2
  2
NAME
  10
374169.127
  20
4655540.354
 40
33.69289
  0
SEQEND
  0
POLYLINE
  8
Unknown_Area_Type
  70
1
  66
1
  0
VERTEX
  8
Unknown_Area_Type
  10
374170.756
  20
4657877.840
  0
VERTEX
  8
Unknown_Area_Type
  10
374200.500
  20
4657863.500
  0
VERTEX
  8
Unknown_Area_Type
  10
374217.500
  20
4653253.500
  0
VERTEX
  8
Unknown_Area_Type
  10
374087.636
  20
4653202.869
  0
VERTEX
  8
Unknown_Area_Type
  10
374087.729
  20
4653208.091
  0
VERTEX
  8
Unknown_Area_Type
  10
374128.848
  20
4655521.291
  0
VERTEX
  8
Unknown_Area_Type
  10
374169.985
  20
4657834.498
  0
VERTEX
  8
Unknown_Area_Type
  10
374170.756
  20
4657877.840
  0
SEQEND
  8
Unknown_Area_Type
  0
INSERT
  8
FeatureAttribs
  2
FEATURE
  41
1
  42
1
  43
1
  50
0
  10
374088.088
  20
4655562.283
 66
1
  0
ATTRIB
  8
FeatureAttribs
 70
0
  1
PNOA-H_AMS_1956-57_33k_ES_PAN_2
  2
NAME
  10
374088.088
  20
4655562.283
 40
33.69289
  0
SEQEND
  0
POLYLINE
  8
Unknown_Area_Type
  70
1
  66
1
  0
VERTEX
  8
Unknown_Area_Type
  10
374087.636
  20
4653202.869
  0
VERTEX
  8
Unknown_Area_Type
  10
374046.598
  20
4653186.869
  0
VERTEX
  8
Unknown_Area_Type
  10
374046.598
  20
4657937.697
  0
VERTEX
  8
Unknown_Area_Type
  10
374170.756
  20
4657877.840
  0
VERTEX
  8
Unknown_Area_Type
  10
374169.985
  20
4657834.498
  0
VERTEX
  8
Unknown_Area_Type
  10
374128.848
  20
4655521.291
  0
VERTEX
  8
Unknown_Area_Type
  10
374087.729
  20
4653208.091
  0
VERTEX
  8
Unknown_Area_Type
  10
374087.636
  20
4653202.869
  0
SEQEND
  8
Unknown_Area_Type
  0
INSERT
  8
FeatureAttribs
  2
FEATURE
  41
1
  42
1
  43
1
  50
0
  10
380920.799
  20
4655396.353
 66
1
  0
ATTRIB
  8
FeatureAttribs
 70
0
  1
PNOA-H_AMS_1956-57_33k_ES_PAN_2
  2
NAME
  10
380920.799
  20
4655396.353
 40
33.69289
  0
SEQEND
  0
POLYLINE
  8
Unknown_Area_Type
  70
1
  66
1
  0
VERTEX
  8
Unknown_Area_Type
  10
381619.000
  20
4657983.000
  0
VERTEX
  8
Unknown_Area_Type
  10
381625.000
  20
4657983.000
  0
VERTEX
  8
Unknown_Area_Type
  10
381630.500
  20
4657981.000
  0
VERTEX
  8
Unknown_Area_Type
  10
382296.000
  20
4657724.000
  0
VERTEX
  8
Unknown_Area_Type
  10
382249.000
  20
4652941.500
  0
VERTEX
  8
Unknown_Area_Type
  10
382248.500
  20
4652937.000
  0
VERTEX
  8
Unknown_Area_Type
  10
382132.000
  20
4652869.500
  0
VERTEX
  8
Unknown_Area_Type
  10
379468.500
  20
4653039.000
  0
VERTEX
  8
Unknown_Area_Type
  10
379625.500
  20
4657780.000
  0
VERTEX
  8
Unknown_Area_Type
  10
381614.000
  20
4657982.500
  0
VERTEX
  8
Unknown_Area_Type
  10
381619.000
  20
4657983.000
  0
SEQEND
  8
Unknown_Area_Type
  0
INSERT
  8
FeatureAttribs
  2
FEATURE
  41
1
  42
1
  43
1
  50
0
  10
380920.799
  20
4655396.353
 66
1
  0
ATTRIB
  8
FeatureAttribs
 70
0
  1
PNOA-H_AMS_1956-57_33k_ES_PAN_2
  2
NAME
  10
380920.799
  20
4655396.353
 40
33.69289
  0
SEQEND
  0
POLYLINE
  8
Unknown_Area_Type
  70
1
  66
1
  0
VERTEX
  8
Unknown_Area_Type
  10
381619.000
  20
4657983.000
  0
VERTEX
  8
Unknown_Area_Type
  10
381614.000
  20
4657982.500
  0
VERTEX
  8
Unknown_Area_Type
  10
379625.500
  20
4657780.000
  0
VERTEX
  8
Unknown_Area_Type
  10
379468.500
  20
4653039.000
  0
VERTEX
  8
Unknown_Area_Type
  10
382132.000
  20
4652869.500
  0
VERTEX
  8
Unknown_Area_Type
  10
382248.500
  20
4652937.000
  0
VERTEX
  8
Unknown_Area_Type
  10
382249.000
  20
4652941.500
  0
VERTEX
  8
Unknown_Area_Type
  10
382296.000
  20
4657724.000
  0
VERTEX
  8
Unknown_Area_Type
  10
381630.500
  20
4657981.000
  0
VERTEX
  8
Unknown_Area_Type
  10
381625.000
  20
4657983.000
  0
VERTEX
  8
Unknown_Area_Type
  10
381619.000
  20
4657983.000
  0
SEQEND
  8
Unknown_Area_Type
  0
INSERT
  8
FeatureAttribs
  2
FEATURE
  41
1
  42
1
  43
1
  50
0
  10
378240.702
  20
4655475.200
 66
1
  0
ATTRIB
  8
FeatureAttribs
 70
0
  1
PNOA-H_AMS_1956-57_33k_ES_PAN_2
  2
NAME
  10
378240.702
  20
4655475.200
 40
33.69289
  0
SEQEND
  0
POLYLINE
  8
Unknown_Area_Type
  70
1
  66
1
  0
VERTEX
  8
Unknown_Area_Type
  10
379022.000
  20
4658029.500
  0
VERTEX
  8
Unknown_Area_Type
  10
379027.500
  20
4658029.500
  0
VERTEX
  8
Unknown_Area_Type
  10
379032.500
  20
4658027.500
  0
VERTEX
  8
Unknown_Area_Type
  10
379625.500
  20
4657780.500
  0
VERTEX
  8
Unknown_Area_Type
  10
379468.500
  20
4653039.000
  0
VERTEX
  8
Unknown_Area_Type
  10
379118.500
  20
4652862.000
  0
VERTEX
  8
Unknown_Area_Type
  10
376856.500
  20
4653157.500
  0
VERTEX
  8
Unknown_Area_Type
  10
376951.500
  20
4657843.500
  0
VERTEX
  8
Unknown_Area_Type
  10
379016.500
  20
4658029.000
  0
VERTEX
  8
Unknown_Area_Type
  10
379022.000
  20
4658029.500
  0
SEQEND
  8
Unknown_Area_Type
  0
INSERT
  8
FeatureAttribs
  2
FEATURE
  41
1
  42
1
  43
1
  50
0
  10
378240.702
  20
4655475.200
 66
1
  0
ATTRIB
  8
FeatureAttribs
 70
0
  1
PNOA-H_AMS_1956-57_33k_ES_PAN_2
  2
NAME
  10
378240.702
  20
4655475.200
 40
33.69289
  0
SEQEND
  0
POLYLINE
  8
Unknown_Area_Type
  70
1
  66
1
  0
VERTEX
  8
Unknown_Area_Type
  10
379022.000
  20
4658029.500
  0
VERTEX
  8
Unknown_Area_Type
  10
379016.500
  20
4658029.000
  0
VERTEX
  8
Unknown_Area_Type
  10
376951.500
  20
4657843.500
  0
VERTEX
  8
Unknown_Area_Type
  10
376856.500
  20
4653157.500
  0
VERTEX
  8
Unknown_Area_Type
  10
379118.500
  20
4652862.000
  0
VERTEX
  8
Unknown_Area_Type
  10
379468.500
  20
4653039.000
  0
VERTEX
  8
Unknown_Area_Type
  10
379625.500
  20
4657780.500
  0
VERTEX
  8
Unknown_Area_Type
  10
379032.500
  20
4658027.500
  0
VERTEX
  8
Unknown_Area_Type
  10
379027.500
  20
4658029.500
  0
VERTEX
  8
Unknown_Area_Type
  10
379022.000
  20
4658029.500
  0
SEQEND
  8
Unknown_Area_Type
  0
INSERT
  8
FeatureAttribs
  2
FEATURE
  41
1
  42
1
  43
1
  50
0
  10
389070.964
  20
4655268.012
 66
1
  0
ATTRIB
  8
FeatureAttribs
 70
0
  1
PNOA-H_AMS_1956-57_33k_ES_PAN_2
  2
NAME
  10
389070.964
  20
4655268.012
 40
33.69289
  0
SEQEND
  0
POLYLINE
  8
Unknown_Area_Type
  70
1
  66
1
  0
VERTEX
  8
Unknown_Area_Type
  10
389216.500
  20
4657868.500
  0
VERTEX
  8
Unknown_Area_Type
  10
390501.000
  20
4657458.500
  0
VERTEX
  8
Unknown_Area_Type
  10
390417.000
  20
4652974.500
  0
VERTEX
  8
Unknown_Area_Type
  10
388170.500
  20
4652677.500
  0
VERTEX
  8
Unknown_Area_Type
  10
387703.000
  20
4652930.000
  0
VERTEX
  8
Unknown_Area_Type
  10
387713.500
  20
4657555.000
  0
VERTEX
  8
Unknown_Area_Type
  10
389214.000
  20
4657868.000
  0
VERTEX
  8
Unknown_Area_Type
  10
389216.500
  20
4657868.500
  0
SEQEND
  8
Unknown_Area_Type
  0
INSERT
  8
FeatureAttribs
  2
FEATURE
  41
1
  42
1
  43
1
  50
0
  10
389070.964
  20
4655268.012
 66
1
  0
ATTRIB
  8
FeatureAttribs
 70
0
  1
PNOA-H_AMS_1956-57_33k_ES_PAN_2
  2
NAME
  10
389070.964
  20
4655268.012
 40
33.69289
  0
SEQEND
  0
POLYLINE
  8
Unknown_Area_Type
  70
1
  66
1
  0
VERTEX
  8
Unknown_Area_Type
  10
389216.500
  20
4657868.500
  0
VERTEX
  8
Unknown_Area_Type
  10
389214.000
  20
4657868.000
  0
VERTEX
  8
Unknown_Area_Type
  10
387713.500
  20
4657555.000
  0
VERTEX
  8
Unknown_Area_Type
  10
387703.000
  20
4652930.000
  0
VERTEX
  8
Unknown_Area_Type
  10
388170.500
  20
4652677.500
  0
VERTEX
  8
Unknown_Area_Type
  10
390417.000
  20
4652974.500
  0
VERTEX
  8
Unknown_Area_Type
  10
390501.000
  20
4657458.500
  0
VERTEX
  8
Unknown_Area_Type
  10
389216.500
  20
4657868.500
  0
SEQEND
  8
Unknown_Area_Type
  0
INSERT
  8
FeatureAttribs
  2
FEATURE
  41
1
  42
1
  43
1
  50
0
  10
386345.986
  20
4655303.471
 66
1
  0
ATTRIB
  8
FeatureAttribs
 70
0
  1
PNOA-H_AMS_1956-57_33k_ES_PAN_2
  2
NAME
  10
386345.986
  20
4655303.471
 40
33.69289
  0
SEQEND
  0
POLYLINE
  8
Unknown_Area_Type
  70
1
  66
1
  0
VERTEX
  8
Unknown_Area_Type
  10
386706.000
  20
4657885.500
  0
VERTEX
  8
Unknown_Area_Type
  10
387713.500
  20
4657555.000
  0
VERTEX
  8
Unknown_Area_Type
  10
387703.000
  20
4652930.500
  0
VERTEX
  8
Unknown_Area_Type
  10
385123.000
  20
4652793.000
  0
VERTEX
  8
Unknown_Area_Type
  10
385111.500
  20
4652793.500
  0
VERTEX
  8
Unknown_Area_Type
  10
384945.500
  20
4652893.000
  0
VERTEX
  8
Unknown_Area_Type
  10
385058.000
  20
4657671.500
  0
VERTEX
  8
Unknown_Area_Type
  10
386560.500
  20
4657932.000
  0
VERTEX
  8
Unknown_Area_Type
  10
386571.000
  20
4657930.000
  0
VERTEX
  8
Unknown_Area_Type
  10
386705.000
  20
4657885.500
  0
VERTEX
  8
Unknown_Area_Type
  10
386706.000
  20
4657885.500
  0
SEQEND
  8
Unknown_Area_Type
  0
INSERT
  8
FeatureAttribs
  2
FEATURE
  41
1
  42
1
  43
1
  50
0
  10
386345.986
  20
4655303.471
 66
1
  0
ATTRIB
  8
FeatureAttribs
 70
0
  1
PNOA-H_AMS_1956-57_33k_ES_PAN_2
  2
NAME
  10
386345.986
  20
4655303.471
 40
33.69289
  0
SEQEND
  0
POLYLINE
  8
Unknown_Area_Type
  70
1
  66
1
  0
VERTEX
  8
Unknown_Area_Type
  10
386706.000
  20
4657885.500
  0
VERTEX
  8
Unknown_Area_Type
  10
386705.000
  20
4657885.500
  0
VERTEX
  8
Unknown_Area_Type
  10
386571.000
  20
4657930.000
  0
VERTEX
  8
Unknown_Area_Type
  10
386560.500
  20
4657932.000
  0
VERTEX
  8
Unknown_Area_Type
  10
385058.000
  20
4657671.500
  0
VERTEX
  8
Unknown_Area_Type
  10
384945.500
  20
4652893.000
  0
VERTEX
  8
Unknown_Area_Type
  10
385111.500
  20
4652793.500
  0
VERTEX
  8
Unknown_Area_Type
  10
385123.000
  20
4652793.000
  0
VERTEX
  8
Unknown_Area_Type
  10
387703.000
  20
4652930.500
  0
VERTEX
  8
Unknown_Area_Type
  10
387713.500
  20
4657555.000
  0
VERTEX
  8
Unknown_Area_Type
  10
386706.000
  20
4657885.500
  0
SEQEND
  8
Unknown_Area_Type
  0
INSERT
  8
FeatureAttribs
  2
FEATURE
  41
1
  42
1
  43
1
  50
0
  10
394597.396
  20
4655163.906
 66
1
  0
ATTRIB
  8
FeatureAttribs
 70
0
  1
PNOA-H_AMS_1956-57_33k_ES_PAN_2
  2
NAME
  10
394597.396
  20
4655163.906
 40
33.69289
  0
SEQEND
  0
POLYLINE
  8
Unknown_Area_Type
  70
1
  66
1
  0
VERTEX
  8
Unknown_Area_Type
  10
394898.000
  20
4657623.000
  0
VERTEX
  8
Unknown_Area_Type
  10
396034.500
  20
4657361.500
  0
VERTEX
  8
Unknown_Area_Type
  10
395936.000
  20
4653002.500
  0
VERTEX
  8
Unknown_Area_Type
  10
394272.000
  20
4652548.000
  0
VERTEX
  8
Unknown_Area_Type
  10
393189.000
  20
4652993.000
  0
VERTEX
  8
Unknown_Area_Type
  10
393267.000
  20
4657392.500
  0
VERTEX
  8
Unknown_Area_Type
  10
394384.000
  20
4657704.500
  0
VERTEX
  8
Unknown_Area_Type
  10
394526.500
  20
4657708.500
  0
VERTEX
  8
Unknown_Area_Type
  10
394896.500
  20
4657623.000
  0
VERTEX
  8
Unknown_Area_Type
  10
394898.000
  20
4657623.000
  0
SEQEND
  8
Unknown_Area_Type
  0
INSERT
  8
FeatureAttribs
  2
FEATURE
  41
1
  42
1
  43
1
  50
0
  10
394597.396
  20
4655163.906
 66
1
  0
ATTRIB
  8
FeatureAttribs
 70
0
  1
PNOA-H_AMS_1956-57_33k_ES_PAN_2
  2
NAME
  10
394597.396
  20
4655163.906
 40
33.69289
  0
SEQEND
  0
POLYLINE
  8
Unknown_Area_Type
  70
1
  66
1
  0
VERTEX
  8
Unknown_Area_Type
  10
394898.000
  20
4657623.000
  0
VERTEX
  8
Unknown_Area_Type
  10
394896.500
  20
4657623.000
  0
VERTEX
  8
Unknown_Area_Type
  10
394526.500
  20
4657708.500
  0
VERTEX
  8
Unknown_Area_Type
  10
394384.000
  20
4657704.500
  0
VERTEX
  8
Unknown_Area_Type
  10
393267.000
  20
4657392.500
  0
VERTEX
  8
Unknown_Area_Type
  10
393189.000
  20
4652993.000
  0
VERTEX
  8
Unknown_Area_Type
  10
394272.000
  20
4652548.000
  0
VERTEX
  8
Unknown_Area_Type
  10
395936.000
  20
4653002.500
  0
VERTEX
  8
Unknown_Area_Type
  10
396034.500
  20
4657361.500
  0
VERTEX
  8
Unknown_Area_Type
  10
394898.000
  20
4657623.000
  0
SEQEND
  8
Unknown_Area_Type
  0
INSERT
  8
FeatureAttribs
  2
FEATURE
  41
1
  42
1
  43
1
  50
0
  10
375572.252
  20
4655507.093
 66
1
  0
ATTRIB
  8
FeatureAttribs
 70
0
  1
PNOA-H_AMS_1956-57_33k_ES_PAN_2
  2
NAME
  10
375572.252
  20
4655507.093
 40
33.69289
  0
SEQEND
  0
POLYLINE
  8
Unknown_Area_Type
  70
1
  66
1
  0
VERTEX
  8
Unknown_Area_Type
  10
374404.000
  20
4657876.500
  0
VERTEX
  8
Unknown_Area_Type
  10
374412.000
  20
4657877.000
  0
VERTEX
  8
Unknown_Area_Type
  10
376548.500
  20
4658013.500
  0
VERTEX
  8
Unknown_Area_Type
  10
376951.500
  20
4657844.000
  0
VERTEX
  8
Unknown_Area_Type
  10
376856.500
  20
4653157.500
  0
VERTEX
  8
Unknown_Area_Type
  10
376154.000
  20
4652859.500
  0
VERTEX
  8
Unknown_Area_Type
  10
374217.500
  20
4653253.500
  0
VERTEX
  8
Unknown_Area_Type
  10
374200.500
  20
4657863.500
  0
VERTEX
  8
Unknown_Area_Type
  10
374404.000
  20
4657876.500
  0
SEQEND
  8
Unknown_Area_Type
  0
INSERT
  8
FeatureAttribs
  2
FEATURE
  41
1
  42
1
  43
1
  50
0
  10
375572.252
  20
4655507.093
 66
1
  0
ATTRIB
  8
FeatureAttribs
 70
0
  1
PNOA-H_AMS_1956-57_33k_ES_PAN_2
  2
NAME
  10
375572.252
  20
4655507.093
 40
33.69289
  0
SEQEND
  0
POLYLINE
  8
Unknown_Area_Type
  70
1
  66
1
  0
VERTEX
  8
Unknown_Area_Type
  10
374404.000
  20
4657876.500
  0
VERTEX
  8
Unknown_Area_Type
  10
374200.500
  20
4657863.500
  0
VERTEX
  8
Unknown_Area_Type
  10
374217.500
  20
4653253.500
  0
VERTEX
  8
Unknown_Area_Type
  10
376154.000
  20
4652859.500
  0
VERTEX
  8
Unknown_Area_Type
  10
376856.500
  20
4653157.500
  0
VERTEX
  8
Unknown_Area_Type
  10
376951.500
  20
4657844.000
  0
VERTEX
  8
Unknown_Area_Type
  10
376548.500
  20
4658013.500
  0
VERTEX
  8
Unknown_Area_Type
  10
374412.000
  20
4657877.000
  0
VERTEX
  8
Unknown_Area_Type
  10
374404.000
  20
4657876.500
  0
SEQEND
  8
Unknown_Area_Type
  0
INSERT
  8
FeatureAttribs
  2
FEATURE
  41
1
  42
1
  43
1
  50
0
  10
397345.062
  20
4655122.495
 66
1
  0
ATTRIB
  8
FeatureAttribs
 70
0
  1
PNOA-H_AMS_1956-57_33k_ES_PAN_2
  2
NAME
  10
397345.062
  20
4655122.495
 40
33.69289
  0
SEQEND
  0
POLYLINE
  8
Unknown_Area_Type
  70
1
  66
1
  0
VERTEX
  8
Unknown_Area_Type
  10
396963.500
  20
4657654.500
  0
VERTEX
  8
Unknown_Area_Type
  10
398782.000
  20
4657281.000
  0
VERTEX
  8
Unknown_Area_Type
  10
398658.500
  20
4652986.500
  0
VERTEX
  8
Unknown_Area_Type
  10
397378.000
  20
4652521.500
  0
VERTEX
  8
Unknown_Area_Type
  10
397371.000
  20
4652520.000
  0
VERTEX
  8
Unknown_Area_Type
  10
397317.000
  20
4652538.000
  0
VERTEX
  8
Unknown_Area_Type
  10
395936.000
  20
4653002.500
  0
VERTEX
  8
Unknown_Area_Type
  10
396034.500
  20
4657361.500
  0
VERTEX
  8
Unknown_Area_Type
  10
396962.000
  20
4657654.000
  0
VERTEX
  8
Unknown_Area_Type
  10
396963.500
  20
4657654.500
  0
SEQEND
  8
Unknown_Area_Type
  0
INSERT
  8
FeatureAttribs
  2
FEATURE
  41
1
  42
1
  43
1
  50
0
  10
397345.062
  20
4655122.495
 66
1
  0
ATTRIB
  8
FeatureAttribs
 70
0
  1
PNOA-H_AMS_1956-57_33k_ES_PAN_2
  2
NAME
  10
397345.062
  20
4655122.495
 40
33.69289
  0
SEQEND
  0
POLYLINE
  8
Unknown_Area_Type
  70
1
  66
1
  0
VERTEX
  8
Unknown_Area_Type
  10
396963.500
  20
4657654.500
  0
VERTEX
  8
Unknown_Area_Type
  10
396962.000
  20
4657654.000
  0
VERTEX
  8
Unknown_Area_Type
  10
396034.500
  20
4657361.500
  0
VERTEX
  8
Unknown_Area_Type
  10
395936.000
  20
4653002.500
  0
VERTEX
  8
Unknown_Area_Type
  10
397317.000
  20
4652538.000
  0
VERTEX
  8
Unknown_Area_Type
  10
397371.000
  20
4652520.000
  0
VERTEX
  8
Unknown_Area_Type
  10
397378.000
  20
4652521.500
  0
VERTEX
  8
Unknown_Area_Type
  10
398658.500
  20
4652986.500
  0
VERTEX
  8
Unknown_Area_Type
  10
398782.000
  20
4657281.000
  0
VERTEX
  8
Unknown_Area_Type
  10
396963.500
  20
4657654.500
  0
SEQEND
  8
Unknown_Area_Type
  0
INSERT
  8
FeatureAttribs
  2
FEATURE
  41
1
  42
1
  43
1
  50
0
  10
383642.549
  20
4655392.295
 66
1
  0
ATTRIB
  8
FeatureAttribs
 70
0
  1
PNOA-H_AMS_1956-57_33k_ES_PAN_2
  2
NAME
  10
383642.549
  20
4655392.295
 40
33.69289
  0
SEQEND
  0
POLYLINE
  8
Unknown_Area_Type
  70
1
  66
1
  0
VERTEX
  8
Unknown_Area_Type
  10
382608.000
  20
4657769.500
  0
VERTEX
  8
Unknown_Area_Type
  10
384117.500
  20
4657989.000
  0
VERTEX
  8
Unknown_Area_Type
  10
385058.000
  20
4657671.500
  0
VERTEX
  8
Unknown_Area_Type
  10
384945.500
  20
4652893.500
  0
VERTEX
  8
Unknown_Area_Type
  10
382248.500
  20
4652937.500
  0
VERTEX
  8
Unknown_Area_Type
  10
382296.000
  20
4657724.000
  0
VERTEX
  8
Unknown_Area_Type
  10
382604.500
  20
4657769.000
  0
VERTEX
  8
Unknown_Area_Type
  10
382608.000
  20
4657769.500
  0
SEQEND
  8
Unknown_Area_Type
  0
INSERT
  8
FeatureAttribs
  2
FEATURE
  41
1
  42
1
  43
1
  50
0
  10
383642.549
  20
4655392.295
 66
1
  0
ATTRIB
  8
FeatureAttribs
 70
0
  1
PNOA-H_AMS_1956-57_33k_ES_PAN_2
  2
NAME
  10
383642.549
  20
4655392.295
 40
33.69289
  0
SEQEND
  0
POLYLINE
  8
Unknown_Area_Type
  70
1
  66
1
  0
VERTEX
  8
Unknown_Area_Type
  10
382608.000
  20
4657769.500
  0
VERTEX
  8
Unknown_Area_Type
  10
382604.500
  20
4657769.000
  0
VERTEX
  8
Unknown_Area_Type
  10
382296.000
  20
4657724.000
  0
VERTEX
  8
Unknown_Area_Type
  10
382248.500
  20
4652937.500
  0
VERTEX
  8
Unknown_Area_Type
  10
384945.500
  20
4652893.500
  0
VERTEX
  8
Unknown_Area_Type
  10
385058.000
  20
4657671.500
  0
VERTEX
  8
Unknown_Area_Type
  10
384117.500
  20
4657989.000
  0
VERTEX
  8
Unknown_Area_Type
  10
382608.000
  20
4657769.500
  0
SEQEND
  8
Unknown_Area_Type
  0
INSERT
  8
FeatureAttribs
  2
FEATURE
  41
1
  42
1
  43
1
  50
0
  10
401813.887
  20
4655071.056
 66
1
  0
ATTRIB
  8
FeatureAttribs
 70
0
  1
PNOA-H_AMS_1956-57_33k_ES_PAN_2
  2
NAME
  10
401813.887
  20
4655071.056
 40
33.69289
  0
SEQEND
  0
POLYLINE
  8
Unknown_Area_Type
  70
1
  66
1
  0
VERTEX
  8
Unknown_Area_Type
  10
401910.443
  20
4652848.616
  0
VERTEX
  8
Unknown_Area_Type
  10
401687.138
  20
4652895.515
  0
VERTEX
  8
Unknown_Area_Type
  10
401717.519
  20
4655084.549
  0
VERTEX
  8
Unknown_Area_Type
  10
401747.456
  20
4657240.765
  0
VERTEX
  8
Unknown_Area_Type
  10
401910.443
  20
4657293.496
  0
VERTEX
  8
Unknown_Area_Type
  10
401910.443
  20
4652848.616
  0
SEQEND
  8
Unknown_Area_Type
  0
INSERT
  8
FeatureAttribs
  2
FEATURE
  41
1
  42
1
  43
1
  50
0
  10
401585.423
  20
4654967.319
 66
1
  0
ATTRIB
  8
FeatureAttribs
 70
0
  1
PNOA-H_AMS_1956-57_33k_ES_PAN_2
  2
NAME
  10
401585.423
  20
4654967.319
 40
33.69289
  0
SEQEND
  0
POLYLINE
  8
Unknown_Area_Type
  70
1
  66
1
  0
VERTEX
  8
Unknown_Area_Type
  10
401687.138
  20
4652895.515
  0
VERTEX
  8
Unknown_Area_Type
  10
401392.000
  20
4652957.500
  0
VERTEX
  8
Unknown_Area_Type
  10
401521.000
  20
4657167.500
  0
VERTEX
  8
Unknown_Area_Type
  10
401747.456
  20
4657240.765
  0
VERTEX
  8
Unknown_Area_Type
  10
401717.519
  20
4655084.549
  0
VERTEX
  8
Unknown_Area_Type
  10
401687.138
  20
4652895.515
  0
SEQEND
  8
Unknown_Area_Type
  0
INSERT
  8
FeatureAttribs
  2
FEATURE
  41
1
  42
1
  43
1
  50
0
  10
401585.423
  20
4654967.319
 66
1
  0
ATTRIB
  8
FeatureAttribs
 70
0
  1
PNOA-H_AMS_1956-57_33k_ES_PAN_2
  2
NAME
  10
401585.423
  20
4654967.319
 40
33.69289
  0
SEQEND
  0
POLYLINE
  8
Unknown_Area_Type
  70
1
  66
1
  0
VERTEX
  8
Unknown_Area_Type
  10
401687.138
  20
4652895.515
  0
VERTEX
  8
Unknown_Area_Type
  10
401717.519
  20
4655084.549
  0
VERTEX
  8
Unknown_Area_Type
  10
401747.456
  20
4657240.765
  0
VERTEX
  8
Unknown_Area_Type
  10
401521.000
  20
4657167.500
  0
VERTEX
  8
Unknown_Area_Type
  10
401392.000
  20
4652957.500
  0
VERTEX
  8
Unknown_Area_Type
  10
401687.138
  20
4652895.515
  0
SEQEND
  8
Unknown_Area_Type
  0
INSERT
  8
FeatureAttribs
  2
FEATURE
  41
1
  42
1
  43
1
  50
0
  10
391831.628
  20
4655196.208
 66
1
  0
ATTRIB
  8
FeatureAttribs
 70
0
  1
PNOA-H_AMS_1956-57_33k_ES_PAN_2
  2
NAME
  10
391831.628
  20
4655196.208
 40
33.69289
  0
SEQEND
  0
POLYLINE
  8
Unknown_Area_Type
  70
1
  66
1
  0
VERTEX
  8
Unknown_Area_Type
  10
390801.000
  20
4657528.500
  0
VERTEX
  8
Unknown_Area_Type
  10
391654.500
  20
4657726.500
  0
VERTEX
  8
Unknown_Area_Type
  10
392062.000
  20
4657729.000
  0
VERTEX
  8
Unknown_Area_Type
  10
393267.000
  20
4657393.000
  0
VERTEX
  8
Unknown_Area_Type
  10
393189.000
  20
4652993.000
  0
VERTEX
  8
Unknown_Area_Type
  10
391217.500
  20
4652604.000
  0
VERTEX
  8
Unknown_Area_Type
  10
391215.500
  20
4652604.000
  0
VERTEX
  8
Unknown_Area_Type
  10
391197.000
  20
4652612.500
  0
VERTEX
  8
Unknown_Area_Type
  10
390417.000
  20
4652974.500
  0
VERTEX
  8
Unknown_Area_Type
  10
390501.000
  20
4657458.500
  0
VERTEX
  8
Unknown_Area_Type
  10
390799.000
  20
4657528.000
  0
VERTEX
  8
Unknown_Area_Type
  10
390801.000
  20
4657528.500
  0
SEQEND
  8
Unknown_Area_Type
  0
INSERT
  8
FeatureAttribs
  2
FEATURE
  41
1
  42
1
  43
1
  50
0
  10
391831.628
  20
4655196.208
 66
1
  0
ATTRIB
  8
FeatureAttribs
 70
0
  1
PNOA-H_AMS_1956-57_33k_ES_PAN_2
  2
NAME
  10
391831.628
  20
4655196.208
 40
33.69289
  0
SEQEND
  0
POLYLINE
  8
Unknown_Area_Type
  70
1
  66
1
  0
VERTEX
  8
Unknown_Area_Type
  10
390801.000
  20
4657528.500
  0
VERTEX
  8
Unknown_Area_Type
  10
390799.000
  20
4657528.000
  0
VERTEX
  8
Unknown_Area_Type
  10
390501.000
  20
4657458.500
  0
VERTEX
  8
Unknown_Area_Type
  10
390417.000
  20
4652974.500
  0
VERTEX
  8
Unknown_Area_Type
  10
391197.000
  20
4652612.500
  0
VERTEX
  8
Unknown_Area_Type
  10
391215.500
  20
4652604.000
  0
VERTEX
  8
Unknown_Area_Type
  10
391217.500
  20
4652604.000
  0
VERTEX
  8
Unknown_Area_Type
  10
393189.000
  20
4652993.000
  0
VERTEX
  8
Unknown_Area_Type
  10
393267.000
  20
4657393.000
  0
VERTEX
  8
Unknown_Area_Type
  10
392062.000
  20
4657729.000
  0
VERTEX
  8
Unknown_Area_Type
  10
391654.500
  20
4657726.500
  0
VERTEX
  8
Unknown_Area_Type
  10
390801.000
  20
4657528.500
  0
SEQEND
  8
Unknown_Area_Type
  0
INSERT
  8
FeatureAttribs
  2
FEATURE
  41
1
  42
1
  43
1
  50
0
  10
400083.760
  20
4655076.205
 66
1
  0
ATTRIB
  8
FeatureAttribs
 70
0
  1
PNOA-H_AMS_1956-57_33k_ES_PAN_2
  2
NAME
  10
400083.760
  20
4655076.205
 40
33.69289
  0
SEQEND
  0
POLYLINE
  8
Unknown_Area_Type
  70
1
  66
1
  0
VERTEX
  8
Unknown_Area_Type
  10
398782.000
  20
4657281.500
  0
VERTEX
  8
Unknown_Area_Type
  10
398991.000
  20
4657353.500
  0
VERTEX
  8
Unknown_Area_Type
  10
398992.500
  20
4657354.000
  0
VERTEX
  8
Unknown_Area_Type
  10
399684.500
  20
4657592.000
  0
VERTEX
  8
Unknown_Area_Type
  10
401521.000
  20
4657167.500
  0
VERTEX
  8
Unknown_Area_Type
  10
401392.000
  20
4652957.500
  0
VERTEX
  8
Unknown_Area_Type
  10
400404.500
  20
4652528.500
  0
VERTEX
  8
Unknown_Area_Type
  10
398658.500
  20
4652986.500
  0
VERTEX
  8
Unknown_Area_Type
  10
398782.000
  20
4657281.500
  0
SEQEND
  8
Unknown_Area_Type
  0
INSERT
  8
FeatureAttribs
  2
FEATURE
  41
1
  42
1
  43
1
  50
0
  10
400083.760
  20
4655076.205
 66
1
  0
ATTRIB
  8
FeatureAttribs
 70
0
  1
PNOA-H_AMS_1956-57_33k_ES_PAN_2
  2
NAME
  10
400083.760
  20
4655076.205
 40
33.69289
  0
SEQEND
  0
POLYLINE
  8
Unknown_Area_Type
  70
1
  66
1
  0
VERTEX
  8
Unknown_Area_Type
  10
398782.000
  20
4657281.500
  0
VERTEX
  8
Unknown_Area_Type
  10
398658.500
  20
4652986.500
  0
VERTEX
  8
Unknown_Area_Type
  10
400404.500
  20
4652528.500
  0
VERTEX
  8
Unknown_Area_Type
  10
401392.000
  20
4652957.500
  0
VERTEX
  8
Unknown_Area_Type
  10
401521.000
  20
4657167.500
  0
VERTEX
  8
Unknown_Area_Type
  10
399684.500
  20
4657592.000
  0
VERTEX
  8
Unknown_Area_Type
  10
398992.500
  20
4657354.000
  0
VERTEX
  8
Unknown_Area_Type
  10
398991.000
  20
4657353.500
  0
VERTEX
  8
Unknown_Area_Type
  10
398782.000
  20
4657281.500
  0
SEQEND
  8
Unknown_Area_Type
  0
INSERT
  8
FeatureAttribs
  2
FEATURE
  41
1
  42
1
  43
1
  50
0
  10
395516.194
  20
4663356.320
 66
1
  0
ATTRIB
  8
FeatureAttribs
 70
0
  1
PNOA-H_AMS_1956-57_33k_ES_PAN_2
  2
NAME
  10
395516.194
  20
4663356.320
 40
33.69289
  0
SEQEND
  0
POLYLINE
  8
Unknown_Area_Type
  70
1
  66
1
  0
VERTEX
  8
Unknown_Area_Type
  10
396422.000
  20
4664928.500
  0
VERTEX
  8
Unknown_Area_Type
  10
396424.500
  20
4664927.500
  0
VERTEX
  8
Unknown_Area_Type
  10
396864.000
  20
4663848.000
  0
VERTEX
  8
Unknown_Area_Type
  10
396861.000
  20
4662468.000
  0
VERTEX
  8
Unknown_Area_Type
  10
396077.500
  20
4662078.500
  0
VERTEX
  8
Unknown_Area_Type
  10
395554.500
  20
4662034.500
  0
VERTEX
  8
Unknown_Area_Type
  10
394053.500
  20
4662421.000
  0
VERTEX
  8
Unknown_Area_Type
  10
394046.500
  20
4664061.500
  0
VERTEX
  8
Unknown_Area_Type
  10
396420.500
  20
4664928.000
  0
VERTEX
  8
Unknown_Area_Type
  10
396422.000
  20
4664928.500
  0
SEQEND
  8
Unknown_Area_Type
  0
INSERT
  8
FeatureAttribs
  2
FEATURE
  41
1
  42
1
  43
1
  50
0
  10
395516.194
  20
4663356.320
 66
1
  0
ATTRIB
  8
FeatureAttribs
 70
0
  1
PNOA-H_AMS_1956-57_33k_ES_PAN_2
  2
NAME
  10
395516.194
  20
4663356.320
 40
33.69289
  0
SEQEND
  0
POLYLINE
  8
Unknown_Area_Type
  70
1
  66
1
  0
VERTEX
  8
Unknown_Area_Type
  10
396422.000
  20
4664928.500
  0
VERTEX
  8
Unknown_Area_Type
  10
396420.500
  20
4664928.000
  0
VERTEX
  8
Unknown_Area_Type
  10
394046.500
  20
4664061.500
  0
VERTEX
  8
Unknown_Area_Type
  10
394053.500
  20
4662421.000
  0
VERTEX
  8
Unknown_Area_Type
  10
395554.500
  20
4662034.500
  0
VERTEX
  8
Unknown_Area_Type
  10
396077.500
  20
4662078.500
  0
VERTEX
  8
Unknown_Area_Type
  10
396861.000
  20
4662468.000
  0
VERTEX
  8
Unknown_Area_Type
  10
396864.000
  20
4663848.000
  0
VERTEX
  8
Unknown_Area_Type
  10
396424.500
  20
4664927.500
  0
VERTEX
  8
Unknown_Area_Type
  10
396422.000
  20
4664928.500
  0
SEQEND
  8
Unknown_Area_Type
  0
INSERT
  8
FeatureAttribs
  2
FEATURE
  41
1
  42
1
  43
1
  50
0
  10
376135.331
  20
4664366.131
 66
1
  0
ATTRIB
  8
FeatureAttribs
 70
0
  1
PNOA-H_AMS_1956-57_33k_ES_PAN_2
  2
NAME
  10
376135.331
  20
4664366.131
 40
33.69289
  0
SEQEND
  0
POLYLINE
  8
Unknown_Area_Type
  70
1
  66
1
  0
VERTEX
  8
Unknown_Area_Type
  10
374790.000
  20
4666351.000
  0
VERTEX
  8
Unknown_Area_Type
  10
374790.500
  20
4666352.500
  0
VERTEX
  8
Unknown_Area_Type
  10
374796.500
  20
4666353.000
  0
VERTEX
  8
Unknown_Area_Type
  10
377195.500
  20
4666491.000
  0
VERTEX
  8
Unknown_Area_Type
  10
377204.000
  20
4666491.500
  0
VERTEX
  8
Unknown_Area_Type
  10
377207.000
  20
4666491.500
  0
VERTEX
  8
Unknown_Area_Type
  10
377212.500
  20
4666488.500
  0
VERTEX
  8
Unknown_Area_Type
  10
377575.500
  20
4666285.000
  0
VERTEX
  8
Unknown_Area_Type
  10
377483.500
  20
4662568.500
  0
VERTEX
  8
Unknown_Area_Type
  10
376483.000
  20
4662111.500
  0
VERTEX
  8
Unknown_Area_Type
  10
376473.000
  20
4662113.000
  0
VERTEX
  8
Unknown_Area_Type
  10
374661.500
  20
4662528.500
  0
VERTEX
  8
Unknown_Area_Type
  10
374790.000
  20
4666351.000
  0
SEQEND
  8
Unknown_Area_Type
  0
INSERT
  8
FeatureAttribs
  2
FEATURE
  41
1
  42
1
  43
1
  50
0
  10
376135.331
  20
4664366.131
 66
1
  0
ATTRIB
  8
FeatureAttribs
 70
0
  1
PNOA-H_AMS_1956-57_33k_ES_PAN_2
  2
NAME
  10
376135.331
  20
4664366.131
 40
33.69289
  0
SEQEND
  0
POLYLINE
  8
Unknown_Area_Type
  70
1
  66
1
  0
VERTEX
  8
Unknown_Area_Type
  10
374790.000
  20
4666351.000
  0
VERTEX
  8
Unknown_Area_Type
  10
374661.500
  20
4662528.500
  0
VERTEX
  8
Unknown_Area_Type
  10
376473.000
  20
4662113.000
  0
VERTEX
  8
Unknown_Area_Type
  10
376483.000
  20
4662111.500
  0
VERTEX
  8
Unknown_Area_Type
  10
377483.500
  20
4662568.500
  0
VERTEX
  8
Unknown_Area_Type
  10
377575.500
  20
4666285.000
  0
VERTEX
  8
Unknown_Area_Type
  10
377212.500
  20
4666488.500
  0
VERTEX
  8
Unknown_Area_Type
  10
377207.000
  20
4666491.500
  0
VERTEX
  8
Unknown_Area_Type
  10
377204.000
  20
4666491.500
  0
VERTEX
  8
Unknown_Area_Type
  10
377195.500
  20
4666491.000
  0
VERTEX
  8
Unknown_Area_Type
  10
374796.500
  20
4666353.000
  0
VERTEX
  8
Unknown_Area_Type
  10
374790.500
  20
4666352.500
  0
VERTEX
  8
Unknown_Area_Type
  10
374790.000
  20
4666351.000
  0
SEQEND
  8
Unknown_Area_Type
  0
INSERT
  8
FeatureAttribs
  2
FEATURE
  41
1
  42
1
  43
1
  50
0
  10
378936.939
  20
4664308.585
 66
1
  0
ATTRIB
  8
FeatureAttribs
 70
0
  1
PNOA-H_AMS_1956-57_33k_ES_PAN_2
  2
NAME
  10
378936.939
  20
4664308.585
 40
33.69289
  0
SEQEND
  0
POLYLINE
  8
Unknown_Area_Type
  70
1
  66
1
  0
VERTEX
  8
Unknown_Area_Type
  10
379907.500
  20
4666424.500
  0
VERTEX
  8
Unknown_Area_Type
  10
379914.500
  20
4666422.000
  0
VERTEX
  8
Unknown_Area_Type
  10
380333.500
  20
4666210.000
  0
VERTEX
  8
Unknown_Area_Type
  10
380326.500
  20
4662539.500
  0
VERTEX
  8
Unknown_Area_Type
  10
379060.000
  20
4662035.500
  0
VERTEX
  8
Unknown_Area_Type
  10
377483.000
  20
4662568.000
  0
VERTEX
  8
Unknown_Area_Type
  10
377575.500
  20
4666285.000
  0
VERTEX
  8
Unknown_Area_Type
  10
379899.000
  20
4666424.000
  0
VERTEX
  8
Unknown_Area_Type
  10
379907.500
  20
4666424.500
  0
SEQEND
  8
Unknown_Area_Type
  0
INSERT
  8
FeatureAttribs
  2
FEATURE
  41
1
  42
1
  43
1
  50
0
  10
378936.939
  20
4664308.585
 66
1
  0
ATTRIB
  8
FeatureAttribs
 70
0
  1
PNOA-H_AMS_1956-57_33k_ES_PAN_2
  2
NAME
  10
378936.939
  20
4664308.585
 40
33.69289
  0
SEQEND
  0
POLYLINE
  8
Unknown_Area_Type
  70
1
  66
1
  0
VERTEX
  8
Unknown_Area_Type
  10
379907.500
  20
4666424.500
  0
VERTEX
  8
Unknown_Area_Type
  10
379899.000
  20
4666424.000
  0
VERTEX
  8
Unknown_Area_Type
  10
377575.500
  20
4666285.000
  0
VERTEX
  8
Unknown_Area_Type
  10
377483.000
  20
4662568.000
  0
VERTEX
  8
Unknown_Area_Type
  10
379060.000
  20
4662035.500
  0
VERTEX
  8
Unknown_Area_Type
  10
380326.500
  20
4662539.500
  0
VERTEX
  8
Unknown_Area_Type
  10
380333.500
  20
4666210.000
  0
VERTEX
  8
Unknown_Area_Type
  10
379914.500
  20
4666422.000
  0
VERTEX
  8
Unknown_Area_Type
  10
379907.500
  20
4666424.500
  0
SEQEND
  8
Unknown_Area_Type
  0
INSERT
  8
FeatureAttribs
  2
FEATURE
  41
1
  42
1
  43
1
  50
0
  10
387180.971
  20
4664281.006
 66
1
  0
ATTRIB
  8
FeatureAttribs
 70
0
  1
PNOA-H_AMS_1956-57_33k_ES_PAN_2
  2
NAME
  10
387180.971
  20
4664281.006
 40
33.69289
  0
SEQEND
  0
POLYLINE
  8
Unknown_Area_Type
  70
1
  66
1
  0
VERTEX
  8
Unknown_Area_Type
  10
388063.500
  20
4666480.500
  0
VERTEX
  8
Unknown_Area_Type
  10
388565.000
  20
4666230.000
  0
VERTEX
  8
Unknown_Area_Type
  10
388544.500
  20
4662382.500
  0
VERTEX
  8
Unknown_Area_Type
  10
386820.000
  20
4661976.000
  0
VERTEX
  8
Unknown_Area_Type
  10
385791.000
  20
4662469.000
  0
VERTEX
  8
Unknown_Area_Type
  10
385802.500
  20
4666259.000
  0
VERTEX
  8
Unknown_Area_Type
  10
388058.000
  20
4666480.000
  0
VERTEX
  8
Unknown_Area_Type
  10
388063.500
  20
4666480.500
  0
SEQEND
  8
Unknown_Area_Type
  0
INSERT
  8
FeatureAttribs
  2
FEATURE
  41
1
  42
1
  43
1
  50
0
  10
387180.971
  20
4664281.006
 66
1
  0
ATTRIB
  8
FeatureAttribs
 70
0
  1
PNOA-H_AMS_1956-57_33k_ES_PAN_2
  2
NAME
  10
387180.971
  20
4664281.006
 40
33.69289
  0
SEQEND
  0
POLYLINE
  8
Unknown_Area_Type
  70
1
  66
1
  0
VERTEX
  8
Unknown_Area_Type
  10
388063.500
  20
4666480.500
  0
VERTEX
  8
Unknown_Area_Type
  10
388058.000
  20
4666480.000
  0
VERTEX
  8
Unknown_Area_Type
  10
385802.500
  20
4666259.000
  0
VERTEX
  8
Unknown_Area_Type
  10
385791.000
  20
4662469.000
  0
VERTEX
  8
Unknown_Area_Type
  10
386820.000
  20
4661976.000
  0
VERTEX
  8
Unknown_Area_Type
  10
388544.500
  20
4662382.500
  0
VERTEX
  8
Unknown_Area_Type
  10
388565.000
  20
4666230.000
  0
VERTEX
  8
Unknown_Area_Type
  10
388063.500
  20
4666480.500
  0
SEQEND
  8
Unknown_Area_Type
  0
INSERT
  8
FeatureAttribs
  2
FEATURE
  41
1
  42
1
  43
1
  50
0
  10
384451.919
  20
4664303.838
 66
1
  0
ATTRIB
  8
FeatureAttribs
 70
0
  1
PNOA-H_AMS_1956-57_33k_ES_PAN_2
  2
NAME
  10
384451.919
  20
4664303.838
 40
33.69289
  0
SEQEND
  0
POLYLINE
  8
Unknown_Area_Type
  70
1
  66
1
  0
VERTEX
  8
Unknown_Area_Type
  10
385367.500
  20
4666463.500
  0
VERTEX
  8
Unknown_Area_Type
  10
385373.000
  20
4666462.500
  0
VERTEX
  8
Unknown_Area_Type
  10
385802.500
  20
4666259.000
  0
VERTEX
  8
Unknown_Area_Type
  10
385791.000
  20
4662469.000
  0
VERTEX
  8
Unknown_Area_Type
  10
384188.000
  20
4662037.000
  0
VERTEX
  8
Unknown_Area_Type
  10
383086.500
  20
4662523.500
  0
VERTEX
  8
Unknown_Area_Type
  10
383095.500
  20
4666222.500
  0
VERTEX
  8
Unknown_Area_Type
  10
385362.500
  20
4666463.000
  0
VERTEX
  8
Unknown_Area_Type
  10
385367.500
  20
4666463.500
  0
SEQEND
  8
Unknown_Area_Type
  0
INSERT
  8
FeatureAttribs
  2
FEATURE
  41
1
  42
1
  43
1
  50
0
  10
384451.919
  20
4664303.838
 66
1
  0
ATTRIB
  8
FeatureAttribs
 70
0
  1
PNOA-H_AMS_1956-57_33k_ES_PAN_2
  2
NAME
  10
384451.919
  20
4664303.838
 40
33.69289
  0
SEQEND
  0
POLYLINE
  8
Unknown_Area_Type
  70
1
  66
1
  0
VERTEX
  8
Unknown_Area_Type
  10
385367.500
  20
4666463.500
  0
VERTEX
  8
Unknown_Area_Type
  10
385362.500
  20
4666463.000
  0
VERTEX
  8
Unknown_Area_Type
  10
383095.500
  20
4666222.500
  0
VERTEX
  8
Unknown_Area_Type
  10
383086.500
  20
4662523.500
  0
VERTEX
  8
Unknown_Area_Type
  10
384188.000
  20
4662037.000
  0
VERTEX
  8
Unknown_Area_Type
  10
385791.000
  20
4662469.000
  0
VERTEX
  8
Unknown_Area_Type
  10
385802.500
  20
4666259.000
  0
VERTEX
  8
Unknown_Area_Type
  10
385373.000
  20
4666462.500
  0
VERTEX
  8
Unknown_Area_Type
  10
385367.500
  20
4666463.500
  0
SEQEND
  8
Unknown_Area_Type
  0
INSERT
  8
FeatureAttribs
  2
FEATURE
  41
1
  42
1
  43
1
  50
0
  10
374166.474
  20
4664372.978
 66
1
  0
ATTRIB
  8
FeatureAttribs
 70
0
  1
PNOA-H_AMS_1956-57_33k_ES_PAN_2
  2
NAME
  10
374166.474
  20
4664372.978
 40
33.69289
  0
SEQEND
  0
POLYLINE
  8
Unknown_Area_Type
  70
1
  66
1
  0
VERTEX
  8
Unknown_Area_Type
  10
374249.690
  20
4662313.871
  0
VERTEX
  8
Unknown_Area_Type
  10
374046.598
  20
4662208.023
  0
VERTEX
  8
Unknown_Area_Type
  10
374046.598
  20
4666526.385
  0
VERTEX
  8
Unknown_Area_Type
  10
374324.910
  20
4666537.934
  0
VERTEX
  8
Unknown_Area_Type
  10
374293.494
  20
4664774.167
  0
VERTEX
  8
Unknown_Area_Type
  10
374252.307
  20
4662460.937
  0
VERTEX
  8
Unknown_Area_Type
  10
374249.690
  20
4662313.871
  0
SEQEND
  8
Unknown_Area_Type
  0
INSERT
  8
FeatureAttribs
  2
FEATURE
  41
1
  42
1
  43
1
  50
0
  10
374504.352
  20
4664496.033
 66
1
  0
ATTRIB
  8
FeatureAttribs
 70
0
  1
PNOA-H_AMS_1956-57_33k_ES_PAN_2
  2
NAME
  10
374504.352
  20
4664496.033
 40
33.69289
  0
SEQEND
  0
POLYLINE
  8
Unknown_Area_Type
  70
1
  66
1
  0
VERTEX
  8
Unknown_Area_Type
  10
374324.910
  20
4666537.934
  0
VERTEX
  8
Unknown_Area_Type
  10
374447.000
  20
4666543.000
  0
VERTEX
  8
Unknown_Area_Type
  10
374790.500
  20
4666352.500
  0
VERTEX
  8
Unknown_Area_Type
  10
374661.500
  20
4662528.500
  0
VERTEX
  8
Unknown_Area_Type
  10
374249.690
  20
4662313.871
  0
VERTEX
  8
Unknown_Area_Type
  10
374252.307
  20
4662460.937
  0
VERTEX
  8
Unknown_Area_Type
  10
374293.494
  20
4664774.167
  0
VERTEX
  8
Unknown_Area_Type
  10
374324.910
  20
4666537.934
  0
SEQEND
  8
Unknown_Area_Type
  0
INSERT
  8
FeatureAttribs
  2
FEATURE
  41
1
  42
1
  43
1
  50
0
  10
374504.352
  20
4664496.033
 66
1
  0
ATTRIB
  8
FeatureAttribs
 70
0
  1
PNOA-H_AMS_1956-57_33k_ES_PAN_2
  2
NAME
  10
374504.352
  20
4664496.033
 40
33.69289
  0
SEQEND
  0
POLYLINE
  8
Unknown_Area_Type
  70
1
  66
1
  0
VERTEX
  8
Unknown_Area_Type
  10
374324.910
  20
4666537.934
  0
VERTEX
  8
Unknown_Area_Type
  10
374293.494
  20
4664774.167
  0
VERTEX
  8
Unknown_Area_Type
  10
374252.307
  20
4662460.937
  0
VERTEX
  8
Unknown_Area_Type
  10
374249.690
  20
4662313.871
  0
VERTEX
  8
Unknown_Area_Type
  10
374661.500
  20
4662528.500
  0
VERTEX
  8
Unknown_Area_Type
  10
374790.500
  20
4666352.500
  0
VERTEX
  8
Unknown_Area_Type
  10
374447.000
  20
4666543.000
  0
VERTEX
  8
Unknown_Area_Type
  10
374324.910
  20
4666537.934
  0
SEQEND
  8
Unknown_Area_Type
  0
INSERT
  8
FeatureAttribs
  2
FEATURE
  41
1
  42
1
  43
1
  50
0
  10
398438.414
  20
4663345.360
 66
1
  0
ATTRIB
  8
FeatureAttribs
 70
0
  1
PNOA-H_AMS_1956-57_33k_ES_PAN_2
  2
NAME
  10
398438.414
  20
4663345.360
 40
33.69289
  0
SEQEND
  0
POLYLINE
  8
Unknown_Area_Type
  70
1
  66
1
  0
VERTEX
  8
Unknown_Area_Type
  10
396945.000
  20
4663892.500
  0
VERTEX
  8
Unknown_Area_Type
  10
399113.500
  20
4665112.000
  0
VERTEX
  8
Unknown_Area_Type
  10
400176.000
  20
4662667.500
  0
VERTEX
  8
Unknown_Area_Type
  10
398705.500
  20
4661986.000
  0
VERTEX
  8
Unknown_Area_Type
  10
398517.500
  20
4661984.000
  0
VERTEX
  8
Unknown_Area_Type
  10
396861.500
  20
4662468.000
  0
VERTEX
  8
Unknown_Area_Type
  10
396864.000
  20
4663847.000
  0
VERTEX
  8
Unknown_Area_Type
  10
396944.000
  20
4663892.000
  0
VERTEX
  8
Unknown_Area_Type
  10
396945.000
  20
4663892.500
  0
SEQEND
  8
Unknown_Area_Type
  0
INSERT
  8
FeatureAttribs
  2
FEATURE
  41
1
  42
1
  43
1
  50
0
  10
398438.414
  20
4663345.360
 66
1
  0
ATTRIB
  8
FeatureAttribs
 70
0
  1
PNOA-H_AMS_1956-57_33k_ES_PAN_2
  2
NAME
  10
398438.414
  20
4663345.360
 40
33.69289
  0
SEQEND
  0
POLYLINE
  8
Unknown_Area_Type
  70
1
  66
1
  0
VERTEX
  8
Unknown_Area_Type
  10
396945.000
  20
4663892.500
  0
VERTEX
  8
Unknown_Area_Type
  10
396944.000
  20
4663892.000
  0
VERTEX
  8
Unknown_Area_Type
  10
396864.000
  20
4663847.000
  0
VERTEX
  8
Unknown_Area_Type
  10
396861.500
  20
4662468.000
  0
VERTEX
  8
Unknown_Area_Type
  10
398517.500
  20
4661984.000
  0
VERTEX
  8
Unknown_Area_Type
  10
398705.500
  20
4661986.000
  0
VERTEX
  8
Unknown_Area_Type
  10
400176.000
  20
4662667.500
  0
VERTEX
  8
Unknown_Area_Type
  10
399113.500
  20
4665112.000
  0
VERTEX
  8
Unknown_Area_Type
  10
396945.000
  20
4663892.500
  0
SEQEND
  8
Unknown_Area_Type
  0
INSERT
  8
FeatureAttribs
  2
FEATURE
  41
1
  42
1
  43
1
  50
0
  10
381718.852
  20
4664305.144
 66
1
  0
ATTRIB
  8
FeatureAttribs
 70
0
  1
PNOA-H_AMS_1956-57_33k_ES_PAN_2
  2
NAME
  10
381718.852
  20
4664305.144
 40
33.69289
  0
SEQEND
  0
POLYLINE
  8
Unknown_Area_Type
  70
1
  66
1
  0
VERTEX
  8
Unknown_Area_Type
  10
380559.000
  20
4666233.500
  0
VERTEX
  8
Unknown_Area_Type
  10
382634.500
  20
4666447.000
  0
VERTEX
  8
Unknown_Area_Type
  10
383095.500
  20
4666222.500
  0
VERTEX
  8
Unknown_Area_Type
  10
383086.500
  20
4662523.500
  0
VERTEX
  8
Unknown_Area_Type
  10
381622.500
  20
4662037.000
  0
VERTEX
  8
Unknown_Area_Type
  10
380326.500
  20
4662539.500
  0
VERTEX
  8
Unknown_Area_Type
  10
380333.500
  20
4666210.000
  0
VERTEX
  8
Unknown_Area_Type
  10
380554.000
  20
4666233.000
  0
VERTEX
  8
Unknown_Area_Type
  10
380559.000
  20
4666233.500
  0
SEQEND
  8
Unknown_Area_Type
  0
INSERT
  8
FeatureAttribs
  2
FEATURE
  41
1
  42
1
  43
1
  50
0
  10
381718.852
  20
4664305.144
 66
1
  0
ATTRIB
  8
FeatureAttribs
 70
0
  1
PNOA-H_AMS_1956-57_33k_ES_PAN_2
  2
NAME
  10
381718.852
  20
4664305.144
 40
33.69289
  0
SEQEND
  0
POLYLINE
  8
Unknown_Area_Type
  70
1
  66
1
  0
VERTEX
  8
Unknown_Area_Type
  10
380559.000
  20
4666233.500
  0
VERTEX
  8
Unknown_Area_Type
  10
380554.000
  20
4666233.000
  0
VERTEX
  8
Unknown_Area_Type
  10
380333.500
  20
4666210.000
  0
VERTEX
  8
Unknown_Area_Type
  10
380326.500
  20
4662539.500
  0
VERTEX
  8
Unknown_Area_Type
  10
381622.500
  20
4662037.000
  0
VERTEX
  8
Unknown_Area_Type
  10
383086.500
  20
4662523.500
  0
VERTEX
  8
Unknown_Area_Type
  10
383095.500
  20
4666222.500
  0
VERTEX
  8
Unknown_Area_Type
  10
382634.500
  20
4666447.000
  0
VERTEX
  8
Unknown_Area_Type
  10
380559.000
  20
4666233.500
  0
SEQEND
  8
Unknown_Area_Type
  0
INSERT
  8
FeatureAttribs
  2
FEATURE
  41
1
  42
1
  43
1
  50
0
  10
392587.883
  20
4664140.769
 66
1
  0
ATTRIB
  8
FeatureAttribs
 70
0
  1
PNOA-H_AMS_1956-57_33k_ES_PAN_2
  2
NAME
  10
392587.883
  20
4664140.769
 40
33.69289
  0
SEQEND
  0
POLYLINE
  8
Unknown_Area_Type
  70
1
  66
1
  0
VERTEX
  8
Unknown_Area_Type
  10
393112.000
  20
4666419.000
  0
VERTEX
  8
Unknown_Area_Type
  10
393118.000
  20
4666419.000
  0
VERTEX
  8
Unknown_Area_Type
  10
394046.500
  20
4664062.500
  0
VERTEX
  8
Unknown_Area_Type
  10
394053.500
  20
4662421.000
  0
VERTEX
  8
Unknown_Area_Type
  10
393439.500
  20
4662119.000
  0
VERTEX
  8
Unknown_Area_Type
  10
392845.000
  20
4662036.000
  0
VERTEX
  8
Unknown_Area_Type
  10
391331.000
  20
4662391.500
  0
VERTEX
  8
Unknown_Area_Type
  10
391309.500
  20
4666270.500
  0
VERTEX
  8
Unknown_Area_Type
  10
393106.000
  20
4666418.500
  0
VERTEX
  8
Unknown_Area_Type
  10
393112.000
  20
4666419.000
  0
SEQEND
  8
Unknown_Area_Type
  0
INSERT
  8
FeatureAttribs
  2
FEATURE
  41
1
  42
1
  43
1
  50
0
  10
392587.883
  20
4664140.769
 66
1
  0
ATTRIB
  8
FeatureAttribs
 70
0
  1
PNOA-H_AMS_1956-57_33k_ES_PAN_2
  2
NAME
  10
392587.883
  20
4664140.769
 40
33.69289
  0
SEQEND
  0
POLYLINE
  8
Unknown_Area_Type
  70
1
  66
1
  0
VERTEX
  8
Unknown_Area_Type
  10
393112.000
  20
4666419.000
  0
VERTEX
  8
Unknown_Area_Type
  10
393106.000
  20
4666418.500
  0
VERTEX
  8
Unknown_Area_Type
  10
391309.500
  20
4666270.500
  0
VERTEX
  8
Unknown_Area_Type
  10
391331.000
  20
4662391.500
  0
VERTEX
  8
Unknown_Area_Type
  10
392845.000
  20
4662036.000
  0
VERTEX
  8
Unknown_Area_Type
  10
393439.500
  20
4662119.000
  0
VERTEX
  8
Unknown_Area_Type
  10
394053.500
  20
4662421.000
  0
VERTEX
  8
Unknown_Area_Type
  10
394046.500
  20
4664062.500
  0
VERTEX
  8
Unknown_Area_Type
  10
393118.000
  20
4666419.000
  0
VERTEX
  8
Unknown_Area_Type
  10
393112.000
  20
4666419.000
  0
SEQEND
  8
Unknown_Area_Type
  0
INSERT
  8
FeatureAttribs
  2
FEATURE
  41
1
  42
1
  43
1
  50
0
  10
389942.902
  20
4664229.343
 66
1
  0
ATTRIB
  8
FeatureAttribs
 70
0
  1
PNOA-H_AMS_1956-57_33k_ES_PAN_2
  2
NAME
  10
389942.902
  20
4664229.343
 40
33.69289
  0
SEQEND
  0
POLYLINE
  8
Unknown_Area_Type
  70
1
  66
1
  0
VERTEX
  8
Unknown_Area_Type
  10
388751.000
  20
4666250.000
  0
VERTEX
  8
Unknown_Area_Type
  10
390890.000
  20
4666476.500
  0
VERTEX
  8
Unknown_Area_Type
  10
391309.500
  20
4666270.500
  0
VERTEX
  8
Unknown_Area_Type
  10
391331.000
  20
4662391.500
  0
VERTEX
  8
Unknown_Area_Type
  10
390914.000
  20
4662183.000
  0
VERTEX
  8
Unknown_Area_Type
  10
389431.500
  20
4661916.000
  0
VERTEX
  8
Unknown_Area_Type
  10
389422.500
  20
4661919.500
  0
VERTEX
  8
Unknown_Area_Type
  10
388544.500
  20
4662382.500
  0
VERTEX
  8
Unknown_Area_Type
  10
388565.000
  20
4666230.000
  0
VERTEX
  8
Unknown_Area_Type
  10
388746.500
  20
4666249.500
  0
VERTEX
  8
Unknown_Area_Type
  10
388751.000
  20
4666250.000
  0
SEQEND
  8
Unknown_Area_Type
  0
INSERT
  8
FeatureAttribs
  2
FEATURE
  41
1
  42
1
  43
1
  50
0
  10
389942.902
  20
4664229.343
 66
1
  0
ATTRIB
  8
FeatureAttribs
 70
0
  1
PNOA-H_AMS_1956-57_33k_ES_PAN_2
  2
NAME
  10
389942.902
  20
4664229.343
 40
33.69289
  0
SEQEND
  0
POLYLINE
  8
Unknown_Area_Type
  70
1
  66
1
  0
VERTEX
  8
Unknown_Area_Type
  10
388751.000
  20
4666250.000
  0
VERTEX
  8
Unknown_Area_Type
  10
388746.500
  20
4666249.500
  0
VERTEX
  8
Unknown_Area_Type
  10
388565.000
  20
4666230.000
  0
VERTEX
  8
Unknown_Area_Type
  10
388544.500
  20
4662382.500
  0
VERTEX
  8
Unknown_Area_Type
  10
389422.500
  20
4661919.500
  0
VERTEX
  8
Unknown_Area_Type
  10
389431.500
  20
4661916.000
  0
VERTEX
  8
Unknown_Area_Type
  10
390914.000
  20
4662183.000
  0
VERTEX
  8
Unknown_Area_Type
  10
391331.000
  20
4662391.500
  0
VERTEX
  8
Unknown_Area_Type
  10
391309.500
  20
4666270.500
  0
VERTEX
  8
Unknown_Area_Type
  10
390890.000
  20
4666476.500
  0
VERTEX
  8
Unknown_Area_Type
  10
388751.000
  20
4666250.000
  0
SEQEND
  8
Unknown_Area_Type
  0
INSERT
  8
FeatureAttribs
  2
FEATURE
  41
1
  42
1
  43
1
  50
0
  10
395808.339
  20
4659294.527
 66
1
  0
ATTRIB
  8
FeatureAttribs
 70
0
  1
PNOA-H_AMS_1956-57_33k_ES_PAN_2
  2
NAME
  10
395808.339
  20
4659294.527
 40
33.69289
  0
SEQEND
  0
POLYLINE
  8
Unknown_Area_Type
  70
1
  66
1
  0
VERTEX
  8
Unknown_Area_Type
  10
396901.000
  20
4658440.000
  0
VERTEX
  8
Unknown_Area_Type
  10
396981.500
  20
4658085.000
  0
VERTEX
  8
Unknown_Area_Type
  10
396964.000
  20
4657654.500
  0
VERTEX
  8
Unknown_Area_Type
  10
396035.000
  20
4657361.500
  0
VERTEX
  8
Unknown_Area_Type
  10
394526.500
  20
4657708.000
  0
VERTEX
  8
Unknown_Area_Type
  10
395555.000
  20
4662034.500
  0
VERTEX
  8
Unknown_Area_Type
  10
396077.500
  20
4662078.500
  0
VERTEX
  8
Unknown_Area_Type
  10
396900.500
  20
4658443.000
  0
VERTEX
  8
Unknown_Area_Type
  10
396901.000
  20
4658440.000
  0
SEQEND
  8
Unknown_Area_Type
  0
INSERT
  8
FeatureAttribs
  2
FEATURE
  41
1
  42
1
  43
1
  50
0
  10
395808.339
  20
4659294.527
 66
1
  0
ATTRIB
  8
FeatureAttribs
 70
0
  1
PNOA-H_AMS_1956-57_33k_ES_PAN_2
  2
NAME
  10
395808.339
  20
4659294.527
 40
33.69289
  0
SEQEND
  0
POLYLINE
  8
Unknown_Area_Type
  70
1
  66
1
  0
VERTEX
  8
Unknown_Area_Type
  10
396901.000
  20
4658440.000
  0
VERTEX
  8
Unknown_Area_Type
  10
396900.500
  20
4658443.000
  0
VERTEX
  8
Unknown_Area_Type
  10
396077.500
  20
4662078.500
  0
VERTEX
  8
Unknown_Area_Type
  10
395555.000
  20
4662034.500
  0
VERTEX
  8
Unknown_Area_Type
  10
394526.500
  20
4657708.000
  0
VERTEX
  8
Unknown_Area_Type
  10
396035.000
  20
4657361.500
  0
VERTEX
  8
Unknown_Area_Type
  10
396964.000
  20
4657654.500
  0
VERTEX
  8
Unknown_Area_Type
  10
396981.500
  20
4658085.000
  0
VERTEX
  8
Unknown_Area_Type
  10
396901.000
  20
4658440.000
  0
SEQEND
  8
Unknown_Area_Type
  0
INSERT
  8
FeatureAttribs
  2
FEATURE
  41
1
  42
1
  43
1
  50
0
  10
398431.361
  20
4659074.928
 66
1
  0
ATTRIB
  8
FeatureAttribs
 70
0
  1
PNOA-H_AMS_1956-57_33k_ES_PAN_2
  2
NAME
  10
398431.361
  20
4659074.928
 40
33.69289
  0
SEQEND
  0
POLYLINE
  8
Unknown_Area_Type
  70
1
  66
1
  0
VERTEX
  8
Unknown_Area_Type
  10
398994.000
  20
4660873.500
  0
VERTEX
  8
Unknown_Area_Type
  10
399707.000
  20
4658119.000
  0
VERTEX
  8
Unknown_Area_Type
  10
399684.000
  20
4657592.000
  0
VERTEX
  8
Unknown_Area_Type
  10
398781.500
  20
4657281.000
  0
VERTEX
  8
Unknown_Area_Type
  10
396964.000
  20
4657654.500
  0
VERTEX
  8
Unknown_Area_Type
  10
396982.000
  20
4658085.000
  0
VERTEX
  8
Unknown_Area_Type
  10
398519.000
  20
4661984.000
  0
VERTEX
  8
Unknown_Area_Type
  10
398705.500
  20
4661986.500
  0
VERTEX
  8
Unknown_Area_Type
  10
398707.000
  20
4661985.500
  0
VERTEX
  8
Unknown_Area_Type
  10
398994.000
  20
4660875.500
  0
VERTEX
  8
Unknown_Area_Type
  10
398994.000
  20
4660873.500
  0
SEQEND
  8
Unknown_Area_Type
  0
INSERT
  8
FeatureAttribs
  2
FEATURE
  41
1
  42
1
  43
1
  50
0
  10
398431.361
  20
4659074.928
 66
1
  0
ATTRIB
  8
FeatureAttribs
 70
0
  1
PNOA-H_AMS_1956-57_33k_ES_PAN_2
  2
NAME
  10
398431.361
  20
4659074.928
 40
33.69289
  0
SEQEND
  0
POLYLINE
  8
Unknown_Area_Type
  70
1
  66
1
  0
VERTEX
  8
Unknown_Area_Type
  10
398994.000
  20
4660873.500
  0
VERTEX
  8
Unknown_Area_Type
  10
398994.000
  20
4660875.500
  0
VERTEX
  8
Unknown_Area_Type
  10
398707.000
  20
4661985.500
  0
VERTEX
  8
Unknown_Area_Type
  10
398705.500
  20
4661986.500
  0
VERTEX
  8
Unknown_Area_Type
  10
398519.000
  20
4661984.000
  0
VERTEX
  8
Unknown_Area_Type
  10
396982.000
  20
4658085.000
  0
VERTEX
  8
Unknown_Area_Type
  10
396964.000
  20
4657654.500
  0
VERTEX
  8
Unknown_Area_Type
  10
398781.500
  20
4657281.000
  0
VERTEX
  8
Unknown_Area_Type
  10
399684.000
  20
4657592.000
  0
VERTEX
  8
Unknown_Area_Type
  10
399707.000
  20
4658119.000
  0
VERTEX
  8
Unknown_Area_Type
  10
398994.000
  20
4660873.500
  0
SEQEND
  8
Unknown_Area_Type
  0
INSERT
  8
FeatureAttribs
  2
FEATURE
  41
1
  42
1
  43
1
  50
0
  10
393196.814
  20
4659363.938
 66
1
  0
ATTRIB
  8
FeatureAttribs
 70
0
  1
PNOA-H_AMS_1956-57_33k_ES_PAN_2
  2
NAME
  10
393196.814
  20
4659363.938
 40
33.69289
  0
SEQEND
  0
POLYLINE
  8
Unknown_Area_Type
  70
1
  66
1
  0
VERTEX
  8
Unknown_Area_Type
  10
393437.000
  20
4662119.000
  0
VERTEX
  8
Unknown_Area_Type
  10
393439.500
  20
4662119.000
  0
VERTEX
  8
Unknown_Area_Type
  10
394384.500
  20
4657704.500
  0
VERTEX
  8
Unknown_Area_Type
  10
393267.500
  20
4657392.500
  0
VERTEX
  8
Unknown_Area_Type
  10
392062.000
  20
4657728.500
  0
VERTEX
  8
Unknown_Area_Type
  10
392062.000
  20
4657731.000
  0
VERTEX
  8
Unknown_Area_Type
  10
392844.000
  20
4662035.000
  0
VERTEX
  8
Unknown_Area_Type
  10
392845.000
  20
4662036.500
  0
VERTEX
  8
Unknown_Area_Type
  10
392859.000
  20
4662038.500
  0
VERTEX
  8
Unknown_Area_Type
  10
393433.500
  20
4662118.500
  0
VERTEX
  8
Unknown_Area_Type
  10
393437.000
  20
4662119.000
  0
SEQEND
  8
Unknown_Area_Type
  0
INSERT
  8
FeatureAttribs
  2
FEATURE
  41
1
  42
1
  43
1
  50
0
  10
393196.814
  20
4659363.938
 66
1
  0
ATTRIB
  8
FeatureAttribs
 70
0
  1
PNOA-H_AMS_1956-57_33k_ES_PAN_2
  2
NAME
  10
393196.814
  20
4659363.938
 40
33.69289
  0
SEQEND
  0
POLYLINE
  8
Unknown_Area_Type
  70
1
  66
1
  0
VERTEX
  8
Unknown_Area_Type
  10
393437.000
  20
4662119.000
  0
VERTEX
  8
Unknown_Area_Type
  10
393433.500
  20
4662118.500
  0
VERTEX
  8
Unknown_Area_Type
  10
392859.000
  20
4662038.500
  0
VERTEX
  8
Unknown_Area_Type
  10
392845.000
  20
4662036.500
  0
VERTEX
  8
Unknown_Area_Type
  10
392844.000
  20
4662035.000
  0
VERTEX
  8
Unknown_Area_Type
  10
392062.000
  20
4657731.000
  0
VERTEX
  8
Unknown_Area_Type
  10
392062.000
  20
4657728.500
  0
VERTEX
  8
Unknown_Area_Type
  10
393267.500
  20
4657392.500
  0
VERTEX
  8
Unknown_Area_Type
  10
394384.500
  20
4657704.500
  0
VERTEX
  8
Unknown_Area_Type
  10
393439.500
  20
4662119.000
  0
VERTEX
  8
Unknown_Area_Type
  10
393437.000
  20
4662119.000
  0
SEQEND
  8
Unknown_Area_Type
  0
INSERT
  8
FeatureAttribs
  2
FEATURE
  41
1
  42
1
  43
1
  50
0
  10
390337.191
  20
4659659.962
 66
1
  0
ATTRIB
  8
FeatureAttribs
 70
0
  1
PNOA-H_AMS_1956-57_33k_ES_PAN_2
  2
NAME
  10
390337.191
  20
4659659.962
 40
33.69289
  0
SEQEND
  0
POLYLINE
  8
Unknown_Area_Type
  70
1
  66
1
  0
VERTEX
  8
Unknown_Area_Type
  10
390911.500
  20
4662183.000
  0
VERTEX
  8
Unknown_Area_Type
  10
390914.000
  20
4662183.000
  0
VERTEX
  8
Unknown_Area_Type
  10
391655.500
  20
4657726.500
  0
VERTEX
  8
Unknown_Area_Type
  10
390504.000
  20
4657459.000
  0
VERTEX
  8
Unknown_Area_Type
  10
390500.500
  20
4657458.500
  0
VERTEX
  8
Unknown_Area_Type
  10
390491.000
  20
4657461.500
  0
VERTEX
  8
Unknown_Area_Type
  10
389217.000
  20
4657868.000
  0
VERTEX
  8
Unknown_Area_Type
  10
389429.500
  20
4661913.000
  0
VERTEX
  8
Unknown_Area_Type
  10
389430.000
  20
4661916.000
  0
VERTEX
  8
Unknown_Area_Type
  10
389431.500
  20
4661916.500
  0
VERTEX
  8
Unknown_Area_Type
  10
390909.000
  20
4662182.500
  0
VERTEX
  8
Unknown_Area_Type
  10
390911.500
  20
4662183.000
  0
SEQEND
  8
Unknown_Area_Type
  0
INSERT
  8
FeatureAttribs
  2
FEATURE
  41
1
  42
1
  43
1
  50
0
  10
390337.191
  20
4659659.962
 66
1
  0
ATTRIB
  8
FeatureAttribs
 70
0
  1
PNOA-H_AMS_1956-57_33k_ES_PAN_2
  2
NAME
  10
390337.191
  20
4659659.962
 40
33.69289
  0
SEQEND
  0
POLYLINE
  8
Unknown_Area_Type
  70
1
  66
1
  0
VERTEX
  8
Unknown_Area_Type
  10
390911.500
  20
4662183.000
  0
VERTEX
  8
Unknown_Area_Type
  10
390909.000
  20
4662182.500
  0
VERTEX
  8
Unknown_Area_Type
  10
389431.500
  20
4661916.500
  0
VERTEX
  8
Unknown_Area_Type
  10
389430.000
  20
4661916.000
  0
VERTEX
  8
Unknown_Area_Type
  10
389429.500
  20
4661913.000
  0
VERTEX
  8
Unknown_Area_Type
  10
389217.000
  20
4657868.000
  0
VERTEX
  8
Unknown_Area_Type
  10
390491.000
  20
4657461.500
  0
VERTEX
  8
Unknown_Area_Type
  10
390500.500
  20
4657458.500
  0
VERTEX
  8
Unknown_Area_Type
  10
390504.000
  20
4657459.000
  0
VERTEX
  8
Unknown_Area_Type
  10
391655.500
  20
4657726.500
  0
VERTEX
  8
Unknown_Area_Type
  10
390914.000
  20
4662183.000
  0
VERTEX
  8
Unknown_Area_Type
  10
390911.500
  20
4662183.000
  0
SEQEND
  8
Unknown_Area_Type
  0
INSERT
  8
FeatureAttribs
  2
FEATURE
  41
1
  42
1
  43
1
  50
0
  10
377763.361
  20
4660143.385
 66
1
  0
ATTRIB
  8
FeatureAttribs
 70
0
  1
PNOA-H_AMS_1956-57_33k_ES_PAN_2
  2
NAME
  10
377763.361
  20
4660143.385
 40
33.69289
  0
SEQEND
  0
POLYLINE
  8
Unknown_Area_Type
  70
1
  66
1
  0
VERTEX
  8
Unknown_Area_Type
  10
379030.000
  20
4658440.000
  0
VERTEX
  8
Unknown_Area_Type
  10
379026.500
  20
4658029.500
  0
VERTEX
  8
Unknown_Area_Type
  10
376954.000
  20
4657843.500
  0
VERTEX
  8
Unknown_Area_Type
  10
376947.500
  20
4657845.000
  0
VERTEX
  8
Unknown_Area_Type
  10
376548.500
  20
4658013.000
  0
VERTEX
  8
Unknown_Area_Type
  10
376482.000
  20
4662096.500
  0
VERTEX
  8
Unknown_Area_Type
  10
376482.000
  20
4662111.500
  0
VERTEX
  8
Unknown_Area_Type
  10
376484.000
  20
4662112.500
  0
VERTEX
  8
Unknown_Area_Type
  10
377469.000
  20
4662562.000
  0
VERTEX
  8
Unknown_Area_Type
  10
377484.500
  20
4662568.000
  0
VERTEX
  8
Unknown_Area_Type
  10
379059.000
  20
4662035.500
  0
VERTEX
  8
Unknown_Area_Type
  10
379030.000
  20
4658484.500
  0
VERTEX
  8
Unknown_Area_Type
  10
379030.000
  20
4658440.000
  0
SEQEND
  8
Unknown_Area_Type
  0
INSERT
  8
FeatureAttribs
  2
FEATURE
  41
1
  42
1
  43
1
  50
0
  10
377763.361
  20
4660143.385
 66
1
  0
ATTRIB
  8
FeatureAttribs
 70
0
  1
PNOA-H_AMS_1956-57_33k_ES_PAN_2
  2
NAME
  10
377763.361
  20
4660143.385
 40
33.69289
  0
SEQEND
  0
POLYLINE
  8
Unknown_Area_Type
  70
1
  66
1
  0
VERTEX
  8
Unknown_Area_Type
  10
379030.000
  20
4658440.000
  0
VERTEX
  8
Unknown_Area_Type
  10
379030.000
  20
4658484.500
  0
VERTEX
  8
Unknown_Area_Type
  10
379059.000
  20
4662035.500
  0
VERTEX
  8
Unknown_Area_Type
  10
377484.500
  20
4662568.000
  0
VERTEX
  8
Unknown_Area_Type
  10
377469.000
  20
4662562.000
  0
VERTEX
  8
Unknown_Area_Type
  10
376484.000
  20
4662112.500
  0
VERTEX
  8
Unknown_Area_Type
  10
376482.000
  20
4662111.500
  0
VERTEX
  8
Unknown_Area_Type
  10
376482.000
  20
4662096.500
  0
VERTEX
  8
Unknown_Area_Type
  10
376548.500
  20
4658013.000
  0
VERTEX
  8
Unknown_Area_Type
  10
376947.500
  20
4657845.000
  0
VERTEX
  8
Unknown_Area_Type
  10
376954.000
  20
4657843.500
  0
VERTEX
  8
Unknown_Area_Type
  10
379026.500
  20
4658029.500
  0
VERTEX
  8
Unknown_Area_Type
  10
379030.000
  20
4658440.000
  0
SEQEND
  8
Unknown_Area_Type
  0
INSERT
  8
FeatureAttribs
  2
FEATURE
  41
1
  42
1
  43
1
  50
0
  10
380328.801
  20
4660084.242
 66
1
  0
ATTRIB
  8
FeatureAttribs
 70
0
  1
PNOA-H_AMS_1956-57_33k_ES_PAN_2
  2
NAME
  10
380328.801
  20
4660084.242
 40
33.69289
  0
SEQEND
  0
POLYLINE
  8
Unknown_Area_Type
  70
1
  66
1
  0
VERTEX
  8
Unknown_Area_Type
  10
381623.500
  20
4658440.000
  0
VERTEX
  8
Unknown_Area_Type
  10
381624.000
  20
4657983.000
  0
VERTEX
  8
Unknown_Area_Type
  10
379625.500
  20
4657780.000
  0
VERTEX
  8
Unknown_Area_Type
  10
379026.500
  20
4658029.500
  0
VERTEX
  8
Unknown_Area_Type
  10
379059.000
  20
4662035.500
  0
VERTEX
  8
Unknown_Area_Type
  10
379061.000
  20
4662036.500
  0
VERTEX
  8
Unknown_Area_Type
  10
380325.000
  20
4662539.500
  0
VERTEX
  8
Unknown_Area_Type
  10
380328.000
  20
4662539.500
  0
VERTEX
  8
Unknown_Area_Type
  10
381622.000
  20
4662037.500
  0
VERTEX
  8
Unknown_Area_Type
  10
381623.500
  20
4659263.000
  0
VERTEX
  8
Unknown_Area_Type
  10
381623.500
  20
4658440.000
  0
SEQEND
  8
Unknown_Area_Type
  0
INSERT
  8
FeatureAttribs
  2
FEATURE
  41
1
  42
1
  43
1
  50
0
  10
380328.801
  20
4660084.242
 66
1
  0
ATTRIB
  8
FeatureAttribs
 70
0
  1
PNOA-H_AMS_1956-57_33k_ES_PAN_2
  2
NAME
  10
380328.801
  20
4660084.242
 40
33.69289
  0
SEQEND
  0
POLYLINE
  8
Unknown_Area_Type
  70
1
  66
1
  0
VERTEX
  8
Unknown_Area_Type
  10
381623.500
  20
4658440.000
  0
VERTEX
  8
Unknown_Area_Type
  10
381623.500
  20
4659263.000
  0
VERTEX
  8
Unknown_Area_Type
  10
381622.000
  20
4662037.500
  0
VERTEX
  8
Unknown_Area_Type
  10
380328.000
  20
4662539.500
  0
VERTEX
  8
Unknown_Area_Type
  10
380325.000
  20
4662539.500
  0
VERTEX
  8
Unknown_Area_Type
  10
379061.000
  20
4662036.500
  0
VERTEX
  8
Unknown_Area_Type
  10
379059.000
  20
4662035.500
  0
VERTEX
  8
Unknown_Area_Type
  10
379026.500
  20
4658029.500
  0
VERTEX
  8
Unknown_Area_Type
  10
379625.500
  20
4657780.000
  0
VERTEX
  8
Unknown_Area_Type
  10
381624.000
  20
4657983.000
  0
VERTEX
  8
Unknown_Area_Type
  10
381623.500
  20
4658440.000
  0
SEQEND
  8
Unknown_Area_Type
  0
INSERT
  8
FeatureAttribs
  2
FEATURE
  41
1
  42
1
  43
1
  50
0
  10
382885.308
  20
4660080.959
 66
1
  0
ATTRIB
  8
FeatureAttribs
 70
0
  1
PNOA-H_AMS_1956-57_33k_ES_PAN_2
  2
NAME
  10
382885.308
  20
4660080.959
 40
33.69289
  0
SEQEND
  0
POLYLINE
  8
Unknown_Area_Type
  70
1
  66
1
  0
VERTEX
  8
Unknown_Area_Type
  10
383086.000
  20
4662523.500
  0
VERTEX
  8
Unknown_Area_Type
  10
384187.000
  20
4662037.000
  0
VERTEX
  8
Unknown_Area_Type
  10
384116.000
  20
4657989.000
  0
VERTEX
  8
Unknown_Area_Type
  10
382299.500
  20
4657724.000
  0
VERTEX
  8
Unknown_Area_Type
  10
382293.500
  20
4657724.500
  0
VERTEX
  8
Unknown_Area_Type
  10
381624.000
  20
4657983.000
  0
VERTEX
  8
Unknown_Area_Type
  10
381622.000
  20
4662037.000
  0
VERTEX
  8
Unknown_Area_Type
  10
383084.500
  20
4662523.000
  0
VERTEX
  8
Unknown_Area_Type
  10
383086.000
  20
4662523.500
  0
SEQEND
  8
Unknown_Area_Type
  0
INSERT
  8
FeatureAttribs
  2
FEATURE
  41
1
  42
1
  43
1
  50
0
  10
382885.308
  20
4660080.959
 66
1
  0
ATTRIB
  8
FeatureAttribs
 70
0
  1
PNOA-H_AMS_1956-57_33k_ES_PAN_2
  2
NAME
  10
382885.308
  20
4660080.959
 40
33.69289
  0
SEQEND
  0
POLYLINE
  8
Unknown_Area_Type
  70
1
  66
1
  0
VERTEX
  8
Unknown_Area_Type
  10
383086.000
  20
4662523.500
  0
VERTEX
  8
Unknown_Area_Type
  10
383084.500
  20
4662523.000
  0
VERTEX
  8
Unknown_Area_Type
  10
381622.000
  20
4662037.000
  0
VERTEX
  8
Unknown_Area_Type
  10
381624.000
  20
4657983.000
  0
VERTEX
  8
Unknown_Area_Type
  10
382293.500
  20
4657724.500
  0
VERTEX
  8
Unknown_Area_Type
  10
382299.500
  20
4657724.000
  0
VERTEX
  8
Unknown_Area_Type
  10
384116.000
  20
4657989.000
  0
VERTEX
  8
Unknown_Area_Type
  10
384187.000
  20
4662037.000
  0
VERTEX
  8
Unknown_Area_Type
  10
383086.000
  20
4662523.500
  0
SEQEND
  8
Unknown_Area_Type
  0
INSERT
  8
FeatureAttribs
  2
FEATURE
  41
1
  42
1
  43
1
  50
0
  10
401842.096
  20
4659133.730
 66
1
  0
ATTRIB
  8
FeatureAttribs
 70
0
  1
PNOA-H_AMS_1956-57_33k_ES_PAN_2
  2
NAME
  10
401842.096
  20
4659133.730
 40
33.69289
  0
SEQEND
  0
POLYLINE
  8
Unknown_Area_Type
  70
1
  66
1
  0
VERTEX
  8
Unknown_Area_Type
  10
401910.443
  20
4660630.438
  0
VERTEX
  8
Unknown_Area_Type
  10
401910.443
  20
4657293.162
  0
VERTEX
  8
Unknown_Area_Type
  10
401747.451
  20
4657240.396
  0
VERTEX
  8
Unknown_Area_Type
  10
401749.636
  20
4657397.723
  0
VERTEX
  8
Unknown_Area_Type
  10
401781.765
  20
4659710.906
  0
VERTEX
  8
Unknown_Area_Type
  10
401800.054
  20
4661027.064
  0
VERTEX
  8
Unknown_Area_Type
  10
401910.443
  20
4660630.438
  0
SEQEND
  8
Unknown_Area_Type
  0
INSERT
  8
FeatureAttribs
  2
FEATURE
  41
1
  42
1
  43
1
  50
0
  10
400999.766
  20
4659062.426
 66
1
  0
ATTRIB
  8
FeatureAttribs
 70
0
  1
PNOA-H_AMS_1956-57_33k_ES_PAN_2
  2
NAME
  10
400999.766
  20
4659062.426
 40
33.69289
  0
SEQEND
  0
POLYLINE
  8
Unknown_Area_Type
  70
1
  66
1
  0
VERTEX
  8
Unknown_Area_Type
  10
401800.054
  20
4661027.064
  0
VERTEX
  8
Unknown_Area_Type
  10
401781.765
  20
4659710.906
  0
VERTEX
  8
Unknown_Area_Type
  10
401749.636
  20
4657397.723
  0
VERTEX
  8
Unknown_Area_Type
  10
401747.451
  20
4657240.396
  0
VERTEX
  8
Unknown_Area_Type
  10
401530.000
  20
4657170.000
  0
VERTEX
  8
Unknown_Area_Type
  10
401519.500
  20
4657167.500
  0
VERTEX
  8
Unknown_Area_Type
  10
399684.000
  20
4657592.000
  0
VERTEX
  8
Unknown_Area_Type
  10
399707.000
  20
4658117.500
  0
VERTEX
  8
Unknown_Area_Type
  10
401511.500
  20
4662059.500
  0
VERTEX
  8
Unknown_Area_Type
  10
401511.500
  20
4662060.500
  0
VERTEX
  8
Unknown_Area_Type
  10
401512.500
  20
4662060.000
  0
VERTEX
  8
Unknown_Area_Type
  10
401520.500
  20
4662031.500
  0
VERTEX
  8
Unknown_Area_Type
  10
401800.054
  20
4661027.064
  0
SEQEND
  8
Unknown_Area_Type
  0
INSERT
  8
FeatureAttribs
  2
FEATURE
  41
1
  42
1
  43
1
  50
0
  10
400999.766
  20
4659062.426
 66
1
  0
ATTRIB
  8
FeatureAttribs
 70
0
  1
PNOA-H_AMS_1956-57_33k_ES_PAN_2
  2
NAME
  10
400999.766
  20
4659062.426
 40
33.69289
  0
SEQEND
  0
POLYLINE
  8
Unknown_Area_Type
  70
1
  66
1
  0
VERTEX
  8
Unknown_Area_Type
  10
401800.054
  20
4661027.064
  0
VERTEX
  8
Unknown_Area_Type
  10
401520.500
  20
4662031.500
  0
VERTEX
  8
Unknown_Area_Type
  10
401512.500
  20
4662060.000
  0
VERTEX
  8
Unknown_Area_Type
  10
401511.500
  20
4662060.500
  0
VERTEX
  8
Unknown_Area_Type
  10
401511.500
  20
4662059.500
  0
VERTEX
  8
Unknown_Area_Type
  10
399707.000
  20
4658117.500
  0
VERTEX
  8
Unknown_Area_Type
  10
399684.000
  20
4657592.000
  0
VERTEX
  8
Unknown_Area_Type
  10
401519.500
  20
4657167.500
  0
VERTEX
  8
Unknown_Area_Type
  10
401530.000
  20
4657170.000
  0
VERTEX
  8
Unknown_Area_Type
  10
401747.451
  20
4657240.396
  0
VERTEX
  8
Unknown_Area_Type
  10
401749.636
  20
4657397.723
  0
VERTEX
  8
Unknown_Area_Type
  10
401781.765
  20
4659710.906
  0
VERTEX
  8
Unknown_Area_Type
  10
401800.054
  20
4661027.064
  0
SEQEND
  8
Unknown_Area_Type
  0
INSERT
  8
FeatureAttribs
  2
FEATURE
  41
1
  42
1
  43
1
  50
0
  10
385426.395
  20
4660057.338
 66
1
  0
ATTRIB
  8
FeatureAttribs
 70
0
  1
PNOA-H_AMS_1956-57_33k_ES_PAN_2
  2
NAME
  10
385426.395
  20
4660057.338
 40
33.69289
  0
SEQEND
  0
POLYLINE
  8
Unknown_Area_Type
  70
1
  66
1
  0
VERTEX
  8
Unknown_Area_Type
  10
384656.000
  20
4662163.500
  0
VERTEX
  8
Unknown_Area_Type
  10
385791.500
  20
4662469.000
  0
VERTEX
  8
Unknown_Area_Type
  10
386819.500
  20
4661976.000
  0
VERTEX
  8
Unknown_Area_Type
  10
386563.000
  20
4657932.000
  0
VERTEX
  8
Unknown_Area_Type
  10
385057.000
  20
4657671.500
  0
VERTEX
  8
Unknown_Area_Type
  10
384116.000
  20
4657989.000
  0
VERTEX
  8
Unknown_Area_Type
  10
384187.000
  20
4662037.000
  0
VERTEX
  8
Unknown_Area_Type
  10
384654.000
  20
4662163.000
  0
VERTEX
  8
Unknown_Area_Type
  10
384656.000
  20
4662163.500
  0
SEQEND
  8
Unknown_Area_Type
  0
INSERT
  8
FeatureAttribs
  2
FEATURE
  41
1
  42
1
  43
1
  50
0
  10
385426.395
  20
4660057.338
 66
1
  0
ATTRIB
  8
FeatureAttribs
 70
0
  1
PNOA-H_AMS_1956-57_33k_ES_PAN_2
  2
NAME
  10
385426.395
  20
4660057.338
 40
33.69289
  0
SEQEND
  0
POLYLINE
  8
Unknown_Area_Type
  70
1
  66
1
  0
VERTEX
  8
Unknown_Area_Type
  10
384656.000
  20
4662163.500
  0
VERTEX
  8
Unknown_Area_Type
  10
384654.000
  20
4662163.000
  0
VERTEX
  8
Unknown_Area_Type
  10
384187.000
  20
4662037.000
  0
VERTEX
  8
Unknown_Area_Type
  10
384116.000
  20
4657989.000
  0
VERTEX
  8
Unknown_Area_Type
  10
385057.000
  20
4657671.500
  0
VERTEX
  8
Unknown_Area_Type
  10
386563.000
  20
4657932.000
  0
VERTEX
  8
Unknown_Area_Type
  10
386819.500
  20
4661976.000
  0
VERTEX
  8
Unknown_Area_Type
  10
385791.500
  20
4662469.000
  0
VERTEX
  8
Unknown_Area_Type
  10
384656.000
  20
4662163.500
  0
SEQEND
  8
Unknown_Area_Type
  0
INSERT
  8
FeatureAttribs
  2
FEATURE
  41
1
  42
1
  43
1
  50
0
  10
388012.873
  20
4659941.209
 66
1
  0
ATTRIB
  8
FeatureAttribs
 70
0
  1
PNOA-H_AMS_1956-57_33k_ES_PAN_2
  2
NAME
  10
388012.873
  20
4659941.209
 40
33.69289
  0
SEQEND
  0
POLYLINE
  8
Unknown_Area_Type
  70
1
  66
1
  0
VERTEX
  8
Unknown_Area_Type
  10
386705.500
  20
4660183.500
  0
VERTEX
  8
Unknown_Area_Type
  10
386818.000
  20
4661960.000
  0
VERTEX
  8
Unknown_Area_Type
  10
386819.000
  20
4661975.500
  0
VERTEX
  8
Unknown_Area_Type
  10
386820.000
  20
4661976.500
  0
VERTEX
  8
Unknown_Area_Type
  10
388545.500
  20
4662382.500
  0
VERTEX
  8
Unknown_Area_Type
  10
389430.000
  20
4661916.000
  0
VERTEX
  8
Unknown_Area_Type
  10
389216.500
  20
4657868.000
  0
VERTEX
  8
Unknown_Area_Type
  10
387723.500
  20
4657556.500
  0
VERTEX
  8
Unknown_Area_Type
  10
387712.000
  20
4657555.000
  0
VERTEX
  8
Unknown_Area_Type
  10
386563.000
  20
4657932.000
  0
VERTEX
  8
Unknown_Area_Type
  10
386705.500
  20
4660175.500
  0
VERTEX
  8
Unknown_Area_Type
  10
386705.500
  20
4660183.500
  0
SEQEND
  8
Unknown_Area_Type
  0
INSERT
  8
FeatureAttribs
  2
FEATURE
  41
1
  42
1
  43
1
  50
0
  10
388012.873
  20
4659941.209
 66
1
  0
ATTRIB
  8
FeatureAttribs
 70
0
  1
PNOA-H_AMS_1956-57_33k_ES_PAN_2
  2
NAME
  10
388012.873
  20
4659941.209
 40
33.69289
  0
SEQEND
  0
POLYLINE
  8
Unknown_Area_Type
  70
1
  66
1
  0
VERTEX
  8
Unknown_Area_Type
  10
386705.500
  20
4660183.500
  0
VERTEX
  8
Unknown_Area_Type
  10
386705.500
  20
4660175.500
  0
VERTEX
  8
Unknown_Area_Type
  10
386563.000
  20
4657932.000
  0
VERTEX
  8
Unknown_Area_Type
  10
387712.000
  20
4657555.000
  0
VERTEX
  8
Unknown_Area_Type
  10
387723.500
  20
4657556.500
  0
VERTEX
  8
Unknown_Area_Type
  10
389216.500
  20
4657868.000
  0
VERTEX
  8
Unknown_Area_Type
  10
389430.000
  20
4661916.000
  0
VERTEX
  8
Unknown_Area_Type
  10
388545.500
  20
4662382.500
  0
VERTEX
  8
Unknown_Area_Type
  10
386820.000
  20
4661976.500
  0
VERTEX
  8
Unknown_Area_Type
  10
386819.000
  20
4661975.500
  0
VERTEX
  8
Unknown_Area_Type
  10
386818.000
  20
4661960.000
  0
VERTEX
  8
Unknown_Area_Type
  10
386705.500
  20
4660183.500
  0
SEQEND
  8
Unknown_Area_Type
  0
INSERT
  8
FeatureAttribs
  2
FEATURE
  41
1
  42
1
  43
1
  50
0
  10
374128.407
  20
4660095.870
 66
1
  0
ATTRIB
  8
FeatureAttribs
 70
0
  1
PNOA-H_AMS_1956-57_33k_ES_PAN_2
  2
NAME
  10
374128.407
  20
4660095.870
 40
33.69289
  0
SEQEND
  0
POLYLINE
  8
Unknown_Area_Type
  70
1
  66
1
  0
VERTEX
  8
Unknown_Area_Type
  10
374249.699
  20
4662314.350
  0
VERTEX
  8
Unknown_Area_Type
  10
374211.138
  20
4660147.713
  0
VERTEX
  8
Unknown_Area_Type
  10
374170.748
  20
4657877.391
  0
VERTEX
  8
Unknown_Area_Type
  10
374046.598
  20
4657937.370
  0
VERTEX
  8
Unknown_Area_Type
  10
374046.598
  20
4662208.526
  0
VERTEX
  8
Unknown_Area_Type
  10
374249.699
  20
4662314.350
  0
SEQEND
  8
Unknown_Area_Type
  0
INSERT
  8
FeatureAttribs
  2
FEATURE
  41
1
  42
1
  43
1
  50
0
  10
375340.645
  20
4660115.702
 66
1
  0
ATTRIB
  8
FeatureAttribs
 70
0
  1
PNOA-H_AMS_1956-57_33k_ES_PAN_2
  2
NAME
  10
375340.645
  20
4660115.702
 40
33.69289
  0
SEQEND
  0
POLYLINE
  8
Unknown_Area_Type
  70
1
  66
1
  0
VERTEX
  8
Unknown_Area_Type
  10
374249.699
  20
4662314.350
  0
VERTEX
  8
Unknown_Area_Type
  10
374416.000
  20
4662401.000
  0
VERTEX
  8
Unknown_Area_Type
  10
374417.000
  20
4662401.500
  0
VERTEX
  8
Unknown_Area_Type
  10
374651.000
  20
4662523.500
  0
VERTEX
  8
Unknown_Area_Type
  10
374662.500
  20
4662528.500
  0
VERTEX
  8
Unknown_Area_Type
  10
376482.000
  20
4662111.500
  0
VERTEX
  8
Unknown_Area_Type
  10
376548.500
  20
4658013.500
  0
VERTEX
  8
Unknown_Area_Type
  10
374208.500
  20
4657863.500
  0
VERTEX
  8
Unknown_Area_Type
  10
374199.500
  20
4657863.500
  0
VERTEX
  8
Unknown_Area_Type
  10
374170.748
  20
4657877.391
  0
VERTEX
  8
Unknown_Area_Type
  10
374211.138
  20
4660147.713
  0
VERTEX
  8
Unknown_Area_Type
  10
374249.699
  20
4662314.350
  0
SEQEND
  8
Unknown_Area_Type
  0
INSERT
  8
FeatureAttribs
  2
FEATURE
  41
1
  42
1
  43
1
  50
0
  10
375340.645
  20
4660115.702
 66
1
  0
ATTRIB
  8
FeatureAttribs
 70
0
  1
PNOA-H_AMS_1956-57_33k_ES_PAN_2
  2
NAME
  10
375340.645
  20
4660115.702
 40
33.69289
  0
SEQEND
  0
POLYLINE
  8
Unknown_Area_Type
  70
1
  66
1
  0
VERTEX
  8
Unknown_Area_Type
  10
374249.699
  20
4662314.350
  0
VERTEX
  8
Unknown_Area_Type
  10
374211.138
  20
4660147.713
  0
VERTEX
  8
Unknown_Area_Type
  10
374170.748
  20
4657877.391
  0
VERTEX
  8
Unknown_Area_Type
  10
374199.500
  20
4657863.500
  0
VERTEX
  8
Unknown_Area_Type
  10
374208.500
  20
4657863.500
  0
VERTEX
  8
Unknown_Area_Type
  10
376548.500
  20
4658013.500
  0
VERTEX
  8
Unknown_Area_Type
  10
376482.000
  20
4662111.500
  0
VERTEX
  8
Unknown_Area_Type
  10
374662.500
  20
4662528.500
  0
VERTEX
  8
Unknown_Area_Type
  10
374651.000
  20
4662523.500
  0
VERTEX
  8
Unknown_Area_Type
  10
374417.000
  20
4662401.500
  0
VERTEX
  8
Unknown_Area_Type
  10
374416.000
  20
4662401.000
  0
VERTEX
  8
Unknown_Area_Type
  10
374249.699
  20
4662314.350
  0
SEQEND
  8
Unknown_Area_Type
  0
INSERT
  8
FeatureAttribs
  2
FEATURE
  41
1
  42
1
  43
1
  50
0
  10
397671.984
  20
4665637.047
 66
1
  0
ATTRIB
  8
FeatureAttribs
 70
0
  1
PNOA-H_AMS_1956-57_33k_ES_PAN_2
  2
NAME
  10
397671.984
  20
4665637.047
 40
33.69289
  0
SEQEND
  0
POLYLINE
  8
Unknown_Area_Type
  70
1
  66
1
  0
VERTEX
  8
Unknown_Area_Type
  10
396586.500
  20
4666919.500
  0
VERTEX
  8
Unknown_Area_Type
  10
399128.000
  20
4666797.000
  0
VERTEX
  8
Unknown_Area_Type
  10
399113.500
  20
4665112.000
  0
VERTEX
  8
Unknown_Area_Type
  10
396864.000
  20
4663847.000
  0
VERTEX
  8
Unknown_Area_Type
  10
396423.500
  20
4664928.500
  0
VERTEX
  8
Unknown_Area_Type
  10
396413.000
  20
4666801.000
  0
VERTEX
  8
Unknown_Area_Type
  10
396586.000
  20
4666918.500
  0
VERTEX
  8
Unknown_Area_Type
  10
396586.500
  20
4666919.500
  0
SEQEND
  8
Unknown_Area_Type
  0
INSERT
  8
FeatureAttribs
  2
FEATURE
  41
1
  42
1
  43
1
  50
0
  10
397671.984
  20
4665637.047
 66
1
  0
ATTRIB
  8
FeatureAttribs
 70
0
  1
PNOA-H_AMS_1956-57_33k_ES_PAN_2
  2
NAME
  10
397671.984
  20
4665637.047
 40
33.69289
  0
SEQEND
  0
POLYLINE
  8
Unknown_Area_Type
  70
1
  66
1
  0
VERTEX
  8
Unknown_Area_Type
  10
396586.500
  20
4666919.500
  0
VERTEX
  8
Unknown_Area_Type
  10
396586.000
  20
4666918.500
  0
VERTEX
  8
Unknown_Area_Type
  10
396413.000
  20
4666801.000
  0
VERTEX
  8
Unknown_Area_Type
  10
396423.500
  20
4664928.500
  0
VERTEX
  8
Unknown_Area_Type
  10
396864.000
  20
4663847.000
  0
VERTEX
  8
Unknown_Area_Type
  10
399113.500
  20
4665112.000
  0
VERTEX
  8
Unknown_Area_Type
  10
399128.000
  20
4666797.000
  0
VERTEX
  8
Unknown_Area_Type
  10
396586.500
  20
4666919.500
  0
SEQEND
  8
Unknown_Area_Type
  0
INSERT
  8
FeatureAttribs
  2
FEATURE
  41
1
  42
1
  43
1
  50
0
  10
401864.931
  20
4664704.786
 66
1
  0
ATTRIB
  8
FeatureAttribs
 70
0
  1
PNOA-H_AMS_1956-57_33k_ES_PAN_2
  2
NAME
  10
401864.931
  20
4664704.786
 40
33.69289
  0
SEQEND
  0
POLYLINE
  8
Unknown_Area_Type
  70
1
  66
1
  0
VERTEX
  8
Unknown_Area_Type
  10
401879.152
  20
4666716.551
  0
VERTEX
  8
Unknown_Area_Type
  10
401890.000
  20
4666715.500
  0
VERTEX
  8
Unknown_Area_Type
  10
401867.500
  20
4662716.500
  0
VERTEX
  8
Unknown_Area_Type
  10
401823.207
  20
4662693.020
  0
VERTEX
  8
Unknown_Area_Type
  10
401846.064
  20
4664337.294
  0
VERTEX
  8
Unknown_Area_Type
  10
401878.233
  20
4666650.501
  0
VERTEX
  8
Unknown_Area_Type
  10
401879.152
  20
4666716.551
  0
SEQEND
  8
Unknown_Area_Type
  0
INSERT
  8
FeatureAttribs
  2
FEATURE
  41
1
  42
1
  43
1
  50
0
  10
400606.683
  20
4664900.971
 66
1
  0
ATTRIB
  8
FeatureAttribs
 70
0
  1
PNOA-H_AMS_1956-57_33k_ES_PAN_2
  2
NAME
  10
400606.683
  20
4664900.971
 40
33.69289
  0
SEQEND
  0
POLYLINE
  8
Unknown_Area_Type
  70
1
  66
1
  0
VERTEX
  8
Unknown_Area_Type
  10
401879.152
  20
4666716.551
  0
VERTEX
  8
Unknown_Area_Type
  10
401878.233
  20
4666650.501
  0
VERTEX
  8
Unknown_Area_Type
  10
401846.064
  20
4664337.294
  0
VERTEX
  8
Unknown_Area_Type
  10
401823.207
  20
4662693.020
  0
VERTEX
  8
Unknown_Area_Type
  10
401527.000
  20
4662536.000
  0
VERTEX
  8
Unknown_Area_Type
  10
401526.000
  20
4662536.000
  0
VERTEX
  8
Unknown_Area_Type
  10
401524.500
  20
4662534.500
  0
VERTEX
  8
Unknown_Area_Type
  10
401522.000
  20
4662534.500
  0
VERTEX
  8
Unknown_Area_Type
  10
401496.500
  20
4662537.000
  0
VERTEX
  8
Unknown_Area_Type
  10
400216.000
  20
4662663.500
  0
VERTEX
  8
Unknown_Area_Type
  10
400176.000
  20
4662667.500
  0
VERTEX
  8
Unknown_Area_Type
  10
400175.500
  20
4662668.500
  0
VERTEX
  8
Unknown_Area_Type
  10
399113.500
  20
4665111.000
  0
VERTEX
  8
Unknown_Area_Type
  10
399128.000
  20
4666797.000
  0
VERTEX
  8
Unknown_Area_Type
  10
399371.500
  20
4666959.500
  0
VERTEX
  8
Unknown_Area_Type
  10
401879.152
  20
4666716.551
  0
SEQEND
  8
Unknown_Area_Type
  0
INSERT
  8
FeatureAttribs
  2
FEATURE
  41
1
  42
1
  43
1
  50
0
  10
400606.683
  20
4664900.971
 66
1
  0
ATTRIB
  8
FeatureAttribs
 70
0
  1
PNOA-H_AMS_1956-57_33k_ES_PAN_2
  2
NAME
  10
400606.683
  20
4664900.971
 40
33.69289
  0
SEQEND
  0
POLYLINE
  8
Unknown_Area_Type
  70
1
  66
1
  0
VERTEX
  8
Unknown_Area_Type
  10
401879.152
  20
4666716.551
  0
VERTEX
  8
Unknown_Area_Type
  10
399371.500
  20
4666959.500
  0
VERTEX
  8
Unknown_Area_Type
  10
399128.000
  20
4666797.000
  0
VERTEX
  8
Unknown_Area_Type
  10
399113.500
  20
4665111.000
  0
VERTEX
  8
Unknown_Area_Type
  10
400175.500
  20
4662668.500
  0
VERTEX
  8
Unknown_Area_Type
  10
400176.000
  20
4662667.500
  0
VERTEX
  8
Unknown_Area_Type
  10
400216.000
  20
4662663.500
  0
VERTEX
  8
Unknown_Area_Type
  10
401496.500
  20
4662537.000
  0
VERTEX
  8
Unknown_Area_Type
  10
401522.000
  20
4662534.500
  0
VERTEX
  8
Unknown_Area_Type
  10
401524.500
  20
4662534.500
  0
VERTEX
  8
Unknown_Area_Type
  10
401526.000
  20
4662536.000
  0
VERTEX
  8
Unknown_Area_Type
  10
401527.000
  20
4662536.000
  0
VERTEX
  8
Unknown_Area_Type
  10
401823.207
  20
4662693.020
  0
VERTEX
  8
Unknown_Area_Type
  10
401846.064
  20
4664337.294
  0
VERTEX
  8
Unknown_Area_Type
  10
401878.233
  20
4666650.501
  0
VERTEX
  8
Unknown_Area_Type
  10
401879.152
  20
4666716.551
  0
SEQEND
  8
Unknown_Area_Type
  0
INSERT
  8
FeatureAttribs
  2
FEATURE
  41
1
  42
1
  43
1
  50
0
  10
401894.611
  20
4664720.785
 66
1
  0
ATTRIB
  8
FeatureAttribs
 70
0
  1
PNOA-H_AMS_1956-57_33k_ES_PAN_2
  2
NAME
  10
401894.611
  20
4664720.785
 40
33.69289
  0
SEQEND
  0
POLYLINE
  8
Unknown_Area_Type
  70
1
  66
1
  0
VERTEX
  8
Unknown_Area_Type
  10
401910.443
  20
4662712.594
  0
VERTEX
  8
Unknown_Area_Type
  10
401867.500
  20
4662716.000
  0
VERTEX
  8
Unknown_Area_Type
  10
401890.000
  20
4666715.500
  0
VERTEX
  8
Unknown_Area_Type
  10
401910.443
  20
4666728.976
  0
VERTEX
  8
Unknown_Area_Type
  10
401910.443
  20
4662712.594
  0
SEQEND
  8
Unknown_Area_Type
  0
INSERT
  8
FeatureAttribs
  2
FEATURE
  41
1
  42
1
  43
1
  50
0
  10
391862.261
  20
4660473.578
 66
1
  0
ATTRIB
  8
FeatureAttribs
 70
0
  1
PNOA-H_AMS_1956-57_33k_ES_PAN_2
  2
NAME
  10
391862.261
  20
4660473.578
 40
33.69289
  0
SEQEND
  0
POLYLINE
  8
Unknown_Area_Type
  70
1
  66
1
  0
VERTEX
  8
Unknown_Area_Type
  10
392191.000
  20
4658440.000
  0
VERTEX
  8
Unknown_Area_Type
  10
392062.000
  20
4657729.000
  0
VERTEX
  8
Unknown_Area_Type
  10
391655.500
  20
4657726.500
  0
VERTEX
  8
Unknown_Area_Type
  10
390914.000
  20
4662180.000
  0
VERTEX
  8
Unknown_Area_Type
  10
390914.000
  20
4662183.500
  0
VERTEX
  8
Unknown_Area_Type
  10
391331.500
  20
4662391.500
  0
VERTEX
  8
Unknown_Area_Type
  10
392844.500
  20
4662036.000
  0
VERTEX
  8
Unknown_Area_Type
  10
392191.000
  20
4658441.000
  0
VERTEX
  8
Unknown_Area_Type
  10
392191.000
  20
4658440.000
  0
SEQEND
  8
Unknown_Area_Type
  0
INSERT
  8
FeatureAttribs
  2
FEATURE
  41
1
  42
1
  43
1
  50
0
  10
391862.261
  20
4660473.578
 66
1
  0
ATTRIB
  8
FeatureAttribs
 70
0
  1
PNOA-H_AMS_1956-57_33k_ES_PAN_2
  2
NAME
  10
391862.261
  20
4660473.578
 40
33.69289
  0
SEQEND
  0
POLYLINE
  8
Unknown_Area_Type
  70
1
  66
1
  0
VERTEX
  8
Unknown_Area_Type
  10
392191.000
  20
4658440.000
  0
VERTEX
  8
Unknown_Area_Type
  10
392191.000
  20
4658441.000
  0
VERTEX
  8
Unknown_Area_Type
  10
392844.500
  20
4662036.000
  0
VERTEX
  8
Unknown_Area_Type
  10
391331.500
  20
4662391.500
  0
VERTEX
  8
Unknown_Area_Type
  10
390914.000
  20
4662183.500
  0
VERTEX
  8
Unknown_Area_Type
  10
390914.000
  20
4662180.000
  0
VERTEX
  8
Unknown_Area_Type
  10
391655.500
  20
4657726.500
  0
VERTEX
  8
Unknown_Area_Type
  10
392062.000
  20
4657729.000
  0
VERTEX
  8
Unknown_Area_Type
  10
392191.000
  20
4658440.000
  0
SEQEND
  8
Unknown_Area_Type
  0
INSERT
  8
FeatureAttribs
  2
FEATURE
  41
1
  42
1
  43
1
  50
0
  10
397188.789
  20
4660855.583
 66
1
  0
ATTRIB
  8
FeatureAttribs
 70
0
  1
PNOA-H_AMS_1956-57_33k_ES_PAN_2
  2
NAME
  10
397188.789
  20
4660855.583
 40
33.69289
  0
SEQEND
  0
POLYLINE
  8
Unknown_Area_Type
  70
1
  66
1
  0
VERTEX
  8
Unknown_Area_Type
  10
396946.000
  20
4662443.500
  0
VERTEX
  8
Unknown_Area_Type
  10
398519.000
  20
4661984.000
  0
VERTEX
  8
Unknown_Area_Type
  10
396982.000
  20
4658083.500
  0
VERTEX
  8
Unknown_Area_Type
  10
396077.500
  20
4662076.500
  0
VERTEX
  8
Unknown_Area_Type
  10
396077.500
  20
4662079.000
  0
VERTEX
  8
Unknown_Area_Type
  10
396861.000
  20
4662468.500
  0
VERTEX
  8
Unknown_Area_Type
  10
396945.000
  20
4662443.500
  0
VERTEX
  8
Unknown_Area_Type
  10
396946.000
  20
4662443.500
  0
SEQEND
  8
Unknown_Area_Type
  0
INSERT
  8
FeatureAttribs
  2
FEATURE
  41
1
  42
1
  43
1
  50
0
  10
397188.789
  20
4660855.583
 66
1
  0
ATTRIB
  8
FeatureAttribs
 70
0
  1
PNOA-H_AMS_1956-57_33k_ES_PAN_2
  2
NAME
  10
397188.789
  20
4660855.583
 40
33.69289
  0
SEQEND
  0
POLYLINE
  8
Unknown_Area_Type
  70
1
  66
1
  0
VERTEX
  8
Unknown_Area_Type
  10
396946.000
  20
4662443.500
  0
VERTEX
  8
Unknown_Area_Type
  10
396945.000
  20
4662443.500
  0
VERTEX
  8
Unknown_Area_Type
  10
396861.000
  20
4662468.500
  0
VERTEX
  8
Unknown_Area_Type
  10
396077.500
  20
4662079.000
  0
VERTEX
  8
Unknown_Area_Type
  10
396077.500
  20
4662076.500
  0
VERTEX
  8
Unknown_Area_Type
  10
396982.000
  20
4658083.500
  0
VERTEX
  8
Unknown_Area_Type
  10
398519.000
  20
4661984.000
  0
VERTEX
  8
Unknown_Area_Type
  10
396946.000
  20
4662443.500
  0
SEQEND
  8
Unknown_Area_Type
  0
INSERT
  8
FeatureAttribs
  2
FEATURE
  41
1
  42
1
  43
1
  50
0
  10
394473.142
  20
4660637.423
 66
1
  0
ATTRIB
  8
FeatureAttribs
 70
0
  1
PNOA-H_AMS_1956-57_33k_ES_PAN_2
  2
NAME
  10
394473.142
  20
4660637.423
 40
33.69289
  0
SEQEND
  0
POLYLINE
  8
Unknown_Area_Type
  70
1
  66
1
  0
VERTEX
  8
Unknown_Area_Type
  10
394700.500
  20
4658440.000
  0
VERTEX
  8
Unknown_Area_Type
  10
394527.000
  20
4657709.500
  0
VERTEX
  8
Unknown_Area_Type
  10
394525.500
  20
4657708.000
  0
VERTEX
  8
Unknown_Area_Type
  10
394384.500
  20
4657704.500
  0
VERTEX
  8
Unknown_Area_Type
  10
393439.500
  20
4662116.500
  0
VERTEX
  8
Unknown_Area_Type
  10
393439.500
  20
4662119.500
  0
VERTEX
  8
Unknown_Area_Type
  10
393447.500
  20
4662123.500
  0
VERTEX
  8
Unknown_Area_Type
  10
394048.500
  20
4662419.000
  0
VERTEX
  8
Unknown_Area_Type
  10
394055.000
  20
4662421.000
  0
VERTEX
  8
Unknown_Area_Type
  10
395555.000
  20
4662034.500
  0
VERTEX
  8
Unknown_Area_Type
  10
394700.500
  20
4658441.500
  0
VERTEX
  8
Unknown_Area_Type
  10
394700.500
  20
4658440.000
  0
SEQEND
  8
Unknown_Area_Type
  0
INSERT
  8
FeatureAttribs
  2
FEATURE
  41
1
  42
1
  43
1
  50
0
  10
394473.142
  20
4660637.423
 66
1
  0
ATTRIB
  8
FeatureAttribs
 70
0
  1
PNOA-H_AMS_1956-57_33k_ES_PAN_2
  2
NAME
  10
394473.142
  20
4660637.423
 40
33.69289
  0
SEQEND
  0
POLYLINE
  8
Unknown_Area_Type
  70
1
  66
1
  0
VERTEX
  8
Unknown_Area_Type
  10
394700.500
  20
4658440.000
  0
VERTEX
  8
Unknown_Area_Type
  10
394700.500
  20
4658441.500
  0
VERTEX
  8
Unknown_Area_Type
  10
395555.000
  20
4662034.500
  0
VERTEX
  8
Unknown_Area_Type
  10
394055.000
  20
4662421.000
  0
VERTEX
  8
Unknown_Area_Type
  10
394048.500
  20
4662419.000
  0
VERTEX
  8
Unknown_Area_Type
  10
393447.500
  20
4662123.500
  0
VERTEX
  8
Unknown_Area_Type
  10
393439.500
  20
4662119.500
  0
VERTEX
  8
Unknown_Area_Type
  10
393439.500
  20
4662116.500
  0
VERTEX
  8
Unknown_Area_Type
  10
394384.500
  20
4657704.500
  0
VERTEX
  8
Unknown_Area_Type
  10
394525.500
  20
4657708.000
  0
VERTEX
  8
Unknown_Area_Type
  10
394527.000
  20
4657709.500
  0
VERTEX
  8
Unknown_Area_Type
  10
394700.500
  20
4658440.000
  0
SEQEND
  8
Unknown_Area_Type
  0
INSERT
  8
FeatureAttribs
  2
FEATURE
  41
1
  42
1
  43
1
  50
0
  10
400048.641
  20
4661007.380
 66
1
  0
ATTRIB
  8
FeatureAttribs
 70
0
  1
PNOA-H_AMS_1956-57_33k_ES_PAN_2
  2
NAME
  10
400048.641
  20
4661007.380
 40
33.69289
  0
SEQEND
  0
POLYLINE
  8
Unknown_Area_Type
  70
1
  66
1
  0
VERTEX
  8
Unknown_Area_Type
  10
400175.000
  20
4662667.500
  0
VERTEX
  8
Unknown_Area_Type
  10
401524.000
  20
4662534.500
  0
VERTEX
  8
Unknown_Area_Type
  10
401512.000
  20
4662060.500
  0
VERTEX
  8
Unknown_Area_Type
  10
400792.500
  20
4660489.500
  0
VERTEX
  8
Unknown_Area_Type
  10
400792.000
  20
4660488.000
  0
VERTEX
  8
Unknown_Area_Type
  10
399707.000
  20
4658117.500
  0
VERTEX
  8
Unknown_Area_Type
  10
398706.500
  20
4661986.500
  0
VERTEX
  8
Unknown_Area_Type
  10
400175.000
  20
4662667.500
  0
SEQEND
  8
Unknown_Area_Type
  0
INSERT
  8
FeatureAttribs
  2
FEATURE
  41
1
  42
1
  43
1
  50
0
  10
400048.641
  20
4661007.380
 66
1
  0
ATTRIB
  8
FeatureAttribs
 70
0
  1
PNOA-H_AMS_1956-57_33k_ES_PAN_2
  2
NAME
  10
400048.641
  20
4661007.380
 40
33.69289
  0
SEQEND
  0
POLYLINE
  8
Unknown_Area_Type
  70
1
  66
1
  0
VERTEX
  8
Unknown_Area_Type
  10
400175.000
  20
4662667.500
  0
VERTEX
  8
Unknown_Area_Type
  10
398706.500
  20
4661986.500
  0
VERTEX
  8
Unknown_Area_Type
  10
399707.000
  20
4658117.500
  0
VERTEX
  8
Unknown_Area_Type
  10
400792.000
  20
4660488.000
  0
VERTEX
  8
Unknown_Area_Type
  10
400792.500
  20
4660489.500
  0
VERTEX
  8
Unknown_Area_Type
  10
401512.000
  20
4662060.500
  0
VERTEX
  8
Unknown_Area_Type
  10
401524.000
  20
4662534.500
  0
VERTEX
  8
Unknown_Area_Type
  10
400175.000
  20
4662667.500
  0
SEQEND
  8
Unknown_Area_Type
  0
INSERT
  8
FeatureAttribs
  2
FEATURE
  41
1
  42
1
  43
1
  50
0
  10
401859.734
  20
4661672.647
 66
1
  0
ATTRIB
  8
FeatureAttribs
 70
0
  1
PNOA-H_AMS_1956-57_33k_ES_PAN_2
  2
NAME
  10
401859.734
  20
4661672.647
 40
33.69289
  0
SEQEND
  0
POLYLINE
  8
Unknown_Area_Type
  70
1
  66
1
  0
VERTEX
  8
Unknown_Area_Type
  10
401910.443
  20
4662713.048
  0
VERTEX
  8
Unknown_Area_Type
  10
401910.443
  20
4660628.794
  0
VERTEX
  8
Unknown_Area_Type
  10
401800.031
  20
4661025.394
  0
VERTEX
  8
Unknown_Area_Type
  10
401813.908
  20
4662024.096
  0
VERTEX
  8
Unknown_Area_Type
  10
401823.201
  20
4662692.618
  0
VERTEX
  8
Unknown_Area_Type
  10
401866.500
  20
4662715.500
  0
VERTEX
  8
Unknown_Area_Type
  10
401867.000
  20
4662716.500
  0
VERTEX
  8
Unknown_Area_Type
  10
401910.443
  20
4662713.048
  0
SEQEND
  8
Unknown_Area_Type
  0
INSERT
  8
FeatureAttribs
  2
FEATURE
  41
1
  42
1
  43
1
  50
0
  10
401691.739
  20
4662035.374
 66
1
  0
ATTRIB
  8
FeatureAttribs
 70
0
  1
PNOA-H_AMS_1956-57_33k_ES_PAN_2
  2
NAME
  10
401691.739
  20
4662035.374
 40
33.69289
  0
SEQEND
  0
POLYLINE
  8
Unknown_Area_Type
  70
1
  66
1
  0
VERTEX
  8
Unknown_Area_Type
  10
401800.031
  20
4661025.394
  0
VERTEX
  8
Unknown_Area_Type
  10
401512.000
  20
4662060.000
  0
VERTEX
  8
Unknown_Area_Type
  10
401524.000
  20
4662534.500
  0
VERTEX
  8
Unknown_Area_Type
  10
401823.201
  20
4662692.618
  0
VERTEX
  8
Unknown_Area_Type
  10
401813.908
  20
4662024.096
  0
VERTEX
  8
Unknown_Area_Type
  10
401800.031
  20
4661025.394
  0
SEQEND
  8
Unknown_Area_Type
  0
INSERT
  8
FeatureAttribs
  2
FEATURE
  41
1
  42
1
  43
1
  50
0
  10
401691.739
  20
4662035.374
 66
1
  0
ATTRIB
  8
FeatureAttribs
 70
0
  1
PNOA-H_AMS_1956-57_33k_ES_PAN_2
  2
NAME
  10
401691.739
  20
4662035.374
 40
33.69289
  0
SEQEND
  0
POLYLINE
  8
Unknown_Area_Type
  70
1
  66
1
  0
VERTEX
  8
Unknown_Area_Type
  10
401800.031
  20
4661025.394
  0
VERTEX
  8
Unknown_Area_Type
  10
401813.908
  20
4662024.096
  0
VERTEX
  8
Unknown_Area_Type
  10
401823.201
  20
4662692.618
  0
VERTEX
  8
Unknown_Area_Type
  10
401524.000
  20
4662534.500
  0
VERTEX
  8
Unknown_Area_Type
  10
401512.000
  20
4662060.000
  0
VERTEX
  8
Unknown_Area_Type
  10
401800.031
  20
4661025.394
  0
SEQEND
  8
Unknown_Area_Type
  0
INSERT
  8
FeatureAttribs
  2
FEATURE
  41
1
  42
1
  43
1
  50
0
  10
375842.495
  20
4667899.466
 66
1
  0
ATTRIB
  8
FeatureAttribs
 70
0
  1
PNOA-H_AMS_1956-57_33k_ES_PAN_2
  2
NAME
  10
375842.495
  20
4667899.466
 40
33.69289
  0
SEQEND
  0
POLYLINE
  8
Unknown_Area_Type
  70
1
  66
1
  0
VERTEX
  8
Unknown_Area_Type
  10
377261.840
  20
4669349.923
  0
VERTEX
  8
Unknown_Area_Type
  10
377207.000
  20
4666496.500
  0
VERTEX
  8
Unknown_Area_Type
  10
377206.500
  20
4666491.500
  0
VERTEX
  8
Unknown_Area_Type
  10
377204.000
  20
4666491.000
  0
VERTEX
  8
Unknown_Area_Type
  10
374789.500
  20
4666352.500
  0
VERTEX
  8
Unknown_Area_Type
  10
374446.500
  20
4666543.000
  0
VERTEX
  8
Unknown_Area_Type
  10
374500.222
  20
4669398.468
  0
VERTEX
  8
Unknown_Area_Type
  10
377261.840
  20
4669349.923
  0
SEQEND
  8
Unknown_Area_Type
  0
INSERT
  8
FeatureAttribs
  2
FEATURE
  41
1
  42
1
  43
1
  50
0
  10
375842.495
  20
4667899.466
 66
1
  0
ATTRIB
  8
FeatureAttribs
 70
0
  1
PNOA-H_AMS_1956-57_33k_ES_PAN_2
  2
NAME
  10
375842.495
  20
4667899.466
 40
33.69289
  0
SEQEND
  0
POLYLINE
  8
Unknown_Area_Type
  70
1
  66
1
  0
VERTEX
  8
Unknown_Area_Type
  10
377261.840
  20
4669349.923
  0
VERTEX
  8
Unknown_Area_Type
  10
374500.222
  20
4669398.468
  0
VERTEX
  8
Unknown_Area_Type
  10
374446.500
  20
4666543.000
  0
VERTEX
  8
Unknown_Area_Type
  10
374789.500
  20
4666352.500
  0
VERTEX
  8
Unknown_Area_Type
  10
377204.000
  20
4666491.000
  0
VERTEX
  8
Unknown_Area_Type
  10
377206.500
  20
4666491.500
  0
VERTEX
  8
Unknown_Area_Type
  10
377207.000
  20
4666496.500
  0
VERTEX
  8
Unknown_Area_Type
  10
377261.840
  20
4669349.923
  0
SEQEND
  8
Unknown_Area_Type
  0
INSERT
  8
FeatureAttribs
  2
FEATURE
  41
1
  42
1
  43
1
  50
0
  10
386689.649
  20
4667785.961
 66
1
  0
ATTRIB
  8
FeatureAttribs
 70
0
  1
PNOA-H_AMS_1956-57_33k_ES_PAN_2
  2
NAME
  10
386689.649
  20
4667785.961
 40
33.69289
  0
SEQEND
  0
POLYLINE
  8
Unknown_Area_Type
  70
1
  66
1
  0
VERTEX
  8
Unknown_Area_Type
  10
388077.033
  20
4669169.801
  0
VERTEX
  8
Unknown_Area_Type
  10
388065.000
  20
4666480.500
  0
VERTEX
  8
Unknown_Area_Type
  10
385805.500
  20
4666259.000
  0
VERTEX
  8
Unknown_Area_Type
  10
385802.000
  20
4666259.000
  0
VERTEX
  8
Unknown_Area_Type
  10
385794.500
  20
4666262.500
  0
VERTEX
  8
Unknown_Area_Type
  10
385370.000
  20
4666463.500
  0
VERTEX
  8
Unknown_Area_Type
  10
385308.999
  20
4669214.402
  0
VERTEX
  8
Unknown_Area_Type
  10
388077.033
  20
4669169.801
  0
SEQEND
  8
Unknown_Area_Type
  0
INSERT
  8
FeatureAttribs
  2
FEATURE
  41
1
  42
1
  43
1
  50
0
  10
386689.649
  20
4667785.961
 66
1
  0
ATTRIB
  8
FeatureAttribs
 70
0
  1
PNOA-H_AMS_1956-57_33k_ES_PAN_2
  2
NAME
  10
386689.649
  20
4667785.961
 40
33.69289
  0
SEQEND
  0
POLYLINE
  8
Unknown_Area_Type
  70
1
  66
1
  0
VERTEX
  8
Unknown_Area_Type
  10
388077.033
  20
4669169.801
  0
VERTEX
  8
Unknown_Area_Type
  10
385308.999
  20
4669214.402
  0
VERTEX
  8
Unknown_Area_Type
  10
385370.000
  20
4666463.500
  0
VERTEX
  8
Unknown_Area_Type
  10
385794.500
  20
4666262.500
  0
VERTEX
  8
Unknown_Area_Type
  10
385802.000
  20
4666259.000
  0
VERTEX
  8
Unknown_Area_Type
  10
385805.500
  20
4666259.000
  0
VERTEX
  8
Unknown_Area_Type
  10
388065.000
  20
4666480.500
  0
VERTEX
  8
Unknown_Area_Type
  10
388077.033
  20
4669169.801
  0
SEQEND
  8
Unknown_Area_Type
  0
INSERT
  8
FeatureAttribs
  2
FEATURE
  41
1
  42
1
  43
1
  50
0
  10
378576.227
  20
4667842.875
 66
1
  0
ATTRIB
  8
FeatureAttribs
 70
0
  1
PNOA-H_AMS_1956-57_33k_ES_PAN_2
  2
NAME
  10
378576.227
  20
4667842.875
 40
33.69289
  0
SEQEND
  0
POLYLINE
  8
Unknown_Area_Type
  70
1
  66
1
  0
VERTEX
  8
Unknown_Area_Type
  10
379968.246
  20
4669303.399
  0
VERTEX
  8
Unknown_Area_Type
  10
379909.500
  20
4666432.000
  0
VERTEX
  8
Unknown_Area_Type
  10
379909.000
  20
4666424.500
  0
VERTEX
  8
Unknown_Area_Type
  10
379907.500
  20
4666424.000
  0
VERTEX
  8
Unknown_Area_Type
  10
377575.000
  20
4666285.000
  0
VERTEX
  8
Unknown_Area_Type
  10
377206.500
  20
4666491.500
  0
VERTEX
  8
Unknown_Area_Type
  10
377261.722
  20
4669349.925
  0
VERTEX
  8
Unknown_Area_Type
  10
377817.751
  20
4669340.151
  0
VERTEX
  8
Unknown_Area_Type
  10
379968.246
  20
4669303.399
  0
SEQEND
  8
Unknown_Area_Type
  0
INSERT
  8
FeatureAttribs
  2
FEATURE
  41
1
  42
1
  43
1
  50
0
  10
378576.227
  20
4667842.875
 66
1
  0
ATTRIB
  8
FeatureAttribs
 70
0
  1
PNOA-H_AMS_1956-57_33k_ES_PAN_2
  2
NAME
  10
378576.227
  20
4667842.875
 40
33.69289
  0
SEQEND
  0
POLYLINE
  8
Unknown_Area_Type
  70
1
  66
1
  0
VERTEX
  8
Unknown_Area_Type
  10
379968.246
  20
4669303.399
  0
VERTEX
  8
Unknown_Area_Type
  10
377817.751
  20
4669340.151
  0
VERTEX
  8
Unknown_Area_Type
  10
377261.722
  20
4669349.925
  0
VERTEX
  8
Unknown_Area_Type
  10
377206.500
  20
4666491.500
  0
VERTEX
  8
Unknown_Area_Type
  10
377575.000
  20
4666285.000
  0
VERTEX
  8
Unknown_Area_Type
  10
379907.500
  20
4666424.000
  0
VERTEX
  8
Unknown_Area_Type
  10
379909.000
  20
4666424.500
  0
VERTEX
  8
Unknown_Area_Type
  10
379909.500
  20
4666432.000
  0
VERTEX
  8
Unknown_Area_Type
  10
379968.246
  20
4669303.399
  0
SEQEND
  8
Unknown_Area_Type
  0
INSERT
  8
FeatureAttribs
  2
FEATURE
  41
1
  42
1
  43
1
  50
0
  10
395172.452
  20
4667955.208
 66
1
  0
ATTRIB
  8
FeatureAttribs
 70
0
  1
PNOA-H_AMS_1956-57_33k_ES_PAN_2
  2
NAME
  10
395172.452
  20
4667955.208
 40
33.69289
  0
SEQEND
  0
POLYLINE
  8
Unknown_Area_Type
  70
1
  66
1
  0
VERTEX
  8
Unknown_Area_Type
  10
396580.321
  20
4669040.108
  0
VERTEX
  8
Unknown_Area_Type
  10
396587.000
  20
4666919.500
  0
VERTEX
  8
Unknown_Area_Type
  10
396413.500
  20
4666801.000
  0
VERTEX
  8
Unknown_Area_Type
  10
393756.500
  20
4666897.000
  0
VERTEX
  8
Unknown_Area_Type
  10
393749.325
  20
4669082.199
  0
VERTEX
  8
Unknown_Area_Type
  10
395026.825
  20
4669062.863
  0
VERTEX
  8
Unknown_Area_Type
  10
396580.321
  20
4669040.108
  0
SEQEND
  8
Unknown_Area_Type
  0
INSERT
  8
FeatureAttribs
  2
FEATURE
  41
1
  42
1
  43
1
  50
0
  10
395172.452
  20
4667955.208
 66
1
  0
ATTRIB
  8
FeatureAttribs
 70
0
  1
PNOA-H_AMS_1956-57_33k_ES_PAN_2
  2
NAME
  10
395172.452
  20
4667955.208
 40
33.69289
  0
SEQEND
  0
POLYLINE
  8
Unknown_Area_Type
  70
1
  66
1
  0
VERTEX
  8
Unknown_Area_Type
  10
396580.321
  20
4669040.108
  0
VERTEX
  8
Unknown_Area_Type
  10
395026.825
  20
4669062.863
  0
VERTEX
  8
Unknown_Area_Type
  10
393749.325
  20
4669082.199
  0
VERTEX
  8
Unknown_Area_Type
  10
393756.500
  20
4666897.000
  0
VERTEX
  8
Unknown_Area_Type
  10
396413.500
  20
4666801.000
  0
VERTEX
  8
Unknown_Area_Type
  10
396587.000
  20
4666919.500
  0
VERTEX
  8
Unknown_Area_Type
  10
396580.321
  20
4669040.108
  0
SEQEND
  8
Unknown_Area_Type
  0
INSERT
  8
FeatureAttribs
  2
FEATURE
  41
1
  42
1
  43
1
  50
0
  10
383963.096
  20
4667785.553
 66
1
  0
ATTRIB
  8
FeatureAttribs
 70
0
  1
PNOA-H_AMS_1956-57_33k_ES_PAN_2
  2
NAME
  10
383963.096
  20
4667785.553
 40
33.69289
  0
SEQEND
  0
POLYLINE
  8
Unknown_Area_Type
  70
1
  66
1
  0
VERTEX
  8
Unknown_Area_Type
  10
385309.427
  20
4669214.395
  0
VERTEX
  8
Unknown_Area_Type
  10
385321.000
  20
4668691.500
  0
VERTEX
  8
Unknown_Area_Type
  10
385321.000
  20
4668680.000
  0
VERTEX
  8
Unknown_Area_Type
  10
385370.000
  20
4666463.500
  0
VERTEX
  8
Unknown_Area_Type
  10
383098.500
  20
4666222.500
  0
VERTEX
  8
Unknown_Area_Type
  10
383095.000
  20
4666222.500
  0
VERTEX
  8
Unknown_Area_Type
  10
383087.500
  20
4666226.000
  0
VERTEX
  8
Unknown_Area_Type
  10
382634.500
  20
4666446.500
  0
VERTEX
  8
Unknown_Area_Type
  10
382601.839
  20
4669259.047
  0
VERTEX
  8
Unknown_Area_Type
  10
384701.399
  20
4669224.192
  0
VERTEX
  8
Unknown_Area_Type
  10
385309.427
  20
4669214.395
  0
SEQEND
  8
Unknown_Area_Type
  0
INSERT
  8
FeatureAttribs
  2
FEATURE
  41
1
  42
1
  43
1
  50
0
  10
383963.096
  20
4667785.553
 66
1
  0
ATTRIB
  8
FeatureAttribs
 70
0
  1
PNOA-H_AMS_1956-57_33k_ES_PAN_2
  2
NAME
  10
383963.096
  20
4667785.553
 40
33.69289
  0
SEQEND
  0
POLYLINE
  8
Unknown_Area_Type
  70
1
  66
1
  0
VERTEX
  8
Unknown_Area_Type
  10
385309.427
  20
4669214.395
  0
VERTEX
  8
Unknown_Area_Type
  10
384701.399
  20
4669224.192
  0
VERTEX
  8
Unknown_Area_Type
  10
382601.839
  20
4669259.047
  0
VERTEX
  8
Unknown_Area_Type
  10
382634.500
  20
4666446.500
  0
VERTEX
  8
Unknown_Area_Type
  10
383087.500
  20
4666226.000
  0
VERTEX
  8
Unknown_Area_Type
  10
383095.000
  20
4666222.500
  0
VERTEX
  8
Unknown_Area_Type
  10
383098.500
  20
4666222.500
  0
VERTEX
  8
Unknown_Area_Type
  10
385370.000
  20
4666463.500
  0
VERTEX
  8
Unknown_Area_Type
  10
385321.000
  20
4668680.000
  0
VERTEX
  8
Unknown_Area_Type
  10
385321.000
  20
4668691.500
  0
VERTEX
  8
Unknown_Area_Type
  10
385309.427
  20
4669214.395
  0
SEQEND
  8
Unknown_Area_Type
  0
INSERT
  8
FeatureAttribs
  2
FEATURE
  41
1
  42
1
  43
1
  50
0
  10
401902.609
  20
4667839.608
 66
1
  0
ATTRIB
  8
FeatureAttribs
 70
0
  1
PNOA-H_AMS_1956-57_33k_ES_PAN_2
  2
NAME
  10
401902.609
  20
4667839.608
 40
33.69289
  0
SEQEND
  0
POLYLINE
  8
Unknown_Area_Type
  70
1
  66
1
  0
VERTEX
  8
Unknown_Area_Type
  10
401910.443
  20
4666728.641
  0
VERTEX
  8
Unknown_Area_Type
  10
401890.500
  20
4666715.500
  0
VERTEX
  8
Unknown_Area_Type
  10
401879.152
  20
4666716.599
  0
VERTEX
  8
Unknown_Area_Type
  10
401910.415
  20
4668963.715
  0
VERTEX
  8
Unknown_Area_Type
  10
401910.443
  20
4668963.715
  0
VERTEX
  8
Unknown_Area_Type
  10
401910.443
  20
4666728.641
  0
SEQEND
  8
Unknown_Area_Type
  0
INSERT
  8
FeatureAttribs
  2
FEATURE
  41
1
  42
1
  43
1
  50
0
  10
400657.250
  20
4667909.760
 66
1
  0
ATTRIB
  8
FeatureAttribs
 70
0
  1
PNOA-H_AMS_1956-57_33k_ES_PAN_2
  2
NAME
  10
400657.250
  20
4667909.760
 40
33.69289
  0
SEQEND
  0
POLYLINE
  8
Unknown_Area_Type
  70
1
  66
1
  0
VERTEX
  8
Unknown_Area_Type
  10
401879.152
  20
4666716.599
  0
VERTEX
  8
Unknown_Area_Type
  10
399372.000
  20
4666959.500
  0
VERTEX
  8
Unknown_Area_Type
  10
399386.019
  20
4668999.459
  0
VERTEX
  8
Unknown_Area_Type
  10
401910.415
  20
4668963.715
  0
VERTEX
  8
Unknown_Area_Type
  10
401879.152
  20
4666716.599
  0
SEQEND
  8
Unknown_Area_Type
  0
INSERT
  8
FeatureAttribs
  2
FEATURE
  41
1
  42
1
  43
1
  50
0
  10
400657.250
  20
4667909.760
 66
1
  0
ATTRIB
  8
FeatureAttribs
 70
0
  1
PNOA-H_AMS_1956-57_33k_ES_PAN_2
  2
NAME
  10
400657.250
  20
4667909.760
 40
33.69289
  0
SEQEND
  0
POLYLINE
  8
Unknown_Area_Type
  70
1
  66
1
  0
VERTEX
  8
Unknown_Area_Type
  10
401879.152
  20
4666716.599
  0
VERTEX
  8
Unknown_Area_Type
  10
401910.415
  20
4668963.715
  0
VERTEX
  8
Unknown_Area_Type
  10
399386.019
  20
4668999.459
  0
VERTEX
  8
Unknown_Area_Type
  10
399372.000
  20
4666959.500
  0
VERTEX
  8
Unknown_Area_Type
  10
401879.152
  20
4666716.599
  0
SEQEND
  8
Unknown_Area_Type
  0
INSERT
  8
FeatureAttribs
  2
FEATURE
  41
1
  42
1
  43
1
  50
0
  10
381261.326
  20
4667794.353
 66
1
  0
ATTRIB
  8
FeatureAttribs
 70
0
  1
PNOA-H_AMS_1956-57_33k_ES_PAN_2
  2
NAME
  10
381261.326
  20
4667794.353
 40
33.69289
  0
SEQEND
  0
POLYLINE
  8
Unknown_Area_Type
  70
1
  66
1
  0
VERTEX
  8
Unknown_Area_Type
  10
382602.024
  20
4669259.044
  0
VERTEX
  8
Unknown_Area_Type
  10
382634.000
  20
4666486.500
  0
VERTEX
  8
Unknown_Area_Type
  10
382634.000
  20
4666447.000
  0
VERTEX
  8
Unknown_Area_Type
  10
382633.000
  20
4666446.500
  0
VERTEX
  8
Unknown_Area_Type
  10
380335.500
  20
4666210.000
  0
VERTEX
  8
Unknown_Area_Type
  10
380333.000
  20
4666210.000
  0
VERTEX
  8
Unknown_Area_Type
  10
380323.000
  20
4666215.000
  0
VERTEX
  8
Unknown_Area_Type
  10
379909.000
  20
4666424.500
  0
VERTEX
  8
Unknown_Area_Type
  10
379968.137
  20
4669303.401
  0
VERTEX
  8
Unknown_Area_Type
  10
381259.578
  20
4669281.331
  0
VERTEX
  8
Unknown_Area_Type
  10
382602.024
  20
4669259.044
  0
SEQEND
  8
Unknown_Area_Type
  0
INSERT
  8
FeatureAttribs
  2
FEATURE
  41
1
  42
1
  43
1
  50
0
  10
381261.326
  20
4667794.353
 66
1
  0
ATTRIB
  8
FeatureAttribs
 70
0
  1
PNOA-H_AMS_1956-57_33k_ES_PAN_2
  2
NAME
  10
381261.326
  20
4667794.353
 40
33.69289
  0
SEQEND
  0
POLYLINE
  8
Unknown_Area_Type
  70
1
  66
1
  0
VERTEX
  8
Unknown_Area_Type
  10
382602.024
  20
4669259.044
  0
VERTEX
  8
Unknown_Area_Type
  10
381259.578
  20
4669281.331
  0
VERTEX
  8
Unknown_Area_Type
  10
379968.137
  20
4669303.401
  0
VERTEX
  8
Unknown_Area_Type
  10
379909.000
  20
4666424.500
  0
VERTEX
  8
Unknown_Area_Type
  10
380323.000
  20
4666215.000
  0
VERTEX
  8
Unknown_Area_Type
  10
380333.000
  20
4666210.000
  0
VERTEX
  8
Unknown_Area_Type
  10
380335.500
  20
4666210.000
  0
VERTEX
  8
Unknown_Area_Type
  10
382633.000
  20
4666446.500
  0
VERTEX
  8
Unknown_Area_Type
  10
382634.000
  20
4666447.000
  0
VERTEX
  8
Unknown_Area_Type
  10
382634.000
  20
4666486.500
  0
VERTEX
  8
Unknown_Area_Type
  10
382602.024
  20
4669259.044
  0
SEQEND
  8
Unknown_Area_Type
  0
INSERT
  8
FeatureAttribs
  2
FEATURE
  41
1
  42
1
  43
1
  50
0
  10
392281.250
  20
4667757.456
 66
1
  0
ATTRIB
  8
FeatureAttribs
 70
0
  1
PNOA-H_AMS_1956-57_33k_ES_PAN_2
  2
NAME
  10
392281.250
  20
4667757.456
 40
33.69289
  0
SEQEND
  0
POLYLINE
  8
Unknown_Area_Type
  70
1
  66
1
  0
VERTEX
  8
Unknown_Area_Type
  10
393749.324
  20
4669082.199
  0
VERTEX
  8
Unknown_Area_Type
  10
393756.500
  20
4666896.500
  0
VERTEX
  8
Unknown_Area_Type
  10
393117.500
  20
4666419.000
  0
VERTEX
  8
Unknown_Area_Type
  10
391311.500
  20
4666270.500
  0
VERTEX
  8
Unknown_Area_Type
  10
391309.000
  20
4666270.500
  0
VERTEX
  8
Unknown_Area_Type
  10
391297.500
  20
4666276.000
  0
VERTEX
  8
Unknown_Area_Type
  10
390890.500
  20
4666476.000
  0
VERTEX
  8
Unknown_Area_Type
  10
390878.692
  20
4669125.994
  0
VERTEX
  8
Unknown_Area_Type
  10
391585.022
  20
4669114.958
  0
VERTEX
  8
Unknown_Area_Type
  10
393749.324
  20
4669082.199
  0
SEQEND
  8
Unknown_Area_Type
  0
INSERT
  8
FeatureAttribs
  2
FEATURE
  41
1
  42
1
  43
1
  50
0
  10
392281.250
  20
4667757.456
 66
1
  0
ATTRIB
  8
FeatureAttribs
 70
0
  1
PNOA-H_AMS_1956-57_33k_ES_PAN_2
  2
NAME
  10
392281.250
  20
4667757.456
 40
33.69289
  0
SEQEND
  0
POLYLINE
  8
Unknown_Area_Type
  70
1
  66
1
  0
VERTEX
  8
Unknown_Area_Type
  10
393749.324
  20
4669082.199
  0
VERTEX
  8
Unknown_Area_Type
  10
391585.022
  20
4669114.958
  0
VERTEX
  8
Unknown_Area_Type
  10
390878.692
  20
4669125.994
  0
VERTEX
  8
Unknown_Area_Type
  10
390890.500
  20
4666476.000
  0
VERTEX
  8
Unknown_Area_Type
  10
391297.500
  20
4666276.000
  0
VERTEX
  8
Unknown_Area_Type
  10
391309.000
  20
4666270.500
  0
VERTEX
  8
Unknown_Area_Type
  10
391311.500
  20
4666270.500
  0
VERTEX
  8
Unknown_Area_Type
  10
393117.500
  20
4666419.000
  0
VERTEX
  8
Unknown_Area_Type
  10
393756.500
  20
4666896.500
  0
VERTEX
  8
Unknown_Area_Type
  10
393749.324
  20
4669082.199
  0
SEQEND
  8
Unknown_Area_Type
  0
INSERT
  8
FeatureAttribs
  2
FEATURE
  41
1
  42
1
  43
1
  50
0
  10
374411.873
  20
4667969.301
 66
1
  0
ATTRIB
  8
FeatureAttribs
 70
0
  1
PNOA-H_AMS_1956-57_33k_ES_PAN_2
  2
NAME
  10
374411.873
  20
4667969.301
 40
33.69289
  0
SEQEND
  0
POLYLINE
  8
Unknown_Area_Type
  70
1
  66
1
  0
VERTEX
  8
Unknown_Area_Type
  10
374500.222
  20
4669398.468
  0
VERTEX
  8
Unknown_Area_Type
  10
374446.500
  20
4666543.000
  0
VERTEX
  8
Unknown_Area_Type
  10
374324.910
  20
4666537.950
  0
VERTEX
  8
Unknown_Area_Type
  10
374334.697
  20
4667087.406
  0
VERTEX
  8
Unknown_Area_Type
  10
374375.917
  20
4669400.653
  0
VERTEX
  8
Unknown_Area_Type
  10
374500.222
  20
4669398.468
  0
SEQEND
  8
Unknown_Area_Type
  0
INSERT
  8
FeatureAttribs
  2
FEATURE
  41
1
  42
1
  43
1
  50
0
  10
374411.873
  20
4667969.301
 66
1
  0
ATTRIB
  8
FeatureAttribs
 70
0
  1
PNOA-H_AMS_1956-57_33k_ES_PAN_2
  2
NAME
  10
374411.873
  20
4667969.301
 40
33.69289
  0
SEQEND
  0
POLYLINE
  8
Unknown_Area_Type
  70
1
  66
1
  0
VERTEX
  8
Unknown_Area_Type
  10
374500.222
  20
4669398.468
  0
VERTEX
  8
Unknown_Area_Type
  10
374446.500
  20
4666543.000
  0
VERTEX
  8
Unknown_Area_Type
  10
374324.910
  20
4666537.950
  0
VERTEX
  8
Unknown_Area_Type
  10
374334.697
  20
4667087.406
  0
VERTEX
  8
Unknown_Area_Type
  10
374375.917
  20
4669400.653
  0
VERTEX
  8
Unknown_Area_Type
  10
374500.222
  20
4669398.468
  0
SEQEND
  8
Unknown_Area_Type
  0
INSERT
  8
FeatureAttribs
  2
FEATURE
  41
1
  42
1
  43
1
  50
0
  10
374198.453
  20
4667963.531
 66
1
  0
ATTRIB
  8
FeatureAttribs
 70
0
  1
PNOA-H_AMS_1956-57_33k_ES_PAN_2
  2
NAME
  10
374198.453
  20
4667963.531
 40
33.69289
  0
SEQEND
  0
POLYLINE
  8
Unknown_Area_Type
  70
1
  66
1
  0
VERTEX
  8
Unknown_Area_Type
  10
374324.910
  20
4666537.950
  0
VERTEX
  8
Unknown_Area_Type
  10
374046.598
  20
4666526.391
  0
VERTEX
  8
Unknown_Area_Type
  10
374046.598
  20
4669400.672
  0
VERTEX
  8
Unknown_Area_Type
  10
374374.868
  20
4669400.672
  0
VERTEX
  8
Unknown_Area_Type
  10
374375.917
  20
4669400.653
  0
VERTEX
  8
Unknown_Area_Type
  10
374334.697
  20
4667087.406
  0
VERTEX
  8
Unknown_Area_Type
  10
374324.910
  20
4666537.950
  0
SEQEND
  8
Unknown_Area_Type
  0
INSERT
  8
FeatureAttribs
  2
FEATURE
  41
1
  42
1
  43
1
  50
0
  10
397986.607
  20
4667940.919
 66
1
  0
ATTRIB
  8
FeatureAttribs
 70
0
  1
PNOA-H_AMS_1956-57_33k_ES_PAN_2
  2
NAME
  10
397986.607
  20
4667940.919
 40
33.69289
  0
SEQEND
  0
POLYLINE
  8
Unknown_Area_Type
  70
1
  66
1
  0
VERTEX
  8
Unknown_Area_Type
  10
399386.017
  20
4668999.459
  0
VERTEX
  8
Unknown_Area_Type
  10
399372.000
  20
4666959.500
  0
VERTEX
  8
Unknown_Area_Type
  10
399128.500
  20
4666797.000
  0
VERTEX
  8
Unknown_Area_Type
  10
396587.000
  20
4666919.500
  0
VERTEX
  8
Unknown_Area_Type
  10
396580.321
  20
4669040.108
  0
VERTEX
  8
Unknown_Area_Type
  10
398468.623
  20
4669012.449
  0
VERTEX
  8
Unknown_Area_Type
  10
399386.017
  20
4668999.459
  0
SEQEND
  8
Unknown_Area_Type
  0
INSERT
  8
FeatureAttribs
  2
FEATURE
  41
1
  42
1
  43
1
  50
0
  10
397986.607
  20
4667940.919
 66
1
  0
ATTRIB
  8
FeatureAttribs
 70
0
  1
PNOA-H_AMS_1956-57_33k_ES_PAN_2
  2
NAME
  10
397986.607
  20
4667940.919
 40
33.69289
  0
SEQEND
  0
POLYLINE
  8
Unknown_Area_Type
  70
1
  66
1
  0
VERTEX
  8
Unknown_Area_Type
  10
399386.017
  20
4668999.459
  0
VERTEX
  8
Unknown_Area_Type
  10
398468.623
  20
4669012.449
  0
VERTEX
  8
Unknown_Area_Type
  10
396580.321
  20
4669040.108
  0
VERTEX
  8
Unknown_Area_Type
  10
396587.000
  20
4666919.500
  0
VERTEX
  8
Unknown_Area_Type
  10
399128.500
  20
4666797.000
  0
VERTEX
  8
Unknown_Area_Type
  10
399372.000
  20
4666959.500
  0
VERTEX
  8
Unknown_Area_Type
  10
399386.017
  20
4668999.459
  0
SEQEND
  8
Unknown_Area_Type
  0
INSERT
  8
FeatureAttribs
  2
FEATURE
  41
1
  42
1
  43
1
  50
0
  10
389460.809
  20
4667747.650
 66
1
  0
ATTRIB
  8
FeatureAttribs
 70
0
  1
PNOA-H_AMS_1956-57_33k_ES_PAN_2
  2
NAME
  10
389460.809
  20
4667747.650
 40
33.69289
  0
SEQEND
  0
POLYLINE
  8
Unknown_Area_Type
  70
1
  66
1
  0
VERTEX
  8
Unknown_Area_Type
  10
390878.722
  20
4669125.993
  0
VERTEX
  8
Unknown_Area_Type
  10
390889.500
  20
4666717.500
  0
VERTEX
  8
Unknown_Area_Type
  10
390889.500
  20
4666632.000
  0
VERTEX
  8
Unknown_Area_Type
  10
390890.000
  20
4666476.000
  0
VERTEX
  8
Unknown_Area_Type
  10
388567.000
  20
4666230.000
  0
VERTEX
  8
Unknown_Area_Type
  10
388564.500
  20
4666230.000
  0
VERTEX
  8
Unknown_Area_Type
  10
388065.000
  20
4666480.000
  0
VERTEX
  8
Unknown_Area_Type
  10
388076.999
  20
4669169.801
  0
VERTEX
  8
Unknown_Area_Type
  10
388143.213
  20
4669168.734
  0
VERTEX
  8
Unknown_Area_Type
  10
390878.722
  20
4669125.993
  0
SEQEND
  8
Unknown_Area_Type
  0
INSERT
  8
FeatureAttribs
  2
FEATURE
  41
1
  42
1
  43
1
  50
0
  10
389460.809
  20
4667747.650
 66
1
  0
ATTRIB
  8
FeatureAttribs
 70
0
  1
PNOA-H_AMS_1956-57_33k_ES_PAN_2
  2
NAME
  10
389460.809
  20
4667747.650
 40
33.69289
  0
SEQEND
  0
POLYLINE
  8
Unknown_Area_Type
  70
1
  66
1
  0
VERTEX
  8
Unknown_Area_Type
  10
390878.722
  20
4669125.993
  0
VERTEX
  8
Unknown_Area_Type
  10
388143.213
  20
4669168.734
  0
VERTEX
  8
Unknown_Area_Type
  10
388076.999
  20
4669169.801
  0
VERTEX
  8
Unknown_Area_Type
  10
388065.000
  20
4666480.000
  0
VERTEX
  8
Unknown_Area_Type
  10
388564.500
  20
4666230.000
  0
VERTEX
  8
Unknown_Area_Type
  10
388567.000
  20
4666230.000
  0
VERTEX
  8
Unknown_Area_Type
  10
390890.000
  20
4666476.000
  0
VERTEX
  8
Unknown_Area_Type
  10
390889.500
  20
4666632.000
  0
VERTEX
  8
Unknown_Area_Type
  10
390889.500
  20
4666717.500
  0
VERTEX
  8
Unknown_Area_Type
  10
390878.722
  20
4669125.993
  0
SEQEND
  8
Unknown_Area_Type
  0
INSERT
  8
FeatureAttribs
  2
FEATURE
  41
1
  42
1
  43
1
  50
0
  10
394869.590
  20
4665691.460
 66
1
  0
ATTRIB
  8
FeatureAttribs
 70
0
  1
PNOA-H_AMS_1956-57_33k_ES_PAN_2
  2
NAME
  10
394869.590
  20
4665691.460
 40
33.69289
  0
SEQEND
  0
POLYLINE
  8
Unknown_Area_Type
  70
1
  66
1
  0
VERTEX
  8
Unknown_Area_Type
  10
394898.000
  20
4666855.500
  0
VERTEX
  8
Unknown_Area_Type
  10
396413.000
  20
4666801.000
  0
VERTEX
  8
Unknown_Area_Type
  10
396423.500
  20
4664928.500
  0
VERTEX
  8
Unknown_Area_Type
  10
394048.000
  20
4664061.500
  0
VERTEX
  8
Unknown_Area_Type
  10
394046.500
  20
4664061.500
  0
VERTEX
  8
Unknown_Area_Type
  10
394043.500
  20
4664068.500
  0
VERTEX
  8
Unknown_Area_Type
  10
393117.500
  20
4666419.500
  0
VERTEX
  8
Unknown_Area_Type
  10
393756.500
  20
4666897.000
  0
VERTEX
  8
Unknown_Area_Type
  10
394892.000
  20
4666855.500
  0
VERTEX
  8
Unknown_Area_Type
  10
394898.000
  20
4666855.500
  0
SEQEND
  8
Unknown_Area_Type
  0
INSERT
  8
FeatureAttribs
  2
FEATURE
  41
1
  42
1
  43
1
  50
0
  10
394869.590
  20
4665691.460
 66
1
  0
ATTRIB
  8
FeatureAttribs
 70
0
  1
PNOA-H_AMS_1956-57_33k_ES_PAN_2
  2
NAME
  10
394869.590
  20
4665691.460
 40
33.69289
  0
SEQEND
  0
POLYLINE
  8
Unknown_Area_Type
  70
1
  66
1
  0
VERTEX
  8
Unknown_Area_Type
  10
394898.000
  20
4666855.500
  0
VERTEX
  8
Unknown_Area_Type
  10
394892.000
  20
4666855.500
  0
VERTEX
  8
Unknown_Area_Type
  10
393756.500
  20
4666897.000
  0
VERTEX
  8
Unknown_Area_Type
  10
393117.500
  20
4666419.500
  0
VERTEX
  8
Unknown_Area_Type
  10
394043.500
  20
4664068.500
  0
VERTEX
  8
Unknown_Area_Type
  10
394046.500
  20
4664061.500
  0
VERTEX
  8
Unknown_Area_Type
  10
394048.000
  20
4664061.500
  0
VERTEX
  8
Unknown_Area_Type
  10
396423.500
  20
4664928.500
  0
VERTEX
  8
Unknown_Area_Type
  10
396413.000
  20
4666801.000
  0
VERTEX
  8
Unknown_Area_Type
  10
394898.000
  20
4666855.500
  0
SEQEND
  8
Unknown_Area_Type
  0
ENDSEC
  0
EOF
