  0
SECTION
  2
HEADER
  9
$ACADVER
  1
AC1009
  9
$LUNITS
  70
2
  9
$LIMMIN
  10
346439.446
  20
4650894.880
  9
$LIMMAX
  10
374375.945
  20
4669945.228
  9
$EXTMIN
  10
346439.446
  20
4650894.880
  9
$EXTMAX
  10
374375.945
  20
4669945.228
  999
Created by Global Mapper
  999
Projection: UTM
  999
Datum: ETRS89
  999
Ground Units: meters
  999
ZONE: 30
  0
ENDSEC
  0
SECTION
  2
TABLES
  0
ENDSEC
  0
SECTION
  2
BLOCKS
  0
BLOCK
  8
FeatureAttribs
  70
0
  2
FEATURE
  3
FEATURE
  10
0.00000000
  20
0.00000000
  0
ATTDEF
  8
FeatureAttribs
  70
0
  1
 
  2
NAME
  3
NAME
  10
0.00000000
  20
0.00000000
  40
1.00000000
  0
ENDBLK
  0
ENDSEC
  0
SECTION
  2
ENTITIES
  0
INSERT
  8
FeatureAttribs
  2
FEATURE
  41
1
  42
1
  43
1
  50
0
  10
368631.576
  20
4650958.080
 66
1
  0
ATTRIB
  8
FeatureAttribs
 70
0
  1
PNOA-H_AMS_1956-57_33k_ES_PAN_2
  2
NAME
  10
368631.576
  20
4650958.080
 40
33.81366
  0
SEQEND
  0
POLYLINE
  8
Unknown_Area_Type
  70
1
  66
1
  0
VERTEX
  8
Unknown_Area_Type
  10
370140.036
  20
4650894.880
  0
VERTEX
  8
Unknown_Area_Type
  10
367120.303
  20
4650894.880
  0
VERTEX
  8
Unknown_Area_Type
  10
367123.389
  20
4651021.280
  0
VERTEX
  8
Unknown_Area_Type
  10
367144.884
  20
4651020.872
  0
VERTEX
  8
Unknown_Area_Type
  10
370141.455
  20
4650965.448
  0
VERTEX
  8
Unknown_Area_Type
  10
370140.036
  20
4650894.880
  0
SEQEND
  8
Unknown_Area_Type
  0
INSERT
  8
FeatureAttribs
  2
FEATURE
  41
1
  42
1
  43
1
  50
0
  10
368656.004
  20
4652074.960
 66
1
  0
ATTRIB
  8
FeatureAttribs
 70
0
  1
PNOA-H_AMS_1956-57_33k_ES_PAN_2
  2
NAME
  10
368656.004
  20
4652074.960
 40
33.81366
  0
SEQEND
  0
POLYLINE
  8
Unknown_Area_Type
  70
1
  66
1
  0
VERTEX
  8
Unknown_Area_Type
  10
370141.455
  20
4650965.448
  0
VERTEX
  8
Unknown_Area_Type
  10
367144.884
  20
4651020.872
  0
VERTEX
  8
Unknown_Area_Type
  10
367123.389
  20
4651021.280
  0
VERTEX
  8
Unknown_Area_Type
  10
367170.000
  20
4652930.500
  0
VERTEX
  8
Unknown_Area_Type
  10
368565.000
  20
4653380.500
  0
VERTEX
  8
Unknown_Area_Type
  10
368567.000
  20
4653381.000
  0
VERTEX
  8
Unknown_Area_Type
  10
370180.500
  20
4652907.000
  0
VERTEX
  8
Unknown_Area_Type
  10
370141.455
  20
4650965.448
  0
SEQEND
  8
Unknown_Area_Type
  0
INSERT
  8
FeatureAttribs
  2
FEATURE
  41
1
  42
1
  43
1
  50
0
  10
368656.004
  20
4652074.960
 66
1
  0
ATTRIB
  8
FeatureAttribs
 70
0
  1
PNOA-H_AMS_1956-57_33k_ES_PAN_2
  2
NAME
  10
368656.004
  20
4652074.960
 40
33.81366
  0
SEQEND
  0
POLYLINE
  8
Unknown_Area_Type
  70
1
  66
1
  0
VERTEX
  8
Unknown_Area_Type
  10
370141.455
  20
4650965.448
  0
VERTEX
  8
Unknown_Area_Type
  10
370180.500
  20
4652907.000
  0
VERTEX
  8
Unknown_Area_Type
  10
368567.000
  20
4653381.000
  0
VERTEX
  8
Unknown_Area_Type
  10
368565.000
  20
4653380.500
  0
VERTEX
  8
Unknown_Area_Type
  10
367170.000
  20
4652930.500
  0
VERTEX
  8
Unknown_Area_Type
  10
367123.389
  20
4651021.280
  0
VERTEX
  8
Unknown_Area_Type
  10
367144.884
  20
4651020.872
  0
VERTEX
  8
Unknown_Area_Type
  10
370141.455
  20
4650965.448
  0
SEQEND
  8
Unknown_Area_Type
  0
INSERT
  8
FeatureAttribs
  2
FEATURE
  41
1
  42
1
  43
1
  50
0
  10
359676.910
  20
4651044.849
 66
1
  0
ATTRIB
  8
FeatureAttribs
 70
0
  1
PNOA-H_AMS_1956-57_33k_ES_PAN_2
  2
NAME
  10
359676.910
  20
4651044.849
 40
33.81366
  0
SEQEND
  0
POLYLINE
  8
Unknown_Area_Type
  70
1
  66
1
  0
VERTEX
  8
Unknown_Area_Type
  10
361177.995
  20
4650894.880
  0
VERTEX
  8
Unknown_Area_Type
  10
358161.857
  20
4650894.880
  0
VERTEX
  8
Unknown_Area_Type
  10
358176.127
  20
4651194.817
  0
VERTEX
  8
Unknown_Area_Type
  10
360243.113
  20
4651153.567
  0
VERTEX
  8
Unknown_Area_Type
  10
361188.942
  20
4651135.152
  0
VERTEX
  8
Unknown_Area_Type
  10
361177.995
  20
4650894.880
  0
SEQEND
  8
Unknown_Area_Type
  0
INSERT
  8
FeatureAttribs
  2
FEATURE
  41
1
  42
1
  43
1
  50
0
  10
359692.941
  20
4652026.414
 66
1
  0
ATTRIB
  8
FeatureAttribs
 70
0
  1
PNOA-H_AMS_1956-57_33k_ES_PAN_2
  2
NAME
  10
359692.941
  20
4652026.414
 40
33.81366
  0
SEQEND
  0
POLYLINE
  8
Unknown_Area_Type
  70
1
  66
1
  0
VERTEX
  8
Unknown_Area_Type
  10
361188.942
  20
4651135.152
  0
VERTEX
  8
Unknown_Area_Type
  10
360243.113
  20
4651153.567
  0
VERTEX
  8
Unknown_Area_Type
  10
358176.127
  20
4651194.817
  0
VERTEX
  8
Unknown_Area_Type
  10
358246.000
  20
4652663.500
  0
VERTEX
  8
Unknown_Area_Type
  10
359176.000
  20
4653134.000
  0
VERTEX
  8
Unknown_Area_Type
  10
360080.500
  20
4652900.000
  0
VERTEX
  8
Unknown_Area_Type
  10
360082.000
  20
4652900.000
  0
VERTEX
  8
Unknown_Area_Type
  10
361255.500
  20
4652596.000
  0
VERTEX
  8
Unknown_Area_Type
  10
361188.942
  20
4651135.152
  0
SEQEND
  8
Unknown_Area_Type
  0
INSERT
  8
FeatureAttribs
  2
FEATURE
  41
1
  42
1
  43
1
  50
0
  10
359692.941
  20
4652026.414
 66
1
  0
ATTRIB
  8
FeatureAttribs
 70
0
  1
PNOA-H_AMS_1956-57_33k_ES_PAN_2
  2
NAME
  10
359692.941
  20
4652026.414
 40
33.81366
  0
SEQEND
  0
POLYLINE
  8
Unknown_Area_Type
  70
1
  66
1
  0
VERTEX
  8
Unknown_Area_Type
  10
361188.942
  20
4651135.152
  0
VERTEX
  8
Unknown_Area_Type
  10
361255.500
  20
4652596.000
  0
VERTEX
  8
Unknown_Area_Type
  10
360082.000
  20
4652900.000
  0
VERTEX
  8
Unknown_Area_Type
  10
360080.500
  20
4652900.000
  0
VERTEX
  8
Unknown_Area_Type
  10
359176.000
  20
4653134.000
  0
VERTEX
  8
Unknown_Area_Type
  10
358246.000
  20
4652663.500
  0
VERTEX
  8
Unknown_Area_Type
  10
358176.127
  20
4651194.817
  0
VERTEX
  8
Unknown_Area_Type
  10
360243.113
  20
4651153.567
  0
VERTEX
  8
Unknown_Area_Type
  10
361188.942
  20
4651135.152
  0
SEQEND
  8
Unknown_Area_Type
  0
INSERT
  8
FeatureAttribs
  2
FEATURE
  41
1
  42
1
  43
1
  50
0
  10
371114.586
  20
4650930.164
 66
1
  0
ATTRIB
  8
FeatureAttribs
 70
0
  1
PNOA-H_AMS_1956-57_33k_ES_PAN_2
  2
NAME
  10
371114.586
  20
4650930.164
 40
33.81366
  0
SEQEND
  0
POLYLINE
  8
Unknown_Area_Type
  70
1
  66
1
  0
VERTEX
  8
Unknown_Area_Type
  10
373144.913
  20
4650911.138
  0
VERTEX
  8
Unknown_Area_Type
  10
373144.623
  20
4650894.880
  0
VERTEX
  8
Unknown_Area_Type
  10
370140.036
  20
4650894.880
  0
VERTEX
  8
Unknown_Area_Type
  10
370141.455
  20
4650965.448
  0
VERTEX
  8
Unknown_Area_Type
  10
370595.759
  20
4650957.045
  0
VERTEX
  8
Unknown_Area_Type
  10
373144.913
  20
4650911.138
  0
SEQEND
  8
Unknown_Area_Type
  0
INSERT
  8
FeatureAttribs
  2
FEATURE
  41
1
  42
1
  43
1
  50
0
  10
371651.943
  20
4652020.063
 66
1
  0
ATTRIB
  8
FeatureAttribs
 70
0
  1
PNOA-H_AMS_1956-57_33k_ES_PAN_2
  2
NAME
  10
371651.943
  20
4652020.063
 40
33.81366
  0
SEQEND
  0
POLYLINE
  8
Unknown_Area_Type
  70
1
  66
1
  0
VERTEX
  8
Unknown_Area_Type
  10
373144.913
  20
4650911.138
  0
VERTEX
  8
Unknown_Area_Type
  10
370595.759
  20
4650957.045
  0
VERTEX
  8
Unknown_Area_Type
  10
370141.455
  20
4650965.448
  0
VERTEX
  8
Unknown_Area_Type
  10
370180.500
  20
4652907.000
  0
VERTEX
  8
Unknown_Area_Type
  10
370319.000
  20
4652956.000
  0
VERTEX
  8
Unknown_Area_Type
  10
370320.500
  20
4652956.500
  0
VERTEX
  8
Unknown_Area_Type
  10
371348.500
  20
4653317.000
  0
VERTEX
  8
Unknown_Area_Type
  10
371353.000
  20
4653317.500
  0
VERTEX
  8
Unknown_Area_Type
  10
373179.500
  20
4652849.000
  0
VERTEX
  8
Unknown_Area_Type
  10
373144.913
  20
4650911.138
  0
SEQEND
  8
Unknown_Area_Type
  0
INSERT
  8
FeatureAttribs
  2
FEATURE
  41
1
  42
1
  43
1
  50
0
  10
371651.943
  20
4652020.063
 66
1
  0
ATTRIB
  8
FeatureAttribs
 70
0
  1
PNOA-H_AMS_1956-57_33k_ES_PAN_2
  2
NAME
  10
371651.943
  20
4652020.063
 40
33.81366
  0
SEQEND
  0
POLYLINE
  8
Unknown_Area_Type
  70
1
  66
1
  0
VERTEX
  8
Unknown_Area_Type
  10
373144.913
  20
4650911.138
  0
VERTEX
  8
Unknown_Area_Type
  10
373179.500
  20
4652849.000
  0
VERTEX
  8
Unknown_Area_Type
  10
371353.000
  20
4653317.500
  0
VERTEX
  8
Unknown_Area_Type
  10
371348.500
  20
4653317.000
  0
VERTEX
  8
Unknown_Area_Type
  10
370320.500
  20
4652956.500
  0
VERTEX
  8
Unknown_Area_Type
  10
370319.000
  20
4652956.000
  0
VERTEX
  8
Unknown_Area_Type
  10
370180.500
  20
4652907.000
  0
VERTEX
  8
Unknown_Area_Type
  10
370141.455
  20
4650965.448
  0
VERTEX
  8
Unknown_Area_Type
  10
370595.759
  20
4650957.045
  0
VERTEX
  8
Unknown_Area_Type
  10
373144.913
  20
4650911.138
  0
SEQEND
  8
Unknown_Area_Type
  0
INSERT
  8
FeatureAttribs
  2
FEATURE
  41
1
  42
1
  43
1
  50
0
  10
362667.730
  20
4651015.016
 66
1
  0
ATTRIB
  8
FeatureAttribs
 70
0
  1
PNOA-H_AMS_1956-57_33k_ES_PAN_2
  2
NAME
  10
362667.730
  20
4651015.016
 40
33.81366
  0
SEQEND
  0
POLYLINE
  8
Unknown_Area_Type
  70
1
  66
1
  0
VERTEX
  8
Unknown_Area_Type
  10
364148.312
  20
4650894.880
  0
VERTEX
  8
Unknown_Area_Type
  10
361178.005
  20
4650894.880
  0
VERTEX
  8
Unknown_Area_Type
  10
361188.950
  20
4651135.152
  0
VERTEX
  8
Unknown_Area_Type
  10
363694.003
  20
4651086.379
  0
VERTEX
  8
Unknown_Area_Type
  10
364153.898
  20
4651077.649
  0
VERTEX
  8
Unknown_Area_Type
  10
364148.312
  20
4650894.880
  0
SEQEND
  8
Unknown_Area_Type
  0
INSERT
  8
FeatureAttribs
  2
FEATURE
  41
1
  42
1
  43
1
  50
0
  10
362770.346
  20
4652140.699
 66
1
  0
ATTRIB
  8
FeatureAttribs
 70
0
  1
PNOA-H_AMS_1956-57_33k_ES_PAN_2
  2
NAME
  10
362770.346
  20
4652140.699
 40
33.81366
  0
SEQEND
  0
POLYLINE
  8
Unknown_Area_Type
  70
1
  66
1
  0
VERTEX
  8
Unknown_Area_Type
  10
364153.898
  20
4651077.649
  0
VERTEX
  8
Unknown_Area_Type
  10
363694.003
  20
4651086.379
  0
VERTEX
  8
Unknown_Area_Type
  10
361188.950
  20
4651135.152
  0
VERTEX
  8
Unknown_Area_Type
  10
361255.500
  20
4652596.000
  0
VERTEX
  8
Unknown_Area_Type
  10
362128.000
  20
4653106.500
  0
VERTEX
  8
Unknown_Area_Type
  10
362129.000
  20
4653107.000
  0
VERTEX
  8
Unknown_Area_Type
  10
362649.500
  20
4653411.500
  0
VERTEX
  8
Unknown_Area_Type
  10
362912.000
  20
4653480.000
  0
VERTEX
  8
Unknown_Area_Type
  10
364213.000
  20
4653011.500
  0
VERTEX
  8
Unknown_Area_Type
  10
364153.898
  20
4651077.649
  0
SEQEND
  8
Unknown_Area_Type
  0
INSERT
  8
FeatureAttribs
  2
FEATURE
  41
1
  42
1
  43
1
  50
0
  10
362770.346
  20
4652140.699
 66
1
  0
ATTRIB
  8
FeatureAttribs
 70
0
  1
PNOA-H_AMS_1956-57_33k_ES_PAN_2
  2
NAME
  10
362770.346
  20
4652140.699
 40
33.81366
  0
SEQEND
  0
POLYLINE
  8
Unknown_Area_Type
  70
1
  66
1
  0
VERTEX
  8
Unknown_Area_Type
  10
364153.898
  20
4651077.649
  0
VERTEX
  8
Unknown_Area_Type
  10
364213.000
  20
4653011.500
  0
VERTEX
  8
Unknown_Area_Type
  10
362912.000
  20
4653480.000
  0
VERTEX
  8
Unknown_Area_Type
  10
362649.500
  20
4653411.500
  0
VERTEX
  8
Unknown_Area_Type
  10
362129.000
  20
4653107.000
  0
VERTEX
  8
Unknown_Area_Type
  10
362128.000
  20
4653106.500
  0
VERTEX
  8
Unknown_Area_Type
  10
361255.500
  20
4652596.000
  0
VERTEX
  8
Unknown_Area_Type
  10
361188.950
  20
4651135.152
  0
VERTEX
  8
Unknown_Area_Type
  10
363694.003
  20
4651086.379
  0
VERTEX
  8
Unknown_Area_Type
  10
364153.898
  20
4651077.649
  0
SEQEND
  8
Unknown_Area_Type
  0
INSERT
  8
FeatureAttribs
  2
FEATURE
  41
1
  42
1
  43
1
  50
0
  10
365636.916
  20
4650986.265
 66
1
  0
ATTRIB
  8
FeatureAttribs
 70
0
  1
PNOA-H_AMS_1956-57_33k_ES_PAN_2
  2
NAME
  10
365636.916
  20
4650986.265
 40
33.81366
  0
SEQEND
  0
POLYLINE
  8
Unknown_Area_Type
  70
1
  66
1
  0
VERTEX
  8
Unknown_Area_Type
  10
367120.530
  20
4650894.880
  0
VERTEX
  8
Unknown_Area_Type
  10
364148.277
  20
4650894.880
  0
VERTEX
  8
Unknown_Area_Type
  10
364153.887
  20
4651077.649
  0
VERTEX
  8
Unknown_Area_Type
  10
367123.601
  20
4651021.276
  0
VERTEX
  8
Unknown_Area_Type
  10
367120.530
  20
4650894.880
  0
SEQEND
  8
Unknown_Area_Type
  0
INSERT
  8
FeatureAttribs
  2
FEATURE
  41
1
  42
1
  43
1
  50
0
  10
365665.378
  20
4652127.443
 66
1
  0
ATTRIB
  8
FeatureAttribs
 70
0
  1
PNOA-H_AMS_1956-57_33k_ES_PAN_2
  2
NAME
  10
365665.378
  20
4652127.443
 40
33.81366
  0
SEQEND
  0
POLYLINE
  8
Unknown_Area_Type
  70
1
  66
1
  0
VERTEX
  8
Unknown_Area_Type
  10
367123.601
  20
4651021.276
  0
VERTEX
  8
Unknown_Area_Type
  10
364153.887
  20
4651077.649
  0
VERTEX
  8
Unknown_Area_Type
  10
364177.500
  20
4651847.000
  0
VERTEX
  8
Unknown_Area_Type
  10
364177.500
  20
4651863.500
  0
VERTEX
  8
Unknown_Area_Type
  10
364213.000
  20
4653011.500
  0
VERTEX
  8
Unknown_Area_Type
  10
365701.000
  20
4653426.500
  0
VERTEX
  8
Unknown_Area_Type
  10
367170.000
  20
4652931.000
  0
VERTEX
  8
Unknown_Area_Type
  10
367123.601
  20
4651021.276
  0
SEQEND
  8
Unknown_Area_Type
  0
INSERT
  8
FeatureAttribs
  2
FEATURE
  41
1
  42
1
  43
1
  50
0
  10
365665.378
  20
4652127.443
 66
1
  0
ATTRIB
  8
FeatureAttribs
 70
0
  1
PNOA-H_AMS_1956-57_33k_ES_PAN_2
  2
NAME
  10
365665.378
  20
4652127.443
 40
33.81366
  0
SEQEND
  0
POLYLINE
  8
Unknown_Area_Type
  70
1
  66
1
  0
VERTEX
  8
Unknown_Area_Type
  10
367123.601
  20
4651021.276
  0
VERTEX
  8
Unknown_Area_Type
  10
367170.000
  20
4652931.000
  0
VERTEX
  8
Unknown_Area_Type
  10
365701.000
  20
4653426.500
  0
VERTEX
  8
Unknown_Area_Type
  10
364213.000
  20
4653011.500
  0
VERTEX
  8
Unknown_Area_Type
  10
364177.500
  20
4651863.500
  0
VERTEX
  8
Unknown_Area_Type
  10
364177.500
  20
4651847.000
  0
VERTEX
  8
Unknown_Area_Type
  10
364153.887
  20
4651077.649
  0
VERTEX
  8
Unknown_Area_Type
  10
367123.601
  20
4651021.276
  0
SEQEND
  8
Unknown_Area_Type
  0
INSERT
  8
FeatureAttribs
  2
FEATURE
  41
1
  42
1
  43
1
  50
0
  10
353659.630
  20
4651106.345
 66
1
  0
ATTRIB
  8
FeatureAttribs
 70
0
  1
PNOA-H_AMS_1956-57_33k_ES_PAN_2
  2
NAME
  10
353659.630
  20
4651106.345
 40
33.81366
  0
SEQEND
  0
POLYLINE
  8
Unknown_Area_Type
  70
1
  66
1
  0
VERTEX
  8
Unknown_Area_Type
  10
355161.378
  20
4650894.880
  0
VERTEX
  8
Unknown_Area_Type
  10
352141.160
  20
4650894.880
  0
VERTEX
  8
Unknown_Area_Type
  10
352155.316
  20
4651317.809
  0
VERTEX
  8
Unknown_Area_Type
  10
353341.310
  20
4651292.985
  0
VERTEX
  8
Unknown_Area_Type
  10
355177.820
  20
4651255.440
  0
VERTEX
  8
Unknown_Area_Type
  10
355161.378
  20
4650894.880
  0
SEQEND
  8
Unknown_Area_Type
  0
INSERT
  8
FeatureAttribs
  2
FEATURE
  41
1
  42
1
  43
1
  50
0
  10
353693.170
  20
4652212.187
 66
1
  0
ATTRIB
  8
FeatureAttribs
 70
0
  1
PNOA-H_AMS_1956-57_33k_ES_PAN_2
  2
NAME
  10
353693.170
  20
4652212.187
 40
33.81366
  0
SEQEND
  0
POLYLINE
  8
Unknown_Area_Type
  70
1
  66
1
  0
VERTEX
  8
Unknown_Area_Type
  10
355177.820
  20
4651255.440
  0
VERTEX
  8
Unknown_Area_Type
  10
353341.310
  20
4651292.985
  0
VERTEX
  8
Unknown_Area_Type
  10
352155.316
  20
4651317.809
  0
VERTEX
  8
Unknown_Area_Type
  10
352206.500
  20
4652847.000
  0
VERTEX
  8
Unknown_Area_Type
  10
353603.000
  20
4653430.000
  0
VERTEX
  8
Unknown_Area_Type
  10
353936.000
  20
4653296.500
  0
VERTEX
  8
Unknown_Area_Type
  10
353938.000
  20
4653296.000
  0
VERTEX
  8
Unknown_Area_Type
  10
355247.000
  20
4652772.500
  0
VERTEX
  8
Unknown_Area_Type
  10
355177.820
  20
4651255.440
  0
SEQEND
  8
Unknown_Area_Type
  0
INSERT
  8
FeatureAttribs
  2
FEATURE
  41
1
  42
1
  43
1
  50
0
  10
353693.170
  20
4652212.187
 66
1
  0
ATTRIB
  8
FeatureAttribs
 70
0
  1
PNOA-H_AMS_1956-57_33k_ES_PAN_2
  2
NAME
  10
353693.170
  20
4652212.187
 40
33.81366
  0
SEQEND
  0
POLYLINE
  8
Unknown_Area_Type
  70
1
  66
1
  0
VERTEX
  8
Unknown_Area_Type
  10
355177.820
  20
4651255.440
  0
VERTEX
  8
Unknown_Area_Type
  10
355247.000
  20
4652772.500
  0
VERTEX
  8
Unknown_Area_Type
  10
353938.000
  20
4653296.000
  0
VERTEX
  8
Unknown_Area_Type
  10
353936.000
  20
4653296.500
  0
VERTEX
  8
Unknown_Area_Type
  10
353603.000
  20
4653430.000
  0
VERTEX
  8
Unknown_Area_Type
  10
352206.500
  20
4652847.000
  0
VERTEX
  8
Unknown_Area_Type
  10
352155.316
  20
4651317.809
  0
VERTEX
  8
Unknown_Area_Type
  10
353341.310
  20
4651292.985
  0
VERTEX
  8
Unknown_Area_Type
  10
355177.820
  20
4651255.440
  0
SEQEND
  8
Unknown_Area_Type
  0
INSERT
  8
FeatureAttribs
  2
FEATURE
  41
1
  42
1
  43
1
  50
0
  10
346448.861
  20
4652306.912
 66
1
  0
ATTRIB
  8
FeatureAttribs
 70
0
  1
PNOA-H_AMS_1956-57_33k_ES_PAN_2
  2
NAME
  10
346448.861
  20
4652306.912
 40
33.81366
  0
SEQEND
  0
POLYLINE
  8
Unknown_Area_Type
  70
1
  66
1
  0
VERTEX
  8
Unknown_Area_Type
  10
346477.077
  20
4653174.695
  0
VERTEX
  8
Unknown_Area_Type
  10
346439.474
  20
4651439.128
  0
VERTEX
  8
Unknown_Area_Type
  10
346439.446
  20
4651439.129
  0
VERTEX
  8
Unknown_Area_Type
  10
346439.446
  20
4653165.313
  0
VERTEX
  8
Unknown_Area_Type
  10
346477.077
  20
4653174.695
  0
SEQEND
  8
Unknown_Area_Type
  0
INSERT
  8
FeatureAttribs
  2
FEATURE
  41
1
  42
1
  43
1
  50
0
  10
346439.460
  20
4651438.806
 66
1
  0
ATTRIB
  8
FeatureAttribs
 70
0
  1
PNOA-H_AMS_1956-57_33k_ES_PAN_2
  2
NAME
  10
346439.460
  20
4651438.806
 40
33.81366
  0
SEQEND
  0
POLYLINE
  8
Unknown_Area_Type
  70
1
  66
1
  0
VERTEX
  8
Unknown_Area_Type
  10
346439.446
  20
4651439.129
  0
VERTEX
  8
Unknown_Area_Type
  10
346439.474
  20
4651439.128
  0
VERTEX
  8
Unknown_Area_Type
  10
346439.446
  20
4651437.838
  0
VERTEX
  8
Unknown_Area_Type
  10
346439.446
  20
4651439.129
  0
SEQEND
  8
Unknown_Area_Type
  0
INSERT
  8
FeatureAttribs
  2
FEATURE
  41
1
  42
1
  43
1
  50
0
  10
347783.004
  20
4651167.004
 66
1
  0
ATTRIB
  8
FeatureAttribs
 70
0
  1
PNOA-H_AMS_1956-57_33k_ES_PAN_2
  2
NAME
  10
347783.004
  20
4651167.004
 40
33.81366
  0
SEQEND
  0
POLYLINE
  8
Unknown_Area_Type
  70
1
  66
1
  0
VERTEX
  8
Unknown_Area_Type
  10
349121.062
  20
4650894.880
  0
VERTEX
  8
Unknown_Area_Type
  10
346439.446
  20
4650894.880
  0
VERTEX
  8
Unknown_Area_Type
  10
346439.446
  20
4651437.838
  0
VERTEX
  8
Unknown_Area_Type
  10
346439.474
  20
4651439.128
  0
VERTEX
  8
Unknown_Area_Type
  10
349130.896
  20
4651381.483
  0
VERTEX
  8
Unknown_Area_Type
  10
349121.062
  20
4650894.880
  0
SEQEND
  8
Unknown_Area_Type
  0
INSERT
  8
FeatureAttribs
  2
FEATURE
  41
1
  42
1
  43
1
  50
0
  10
347797.975
  20
4652374.792
 66
1
  0
ATTRIB
  8
FeatureAttribs
 70
0
  1
PNOA-H_AMS_1956-57_33k_ES_PAN_2
  2
NAME
  10
347797.975
  20
4652374.792
 40
33.81366
  0
SEQEND
  0
POLYLINE
  8
Unknown_Area_Type
  70
1
  66
1
  0
VERTEX
  8
Unknown_Area_Type
  10
349130.896
  20
4651381.483
  0
VERTEX
  8
Unknown_Area_Type
  10
346439.474
  20
4651439.128
  0
VERTEX
  8
Unknown_Area_Type
  10
346477.077
  20
4653174.695
  0
VERTEX
  8
Unknown_Area_Type
  10
348046.500
  20
4653566.000
  0
VERTEX
  8
Unknown_Area_Type
  10
348048.500
  20
4653566.500
  0
VERTEX
  8
Unknown_Area_Type
  10
348051.000
  20
4653566.500
  0
VERTEX
  8
Unknown_Area_Type
  10
348057.000
  20
4653563.500
  0
VERTEX
  8
Unknown_Area_Type
  10
349163.000
  20
4652970.000
  0
VERTEX
  8
Unknown_Area_Type
  10
349130.896
  20
4651381.483
  0
SEQEND
  8
Unknown_Area_Type
  0
INSERT
  8
FeatureAttribs
  2
FEATURE
  41
1
  42
1
  43
1
  50
0
  10
347797.975
  20
4652374.792
 66
1
  0
ATTRIB
  8
FeatureAttribs
 70
0
  1
PNOA-H_AMS_1956-57_33k_ES_PAN_2
  2
NAME
  10
347797.975
  20
4652374.792
 40
33.81366
  0
SEQEND
  0
POLYLINE
  8
Unknown_Area_Type
  70
1
  66
1
  0
VERTEX
  8
Unknown_Area_Type
  10
349130.896
  20
4651381.483
  0
VERTEX
  8
Unknown_Area_Type
  10
349163.000
  20
4652970.000
  0
VERTEX
  8
Unknown_Area_Type
  10
348057.000
  20
4653563.500
  0
VERTEX
  8
Unknown_Area_Type
  10
348051.000
  20
4653566.500
  0
VERTEX
  8
Unknown_Area_Type
  10
348048.500
  20
4653566.500
  0
VERTEX
  8
Unknown_Area_Type
  10
348046.500
  20
4653566.000
  0
VERTEX
  8
Unknown_Area_Type
  10
346477.077
  20
4653174.695
  0
VERTEX
  8
Unknown_Area_Type
  10
346439.474
  20
4651439.128
  0
VERTEX
  8
Unknown_Area_Type
  10
349130.896
  20
4651381.483
  0
SEQEND
  8
Unknown_Area_Type
  0
INSERT
  8
FeatureAttribs
  2
FEATURE
  41
1
  42
1
  43
1
  50
0
  10
356669.902
  20
4651075.163
 66
1
  0
ATTRIB
  8
FeatureAttribs
 70
0
  1
PNOA-H_AMS_1956-57_33k_ES_PAN_2
  2
NAME
  10
356669.902
  20
4651075.163
 40
33.81366
  0
SEQEND
  0
POLYLINE
  8
Unknown_Area_Type
  70
1
  66
1
  0
VERTEX
  8
Unknown_Area_Type
  10
358161.857
  20
4650894.880
  0
VERTEX
  8
Unknown_Area_Type
  10
355161.167
  20
4650894.880
  0
VERTEX
  8
Unknown_Area_Type
  10
355177.572
  20
4651255.445
  0
VERTEX
  8
Unknown_Area_Type
  10
356792.216
  20
4651222.436
  0
VERTEX
  8
Unknown_Area_Type
  10
358176.127
  20
4651194.817
  0
VERTEX
  8
Unknown_Area_Type
  10
358161.857
  20
4650894.880
  0
SEQEND
  8
Unknown_Area_Type
  0
INSERT
  8
FeatureAttribs
  2
FEATURE
  41
1
  42
1
  43
1
  50
0
  10
356691.857
  20
4652124.064
 66
1
  0
ATTRIB
  8
FeatureAttribs
 70
0
  1
PNOA-H_AMS_1956-57_33k_ES_PAN_2
  2
NAME
  10
356691.857
  20
4652124.064
 40
33.81366
  0
SEQEND
  0
POLYLINE
  8
Unknown_Area_Type
  70
1
  66
1
  0
VERTEX
  8
Unknown_Area_Type
  10
358176.127
  20
4651194.817
  0
VERTEX
  8
Unknown_Area_Type
  10
356792.216
  20
4651222.436
  0
VERTEX
  8
Unknown_Area_Type
  10
355177.572
  20
4651255.445
  0
VERTEX
  8
Unknown_Area_Type
  10
355246.500
  20
4652770.500
  0
VERTEX
  8
Unknown_Area_Type
  10
355247.500
  20
4652773.000
  0
VERTEX
  8
Unknown_Area_Type
  10
355252.500
  20
4652775.500
  0
VERTEX
  8
Unknown_Area_Type
  10
355984.500
  20
4653113.500
  0
VERTEX
  8
Unknown_Area_Type
  10
355985.500
  20
4653114.000
  0
VERTEX
  8
Unknown_Area_Type
  10
356397.000
  20
4653304.000
  0
VERTEX
  8
Unknown_Area_Type
  10
356403.500
  20
4653306.000
  0
VERTEX
  8
Unknown_Area_Type
  10
358246.000
  20
4652663.500
  0
VERTEX
  8
Unknown_Area_Type
  10
358176.127
  20
4651194.817
  0
SEQEND
  8
Unknown_Area_Type
  0
INSERT
  8
FeatureAttribs
  2
FEATURE
  41
1
  42
1
  43
1
  50
0
  10
356691.857
  20
4652124.064
 66
1
  0
ATTRIB
  8
FeatureAttribs
 70
0
  1
PNOA-H_AMS_1956-57_33k_ES_PAN_2
  2
NAME
  10
356691.857
  20
4652124.064
 40
33.81366
  0
SEQEND
  0
POLYLINE
  8
Unknown_Area_Type
  70
1
  66
1
  0
VERTEX
  8
Unknown_Area_Type
  10
358176.127
  20
4651194.817
  0
VERTEX
  8
Unknown_Area_Type
  10
358246.000
  20
4652663.500
  0
VERTEX
  8
Unknown_Area_Type
  10
356403.500
  20
4653306.000
  0
VERTEX
  8
Unknown_Area_Type
  10
356397.000
  20
4653304.000
  0
VERTEX
  8
Unknown_Area_Type
  10
355985.500
  20
4653114.000
  0
VERTEX
  8
Unknown_Area_Type
  10
355984.500
  20
4653113.500
  0
VERTEX
  8
Unknown_Area_Type
  10
355252.500
  20
4652775.500
  0
VERTEX
  8
Unknown_Area_Type
  10
355247.500
  20
4652773.000
  0
VERTEX
  8
Unknown_Area_Type
  10
355246.500
  20
4652770.500
  0
VERTEX
  8
Unknown_Area_Type
  10
355177.572
  20
4651255.445
  0
VERTEX
  8
Unknown_Area_Type
  10
356792.216
  20
4651222.436
  0
VERTEX
  8
Unknown_Area_Type
  10
358176.127
  20
4651194.817
  0
SEQEND
  8
Unknown_Area_Type
  0
INSERT
  8
FeatureAttribs
  2
FEATURE
  41
1
  42
1
  43
1
  50
0
  10
350637.638
  20
4651138.182
 66
1
  0
ATTRIB
  8
FeatureAttribs
 70
0
  1
PNOA-H_AMS_1956-57_33k_ES_PAN_2
  2
NAME
  10
350637.638
  20
4651138.182
 40
33.81366
  0
SEQEND
  0
POLYLINE
  8
Unknown_Area_Type
  70
1
  66
1
  0
VERTEX
  8
Unknown_Area_Type
  10
352141.152
  20
4650894.880
  0
VERTEX
  8
Unknown_Area_Type
  10
349121.062
  20
4650894.880
  0
VERTEX
  8
Unknown_Area_Type
  10
349130.896
  20
4651381.483
  0
VERTEX
  8
Unknown_Area_Type
  10
349890.396
  20
4651365.216
  0
VERTEX
  8
Unknown_Area_Type
  10
352155.310
  20
4651317.809
  0
VERTEX
  8
Unknown_Area_Type
  10
352141.152
  20
4650894.880
  0
SEQEND
  8
Unknown_Area_Type
  0
INSERT
  8
FeatureAttribs
  2
FEATURE
  41
1
  42
1
  43
1
  50
0
  10
350665.542
  20
4652291.733
 66
1
  0
ATTRIB
  8
FeatureAttribs
 70
0
  1
PNOA-H_AMS_1956-57_33k_ES_PAN_2
  2
NAME
  10
350665.542
  20
4652291.733
 40
33.81366
  0
SEQEND
  0
POLYLINE
  8
Unknown_Area_Type
  70
1
  66
1
  0
VERTEX
  8
Unknown_Area_Type
  10
352155.310
  20
4651317.809
  0
VERTEX
  8
Unknown_Area_Type
  10
349890.396
  20
4651365.216
  0
VERTEX
  8
Unknown_Area_Type
  10
349130.896
  20
4651381.483
  0
VERTEX
  8
Unknown_Area_Type
  10
349163.000
  20
4652970.000
  0
VERTEX
  8
Unknown_Area_Type
  10
349839.000
  20
4653196.500
  0
VERTEX
  8
Unknown_Area_Type
  10
349840.500
  20
4653197.000
  0
VERTEX
  8
Unknown_Area_Type
  10
350797.000
  20
4653517.000
  0
VERTEX
  8
Unknown_Area_Type
  10
352206.500
  20
4652847.000
  0
VERTEX
  8
Unknown_Area_Type
  10
352155.310
  20
4651317.809
  0
SEQEND
  8
Unknown_Area_Type
  0
INSERT
  8
FeatureAttribs
  2
FEATURE
  41
1
  42
1
  43
1
  50
0
  10
350665.542
  20
4652291.733
 66
1
  0
ATTRIB
  8
FeatureAttribs
 70
0
  1
PNOA-H_AMS_1956-57_33k_ES_PAN_2
  2
NAME
  10
350665.542
  20
4652291.733
 40
33.81366
  0
SEQEND
  0
POLYLINE
  8
Unknown_Area_Type
  70
1
  66
1
  0
VERTEX
  8
Unknown_Area_Type
  10
352155.310
  20
4651317.809
  0
VERTEX
  8
Unknown_Area_Type
  10
352206.500
  20
4652847.000
  0
VERTEX
  8
Unknown_Area_Type
  10
350797.000
  20
4653517.000
  0
VERTEX
  8
Unknown_Area_Type
  10
349840.500
  20
4653197.000
  0
VERTEX
  8
Unknown_Area_Type
  10
349839.000
  20
4653196.500
  0
VERTEX
  8
Unknown_Area_Type
  10
349163.000
  20
4652970.000
  0
VERTEX
  8
Unknown_Area_Type
  10
349130.896
  20
4651381.483
  0
VERTEX
  8
Unknown_Area_Type
  10
349890.396
  20
4651365.216
  0
VERTEX
  8
Unknown_Area_Type
  10
352155.310
  20
4651317.809
  0
SEQEND
  8
Unknown_Area_Type
  0
INSERT
  8
FeatureAttribs
  2
FEATURE
  41
1
  42
1
  43
1
  50
0
  10
374221.763
  20
4652074.190
 66
1
  0
ATTRIB
  8
FeatureAttribs
 70
0
  1
PNOA-H_AMS_1956-57_33k_ES_PAN_2
  2
NAME
  10
374221.763
  20
4652074.190
 40
33.81366
  0
SEQEND
  0
POLYLINE
  8
Unknown_Area_Type
  70
1
  66
1
  0
VERTEX
  8
Unknown_Area_Type
  10
374375.945
  20
4653221.050
  0
VERTEX
  8
Unknown_Area_Type
  10
374375.945
  20
4650894.880
  0
VERTEX
  8
Unknown_Area_Type
  10
374047.713
  20
4650894.880
  0
VERTEX
  8
Unknown_Area_Type
  10
374046.626
  20
4650894.899
  0
VERTEX
  8
Unknown_Area_Type
  10
374087.642
  20
4653203.199
  0
VERTEX
  8
Unknown_Area_Type
  10
374216.500
  20
4653253.500
  0
VERTEX
  8
Unknown_Area_Type
  10
374375.945
  20
4653221.050
  0
SEQEND
  8
Unknown_Area_Type
  0
INSERT
  8
FeatureAttribs
  2
FEATURE
  41
1
  42
1
  43
1
  50
0
  10
373370.345
  20
4650903.011
 66
1
  0
ATTRIB
  8
FeatureAttribs
 70
0
  1
PNOA-H_AMS_1956-57_33k_ES_PAN_2
  2
NAME
  10
373370.345
  20
4650903.011
 40
33.81366
  0
SEQEND
  0
POLYLINE
  8
Unknown_Area_Type
  70
1
  66
1
  0
VERTEX
  8
Unknown_Area_Type
  10
373144.661
  20
4650911.143
  0
VERTEX
  8
Unknown_Area_Type
  10
374046.626
  20
4650894.899
  0
VERTEX
  8
Unknown_Area_Type
  10
374046.626
  20
4650894.880
  0
VERTEX
  8
Unknown_Area_Type
  10
373144.373
  20
4650894.880
  0
VERTEX
  8
Unknown_Area_Type
  10
373144.661
  20
4650911.143
  0
SEQEND
  8
Unknown_Area_Type
  0
INSERT
  8
FeatureAttribs
  2
FEATURE
  41
1
  42
1
  43
1
  50
0
  10
374046.898
  20
4650894.890
 66
1
  0
ATTRIB
  8
FeatureAttribs
 70
0
  1
PNOA-H_AMS_1956-57_33k_ES_PAN_2
  2
NAME
  10
374046.898
  20
4650894.890
 40
33.81366
  0
SEQEND
  0
POLYLINE
  8
Unknown_Area_Type
  70
1
  66
1
  0
VERTEX
  8
Unknown_Area_Type
  10
374046.626
  20
4650894.899
  0
VERTEX
  8
Unknown_Area_Type
  10
374047.713
  20
4650894.880
  0
VERTEX
  8
Unknown_Area_Type
  10
374046.626
  20
4650894.880
  0
VERTEX
  8
Unknown_Area_Type
  10
374046.626
  20
4650894.899
  0
SEQEND
  8
Unknown_Area_Type
  0
INSERT
  8
FeatureAttribs
  2
FEATURE
  41
1
  42
1
  43
1
  50
0
  10
373627.665
  20
4651966.918
 66
1
  0
ATTRIB
  8
FeatureAttribs
 70
0
  1
PNOA-H_AMS_1956-57_33k_ES_PAN_2
  2
NAME
  10
373627.665
  20
4651966.918
 40
33.81366
  0
SEQEND
  0
POLYLINE
  8
Unknown_Area_Type
  70
1
  66
1
  0
VERTEX
  8
Unknown_Area_Type
  10
374087.642
  20
4653203.199
  0
VERTEX
  8
Unknown_Area_Type
  10
374046.626
  20
4650894.899
  0
VERTEX
  8
Unknown_Area_Type
  10
373144.661
  20
4650911.143
  0
VERTEX
  8
Unknown_Area_Type
  10
373179.000
  20
4652848.500
  0
VERTEX
  8
Unknown_Area_Type
  10
374087.642
  20
4653203.199
  0
SEQEND
  8
Unknown_Area_Type
  0
INSERT
  8
FeatureAttribs
  2
FEATURE
  41
1
  42
1
  43
1
  50
0
  10
373627.665
  20
4651966.918
 66
1
  0
ATTRIB
  8
FeatureAttribs
 70
0
  1
PNOA-H_AMS_1956-57_33k_ES_PAN_2
  2
NAME
  10
373627.665
  20
4651966.918
 40
33.81366
  0
SEQEND
  0
POLYLINE
  8
Unknown_Area_Type
  70
1
  66
1
  0
VERTEX
  8
Unknown_Area_Type
  10
374087.642
  20
4653203.199
  0
VERTEX
  8
Unknown_Area_Type
  10
373179.000
  20
4652848.500
  0
VERTEX
  8
Unknown_Area_Type
  10
373144.661
  20
4650911.143
  0
VERTEX
  8
Unknown_Area_Type
  10
374046.626
  20
4650894.899
  0
VERTEX
  8
Unknown_Area_Type
  10
374087.642
  20
4653203.199
  0
SEQEND
  8
Unknown_Area_Type
  0
INSERT
  8
FeatureAttribs
  2
FEATURE
  41
1
  42
1
  43
1
  50
0
  10
361703.336
  20
4656190.366
 66
1
  0
ATTRIB
  8
FeatureAttribs
 70
0
  1
PNOA-H_AMS_1956-57_33k_ES_PAN_2
  2
NAME
  10
361703.336
  20
4656190.366
 40
33.81366
  0
SEQEND
  0
POLYLINE
  8
Unknown_Area_Type
  70
1
  66
1
  0
VERTEX
  8
Unknown_Area_Type
  10
362130.000
  20
4657961.500
  0
VERTEX
  8
Unknown_Area_Type
  10
362919.500
  20
4657941.000
  0
VERTEX
  8
Unknown_Area_Type
  10
362911.000
  20
4653480.000
  0
VERTEX
  8
Unknown_Area_Type
  10
362651.000
  20
4653411.500
  0
VERTEX
  8
Unknown_Area_Type
  10
362638.000
  20
4653423.500
  0
VERTEX
  8
Unknown_Area_Type
  10
360093.000
  20
4656064.000
  0
VERTEX
  8
Unknown_Area_Type
  10
360082.000
  20
4657799.500
  0
VERTEX
  8
Unknown_Area_Type
  10
360558.500
  20
4658002.500
  0
VERTEX
  8
Unknown_Area_Type
  10
362121.500
  20
4657961.500
  0
VERTEX
  8
Unknown_Area_Type
  10
362130.000
  20
4657961.500
  0
SEQEND
  8
Unknown_Area_Type
  0
INSERT
  8
FeatureAttribs
  2
FEATURE
  41
1
  42
1
  43
1
  50
0
  10
361703.336
  20
4656190.366
 66
1
  0
ATTRIB
  8
FeatureAttribs
 70
0
  1
PNOA-H_AMS_1956-57_33k_ES_PAN_2
  2
NAME
  10
361703.336
  20
4656190.366
 40
33.81366
  0
SEQEND
  0
POLYLINE
  8
Unknown_Area_Type
  70
1
  66
1
  0
VERTEX
  8
Unknown_Area_Type
  10
362130.000
  20
4657961.500
  0
VERTEX
  8
Unknown_Area_Type
  10
362121.500
  20
4657961.500
  0
VERTEX
  8
Unknown_Area_Type
  10
360558.500
  20
4658002.500
  0
VERTEX
  8
Unknown_Area_Type
  10
360082.000
  20
4657799.500
  0
VERTEX
  8
Unknown_Area_Type
  10
360093.000
  20
4656064.000
  0
VERTEX
  8
Unknown_Area_Type
  10
362638.000
  20
4653423.500
  0
VERTEX
  8
Unknown_Area_Type
  10
362651.000
  20
4653411.500
  0
VERTEX
  8
Unknown_Area_Type
  10
362911.000
  20
4653480.000
  0
VERTEX
  8
Unknown_Area_Type
  10
362919.500
  20
4657941.000
  0
VERTEX
  8
Unknown_Area_Type
  10
362130.000
  20
4657961.500
  0
SEQEND
  8
Unknown_Area_Type
  0
INSERT
  8
FeatureAttribs
  2
FEATURE
  41
1
  42
1
  43
1
  50
0
  10
364323.433
  20
4655611.851
 66
1
  0
ATTRIB
  8
FeatureAttribs
 70
0
  1
PNOA-H_AMS_1956-57_33k_ES_PAN_2
  2
NAME
  10
364323.433
  20
4655611.851
 40
33.81366
  0
SEQEND
  0
POLYLINE
  8
Unknown_Area_Type
  70
1
  66
1
  0
VERTEX
  8
Unknown_Area_Type
  10
364178.000
  20
4657982.500
  0
VERTEX
  8
Unknown_Area_Type
  10
365731.000
  20
4657957.000
  0
VERTEX
  8
Unknown_Area_Type
  10
365750.000
  20
4657956.500
  0
VERTEX
  8
Unknown_Area_Type
  10
365768.500
  20
4657946.000
  0
VERTEX
  8
Unknown_Area_Type
  10
365700.500
  20
4653426.000
  0
VERTEX
  8
Unknown_Area_Type
  10
364214.500
  20
4653011.500
  0
VERTEX
  8
Unknown_Area_Type
  10
364206.000
  20
4653013.500
  0
VERTEX
  8
Unknown_Area_Type
  10
362911.000
  20
4653480.000
  0
VERTEX
  8
Unknown_Area_Type
  10
362919.500
  20
4657941.500
  0
VERTEX
  8
Unknown_Area_Type
  10
363029.500
  20
4658001.500
  0
VERTEX
  8
Unknown_Area_Type
  10
364162.500
  20
4657982.500
  0
VERTEX
  8
Unknown_Area_Type
  10
364178.000
  20
4657982.500
  0
SEQEND
  8
Unknown_Area_Type
  0
INSERT
  8
FeatureAttribs
  2
FEATURE
  41
1
  42
1
  43
1
  50
0
  10
364323.433
  20
4655611.851
 66
1
  0
ATTRIB
  8
FeatureAttribs
 70
0
  1
PNOA-H_AMS_1956-57_33k_ES_PAN_2
  2
NAME
  10
364323.433
  20
4655611.851
 40
33.81366
  0
SEQEND
  0
POLYLINE
  8
Unknown_Area_Type
  70
1
  66
1
  0
VERTEX
  8
Unknown_Area_Type
  10
364178.000
  20
4657982.500
  0
VERTEX
  8
Unknown_Area_Type
  10
364162.500
  20
4657982.500
  0
VERTEX
  8
Unknown_Area_Type
  10
363029.500
  20
4658001.500
  0
VERTEX
  8
Unknown_Area_Type
  10
362919.500
  20
4657941.500
  0
VERTEX
  8
Unknown_Area_Type
  10
362911.000
  20
4653480.000
  0
VERTEX
  8
Unknown_Area_Type
  10
364206.000
  20
4653013.500
  0
VERTEX
  8
Unknown_Area_Type
  10
364214.500
  20
4653011.500
  0
VERTEX
  8
Unknown_Area_Type
  10
365700.500
  20
4653426.000
  0
VERTEX
  8
Unknown_Area_Type
  10
365768.500
  20
4657946.000
  0
VERTEX
  8
Unknown_Area_Type
  10
365750.000
  20
4657956.500
  0
VERTEX
  8
Unknown_Area_Type
  10
365731.000
  20
4657957.000
  0
VERTEX
  8
Unknown_Area_Type
  10
364178.000
  20
4657982.500
  0
SEQEND
  8
Unknown_Area_Type
  0
INSERT
  8
FeatureAttribs
  2
FEATURE
  41
1
  42
1
  43
1
  50
0
  10
370000.417
  20
4655557.946
 66
1
  0
ATTRIB
  8
FeatureAttribs
 70
0
  1
PNOA-H_AMS_1956-57_33k_ES_PAN_2
  2
NAME
  10
370000.417
  20
4655557.946
 40
33.81366
  0
SEQEND
  0
POLYLINE
  8
Unknown_Area_Type
  70
1
  66
1
  0
VERTEX
  8
Unknown_Area_Type
  10
371220.500
  20
4657994.000
  0
VERTEX
  8
Unknown_Area_Type
  10
371236.000
  20
4657994.000
  0
VERTEX
  8
Unknown_Area_Type
  10
371477.000
  20
4657867.500
  0
VERTEX
  8
Unknown_Area_Type
  10
371351.500
  20
4653317.500
  0
VERTEX
  8
Unknown_Area_Type
  10
370181.000
  20
4652907.000
  0
VERTEX
  8
Unknown_Area_Type
  10
368567.000
  20
4653381.000
  0
VERTEX
  8
Unknown_Area_Type
  10
368571.500
  20
4657914.500
  0
VERTEX
  8
Unknown_Area_Type
  10
371204.000
  20
4657993.500
  0
VERTEX
  8
Unknown_Area_Type
  10
371220.500
  20
4657994.000
  0
SEQEND
  8
Unknown_Area_Type
  0
INSERT
  8
FeatureAttribs
  2
FEATURE
  41
1
  42
1
  43
1
  50
0
  10
370000.417
  20
4655557.946
 66
1
  0
ATTRIB
  8
FeatureAttribs
 70
0
  1
PNOA-H_AMS_1956-57_33k_ES_PAN_2
  2
NAME
  10
370000.417
  20
4655557.946
 40
33.81366
  0
SEQEND
  0
POLYLINE
  8
Unknown_Area_Type
  70
1
  66
1
  0
VERTEX
  8
Unknown_Area_Type
  10
371220.500
  20
4657994.000
  0
VERTEX
  8
Unknown_Area_Type
  10
371204.000
  20
4657993.500
  0
VERTEX
  8
Unknown_Area_Type
  10
368571.500
  20
4657914.500
  0
VERTEX
  8
Unknown_Area_Type
  10
368567.000
  20
4653381.000
  0
VERTEX
  8
Unknown_Area_Type
  10
370181.000
  20
4652907.000
  0
VERTEX
  8
Unknown_Area_Type
  10
371351.500
  20
4653317.500
  0
VERTEX
  8
Unknown_Area_Type
  10
371477.000
  20
4657867.500
  0
VERTEX
  8
Unknown_Area_Type
  10
371236.000
  20
4657994.000
  0
VERTEX
  8
Unknown_Area_Type
  10
371220.500
  20
4657994.000
  0
SEQEND
  8
Unknown_Area_Type
  0
INSERT
  8
FeatureAttribs
  2
FEATURE
  41
1
  42
1
  43
1
  50
0
  10
372279.157
  20
4657577.165
 66
1
  0
ATTRIB
  8
FeatureAttribs
 70
0
  1
PNOA-H_AMS_1956-57_33k_ES_PAN_2
  2
NAME
  10
372279.157
  20
4657577.165
 40
33.81366
  0
SEQEND
  0
POLYLINE
  8
Unknown_Area_Type
  70
1
  66
1
  0
VERTEX
  8
Unknown_Area_Type
  10
372289.500
  20
4657589.000
  0
VERTEX
  8
Unknown_Area_Type
  10
372290.000
  20
4657588.000
  0
VERTEX
  8
Unknown_Area_Type
  10
372294.000
  20
4657584.500
  0
VERTEX
  8
Unknown_Area_Type
  10
372294.000
  20
4657580.500
  0
VERTEX
  8
Unknown_Area_Type
  10
372291.000
  20
4657577.000
  0
VERTEX
  8
Unknown_Area_Type
  10
372288.500
  20
4657576.000
  0
VERTEX
  8
Unknown_Area_Type
  10
372288.000
  20
4657574.000
  0
VERTEX
  8
Unknown_Area_Type
  10
372281.000
  20
4657567.000
  0
VERTEX
  8
Unknown_Area_Type
  10
372279.000
  20
4657566.000
  0
VERTEX
  8
Unknown_Area_Type
  10
372271.000
  20
4657566.000
  0
VERTEX
  8
Unknown_Area_Type
  10
372266.000
  20
4657571.000
  0
VERTEX
  8
Unknown_Area_Type
  10
372266.000
  20
4657579.500
  0
VERTEX
  8
Unknown_Area_Type
  10
372269.000
  20
4657583.000
  0
VERTEX
  8
Unknown_Area_Type
  10
372270.500
  20
4657584.000
  0
VERTEX
  8
Unknown_Area_Type
  10
372281.000
  20
4657584.000
  0
VERTEX
  8
Unknown_Area_Type
  10
372285.500
  20
4657589.000
  0
VERTEX
  8
Unknown_Area_Type
  10
372289.500
  20
4657589.000
  0
SEQEND
  8
Unknown_Area_Type
  0
INSERT
  8
FeatureAttribs
  2
FEATURE
  41
1
  42
1
  43
1
  50
0
  10
372279.157
  20
4657577.165
 66
1
  0
ATTRIB
  8
FeatureAttribs
 70
0
  1
PNOA-H_AMS_1956-57_33k_ES_PAN_2
  2
NAME
  10
372279.157
  20
4657577.165
 40
33.81366
  0
SEQEND
  0
POLYLINE
  8
Unknown_Area_Type
  70
1
  66
1
  0
VERTEX
  8
Unknown_Area_Type
  10
372289.500
  20
4657589.000
  0
VERTEX
  8
Unknown_Area_Type
  10
372285.500
  20
4657589.000
  0
VERTEX
  8
Unknown_Area_Type
  10
372281.000
  20
4657584.000
  0
VERTEX
  8
Unknown_Area_Type
  10
372270.500
  20
4657584.000
  0
VERTEX
  8
Unknown_Area_Type
  10
372269.000
  20
4657583.000
  0
VERTEX
  8
Unknown_Area_Type
  10
372266.000
  20
4657579.500
  0
VERTEX
  8
Unknown_Area_Type
  10
372266.000
  20
4657571.000
  0
VERTEX
  8
Unknown_Area_Type
  10
372271.000
  20
4657566.000
  0
VERTEX
  8
Unknown_Area_Type
  10
372279.000
  20
4657566.000
  0
VERTEX
  8
Unknown_Area_Type
  10
372281.000
  20
4657567.000
  0
VERTEX
  8
Unknown_Area_Type
  10
372288.000
  20
4657574.000
  0
VERTEX
  8
Unknown_Area_Type
  10
372288.500
  20
4657576.000
  0
VERTEX
  8
Unknown_Area_Type
  10
372291.000
  20
4657577.000
  0
VERTEX
  8
Unknown_Area_Type
  10
372294.000
  20
4657580.500
  0
VERTEX
  8
Unknown_Area_Type
  10
372294.000
  20
4657584.500
  0
VERTEX
  8
Unknown_Area_Type
  10
372290.000
  20
4657588.000
  0
VERTEX
  8
Unknown_Area_Type
  10
372289.500
  20
4657589.000
  0
SEQEND
  8
Unknown_Area_Type
  0
INSERT
  8
FeatureAttribs
  2
FEATURE
  41
1
  42
1
  43
1
  50
0
  10
374169.127
  20
4655540.354
 66
1
  0
ATTRIB
  8
FeatureAttribs
 70
0
  1
PNOA-H_AMS_1956-57_33k_ES_PAN_2
  2
NAME
  10
374169.127
  20
4655540.354
 40
33.81366
  0
SEQEND
  0
POLYLINE
  8
Unknown_Area_Type
  70
1
  66
1
  0
VERTEX
  8
Unknown_Area_Type
  10
374170.756
  20
4657877.840
  0
VERTEX
  8
Unknown_Area_Type
  10
374200.500
  20
4657863.500
  0
VERTEX
  8
Unknown_Area_Type
  10
374217.500
  20
4653253.500
  0
VERTEX
  8
Unknown_Area_Type
  10
374087.636
  20
4653202.869
  0
VERTEX
  8
Unknown_Area_Type
  10
374087.729
  20
4653208.091
  0
VERTEX
  8
Unknown_Area_Type
  10
374128.848
  20
4655521.291
  0
VERTEX
  8
Unknown_Area_Type
  10
374169.985
  20
4657834.498
  0
VERTEX
  8
Unknown_Area_Type
  10
374170.756
  20
4657877.840
  0
SEQEND
  8
Unknown_Area_Type
  0
INSERT
  8
FeatureAttribs
  2
FEATURE
  41
1
  42
1
  43
1
  50
0
  10
372785.934
  20
4655485.191
 66
1
  0
ATTRIB
  8
FeatureAttribs
 70
0
  1
PNOA-H_AMS_1956-57_33k_ES_PAN_2
  2
NAME
  10
372785.934
  20
4655485.191
 40
33.81366
  0
SEQEND
  0
POLYLINE
  8
Unknown_Area_Type
  70
1
  66
1
  0
VERTEX
  8
Unknown_Area_Type
  10
374087.636
  20
4653202.869
  0
VERTEX
  8
Unknown_Area_Type
  10
373180.000
  20
4652849.000
  0
VERTEX
  8
Unknown_Area_Type
  10
371351.500
  20
4653317.500
  0
VERTEX
  8
Unknown_Area_Type
  10
371477.000
  20
4657867.500
  0
VERTEX
  8
Unknown_Area_Type
  10
373945.500
  20
4657977.500
  0
VERTEX
  8
Unknown_Area_Type
  10
373956.500
  20
4657978.000
  0
VERTEX
  8
Unknown_Area_Type
  10
373963.000
  20
4657978.000
  0
VERTEX
  8
Unknown_Area_Type
  10
374170.756
  20
4657877.840
  0
VERTEX
  8
Unknown_Area_Type
  10
374169.985
  20
4657834.498
  0
VERTEX
  8
Unknown_Area_Type
  10
374128.848
  20
4655521.291
  0
VERTEX
  8
Unknown_Area_Type
  10
374087.729
  20
4653208.091
  0
VERTEX
  8
Unknown_Area_Type
  10
374087.636
  20
4653202.869
  0
SEQEND
  8
Unknown_Area_Type
  0
INSERT
  8
FeatureAttribs
  2
FEATURE
  41
1
  42
1
  43
1
  50
0
  10
372785.934
  20
4655485.191
 66
1
  0
ATTRIB
  8
FeatureAttribs
 70
0
  1
PNOA-H_AMS_1956-57_33k_ES_PAN_2
  2
NAME
  10
372785.934
  20
4655485.191
 40
33.81366
  0
SEQEND
  0
POLYLINE
  8
Unknown_Area_Type
  70
1
  66
1
  0
VERTEX
  8
Unknown_Area_Type
  10
374087.636
  20
4653202.869
  0
VERTEX
  8
Unknown_Area_Type
  10
374087.729
  20
4653208.091
  0
VERTEX
  8
Unknown_Area_Type
  10
374128.848
  20
4655521.291
  0
VERTEX
  8
Unknown_Area_Type
  10
374169.985
  20
4657834.498
  0
VERTEX
  8
Unknown_Area_Type
  10
374170.756
  20
4657877.840
  0
VERTEX
  8
Unknown_Area_Type
  10
373963.000
  20
4657978.000
  0
VERTEX
  8
Unknown_Area_Type
  10
373956.500
  20
4657978.000
  0
VERTEX
  8
Unknown_Area_Type
  10
373945.500
  20
4657977.500
  0
VERTEX
  8
Unknown_Area_Type
  10
371477.000
  20
4657867.500
  0
VERTEX
  8
Unknown_Area_Type
  10
371351.500
  20
4653317.500
  0
VERTEX
  8
Unknown_Area_Type
  10
373180.000
  20
4652849.000
  0
VERTEX
  8
Unknown_Area_Type
  10
374087.636
  20
4653202.869
  0
SEQEND
  8
Unknown_Area_Type
  0
INSERT
  8
FeatureAttribs
  2
FEATURE
  41
1
  42
1
  43
1
  50
0
  10
374292.492
  20
4655547.985
 66
1
  0
ATTRIB
  8
FeatureAttribs
 70
0
  1
PNOA-H_AMS_1956-57_33k_ES_PAN_2
  2
NAME
  10
374292.492
  20
4655547.985
 40
33.81366
  0
SEQEND
  0
POLYLINE
  8
Unknown_Area_Type
  70
1
  66
1
  0
VERTEX
  8
Unknown_Area_Type
  10
374375.945
  20
4653221.263
  0
VERTEX
  8
Unknown_Area_Type
  10
374217.500
  20
4653253.500
  0
VERTEX
  8
Unknown_Area_Type
  10
374200.500
  20
4657863.500
  0
VERTEX
  8
Unknown_Area_Type
  10
374375.945
  20
4657874.708
  0
VERTEX
  8
Unknown_Area_Type
  10
374375.945
  20
4653221.263
  0
SEQEND
  8
Unknown_Area_Type
  0
INSERT
  8
FeatureAttribs
  2
FEATURE
  41
1
  42
1
  43
1
  50
0
  10
367153.856
  20
4655546.143
 66
1
  0
ATTRIB
  8
FeatureAttribs
 70
0
  1
PNOA-H_AMS_1956-57_33k_ES_PAN_2
  2
NAME
  10
367153.856
  20
4655546.143
 40
33.81366
  0
SEQEND
  0
POLYLINE
  8
Unknown_Area_Type
  70
1
  66
1
  0
VERTEX
  8
Unknown_Area_Type
  10
366053.500
  20
4657946.500
  0
VERTEX
  8
Unknown_Area_Type
  10
368507.000
  20
4657950.000
  0
VERTEX
  8
Unknown_Area_Type
  10
368571.500
  20
4657915.000
  0
VERTEX
  8
Unknown_Area_Type
  10
368567.000
  20
4653380.500
  0
VERTEX
  8
Unknown_Area_Type
  10
367170.500
  20
4652930.500
  0
VERTEX
  8
Unknown_Area_Type
  10
365700.500
  20
4653426.500
  0
VERTEX
  8
Unknown_Area_Type
  10
365768.500
  20
4657946.000
  0
VERTEX
  8
Unknown_Area_Type
  10
366053.500
  20
4657946.500
  0
SEQEND
  8
Unknown_Area_Type
  0
INSERT
  8
FeatureAttribs
  2
FEATURE
  41
1
  42
1
  43
1
  50
0
  10
367153.856
  20
4655546.143
 66
1
  0
ATTRIB
  8
FeatureAttribs
 70
0
  1
PNOA-H_AMS_1956-57_33k_ES_PAN_2
  2
NAME
  10
367153.856
  20
4655546.143
 40
33.81366
  0
SEQEND
  0
POLYLINE
  8
Unknown_Area_Type
  70
1
  66
1
  0
VERTEX
  8
Unknown_Area_Type
  10
366053.500
  20
4657946.500
  0
VERTEX
  8
Unknown_Area_Type
  10
365768.500
  20
4657946.000
  0
VERTEX
  8
Unknown_Area_Type
  10
365700.500
  20
4653426.500
  0
VERTEX
  8
Unknown_Area_Type
  10
367170.500
  20
4652930.500
  0
VERTEX
  8
Unknown_Area_Type
  10
368567.000
  20
4653380.500
  0
VERTEX
  8
Unknown_Area_Type
  10
368571.500
  20
4657915.000
  0
VERTEX
  8
Unknown_Area_Type
  10
368507.000
  20
4657950.000
  0
VERTEX
  8
Unknown_Area_Type
  10
366053.500
  20
4657946.500
  0
SEQEND
  8
Unknown_Area_Type
  0
INSERT
  8
FeatureAttribs
  2
FEATURE
  41
1
  42
1
  43
1
  50
0
  10
359334.055
  20
4664650.475
 66
1
  0
ATTRIB
  8
FeatureAttribs
 70
0
  1
PNOA-H_AMS_1956-57_33k_ES_PAN_2
  2
NAME
  10
359334.055
  20
4664650.475
 40
33.81366
  0
SEQEND
  0
POLYLINE
  8
Unknown_Area_Type
  70
1
  66
1
  0
VERTEX
  8
Unknown_Area_Type
  10
358930.500
  20
4667117.000
  0
VERTEX
  8
Unknown_Area_Type
  10
359923.000
  20
4667046.500
  0
VERTEX
  8
Unknown_Area_Type
  10
359926.000
  20
4667046.000
  0
VERTEX
  8
Unknown_Area_Type
  10
359926.500
  20
4667044.500
  0
VERTEX
  8
Unknown_Area_Type
  10
360178.500
  20
4662714.500
  0
VERTEX
  8
Unknown_Area_Type
  10
359171.000
  20
4662623.000
  0
VERTEX
  8
Unknown_Area_Type
  10
358350.500
  20
4662648.000
  0
VERTEX
  8
Unknown_Area_Type
  10
358930.500
  20
4667113.500
  0
VERTEX
  8
Unknown_Area_Type
  10
358930.500
  20
4667117.000
  0
SEQEND
  8
Unknown_Area_Type
  0
INSERT
  8
FeatureAttribs
  2
FEATURE
  41
1
  42
1
  43
1
  50
0
  10
359334.055
  20
4664650.475
 66
1
  0
ATTRIB
  8
FeatureAttribs
 70
0
  1
PNOA-H_AMS_1956-57_33k_ES_PAN_2
  2
NAME
  10
359334.055
  20
4664650.475
 40
33.81366
  0
SEQEND
  0
POLYLINE
  8
Unknown_Area_Type
  70
1
  66
1
  0
VERTEX
  8
Unknown_Area_Type
  10
358930.500
  20
4667117.000
  0
VERTEX
  8
Unknown_Area_Type
  10
358930.500
  20
4667113.500
  0
VERTEX
  8
Unknown_Area_Type
  10
358350.500
  20
4662648.000
  0
VERTEX
  8
Unknown_Area_Type
  10
359171.000
  20
4662623.000
  0
VERTEX
  8
Unknown_Area_Type
  10
360178.500
  20
4662714.500
  0
VERTEX
  8
Unknown_Area_Type
  10
359926.500
  20
4667044.500
  0
VERTEX
  8
Unknown_Area_Type
  10
359926.000
  20
4667046.000
  0
VERTEX
  8
Unknown_Area_Type
  10
359923.000
  20
4667046.500
  0
VERTEX
  8
Unknown_Area_Type
  10
358930.500
  20
4667117.000
  0
SEQEND
  8
Unknown_Area_Type
  0
INSERT
  8
FeatureAttribs
  2
FEATURE
  41
1
  42
1
  43
1
  50
0
  10
346589.538
  20
4665278.962
 66
1
  0
ATTRIB
  8
FeatureAttribs
 70
0
  1
PNOA-H_AMS_1956-57_33k_ES_PAN_2
  2
NAME
  10
346589.538
  20
4665278.962
 40
33.81366
  0
SEQEND
  0
POLYLINE
  8
Unknown_Area_Type
  70
1
  66
1
  0
VERTEX
  8
Unknown_Area_Type
  10
346689.067
  20
4662949.923
  0
VERTEX
  8
Unknown_Area_Type
  10
346439.446
  20
4662971.262
  0
VERTEX
  8
Unknown_Area_Type
  10
346439.446
  20
4667508.968
  0
VERTEX
  8
Unknown_Area_Type
  10
346644.500
  20
4667608.000
  0
VERTEX
  8
Unknown_Area_Type
  10
346789.899
  20
4667593.612
  0
VERTEX
  8
Unknown_Area_Type
  10
346740.490
  20
4665318.643
  0
VERTEX
  8
Unknown_Area_Type
  10
346690.270
  20
4663005.372
  0
VERTEX
  8
Unknown_Area_Type
  10
346689.067
  20
4662949.923
  0
SEQEND
  8
Unknown_Area_Type
  0
INSERT
  8
FeatureAttribs
  2
FEATURE
  41
1
  42
1
  43
1
  50
0
  10
347899.193
  20
4665168.634
 66
1
  0
ATTRIB
  8
FeatureAttribs
 70
0
  1
PNOA-H_AMS_1956-57_33k_ES_PAN_2
  2
NAME
  10
347899.193
  20
4665168.634
 40
33.81366
  0
SEQEND
  0
POLYLINE
  8
Unknown_Area_Type
  70
1
  66
1
  0
VERTEX
  8
Unknown_Area_Type
  10
346789.899
  20
4667593.612
  0
VERTEX
  8
Unknown_Area_Type
  10
347791.500
  20
4667494.500
  0
VERTEX
  8
Unknown_Area_Type
  10
347794.000
  20
4667494.500
  0
VERTEX
  8
Unknown_Area_Type
  10
349113.000
  20
4667364.000
  0
VERTEX
  8
Unknown_Area_Type
  10
349022.000
  20
4662915.500
  0
VERTEX
  8
Unknown_Area_Type
  10
348747.000
  20
4662774.000
  0
VERTEX
  8
Unknown_Area_Type
  10
346689.067
  20
4662949.923
  0
VERTEX
  8
Unknown_Area_Type
  10
346690.270
  20
4663005.372
  0
VERTEX
  8
Unknown_Area_Type
  10
346740.490
  20
4665318.643
  0
VERTEX
  8
Unknown_Area_Type
  10
346789.899
  20
4667593.612
  0
SEQEND
  8
Unknown_Area_Type
  0
INSERT
  8
FeatureAttribs
  2
FEATURE
  41
1
  42
1
  43
1
  50
0
  10
347899.193
  20
4665168.634
 66
1
  0
ATTRIB
  8
FeatureAttribs
 70
0
  1
PNOA-H_AMS_1956-57_33k_ES_PAN_2
  2
NAME
  10
347899.193
  20
4665168.634
 40
33.81366
  0
SEQEND
  0
POLYLINE
  8
Unknown_Area_Type
  70
1
  66
1
  0
VERTEX
  8
Unknown_Area_Type
  10
346789.899
  20
4667593.612
  0
VERTEX
  8
Unknown_Area_Type
  10
346740.490
  20
4665318.643
  0
VERTEX
  8
Unknown_Area_Type
  10
346690.270
  20
4663005.372
  0
VERTEX
  8
Unknown_Area_Type
  10
346689.067
  20
4662949.923
  0
VERTEX
  8
Unknown_Area_Type
  10
348747.000
  20
4662774.000
  0
VERTEX
  8
Unknown_Area_Type
  10
349022.000
  20
4662915.500
  0
VERTEX
  8
Unknown_Area_Type
  10
349113.000
  20
4667364.000
  0
VERTEX
  8
Unknown_Area_Type
  10
347794.000
  20
4667494.500
  0
VERTEX
  8
Unknown_Area_Type
  10
347791.500
  20
4667494.500
  0
VERTEX
  8
Unknown_Area_Type
  10
346789.899
  20
4667593.612
  0
SEQEND
  8
Unknown_Area_Type
  0
INSERT
  8
FeatureAttribs
  2
FEATURE
  41
1
  42
1
  43
1
  50
0
  10
356007.539
  20
4664925.798
 66
1
  0
ATTRIB
  8
FeatureAttribs
 70
0
  1
PNOA-H_AMS_1956-57_33k_ES_PAN_2
  2
NAME
  10
356007.539
  20
4664925.798
 40
33.81366
  0
SEQEND
  0
POLYLINE
  8
Unknown_Area_Type
  70
1
  66
1
  0
VERTEX
  8
Unknown_Area_Type
  10
355986.000
  20
4667244.000
  0
VERTEX
  8
Unknown_Area_Type
  10
357214.000
  20
4667124.000
  0
VERTEX
  8
Unknown_Area_Type
  10
357267.000
  20
4662563.500
  0
VERTEX
  8
Unknown_Area_Type
  10
354724.000
  20
4662769.500
  0
VERTEX
  8
Unknown_Area_Type
  10
354822.000
  20
4667201.000
  0
VERTEX
  8
Unknown_Area_Type
  10
355071.500
  20
4667333.000
  0
VERTEX
  8
Unknown_Area_Type
  10
355983.000
  20
4667244.000
  0
VERTEX
  8
Unknown_Area_Type
  10
355986.000
  20
4667244.000
  0
SEQEND
  8
Unknown_Area_Type
  0
INSERT
  8
FeatureAttribs
  2
FEATURE
  41
1
  42
1
  43
1
  50
0
  10
356007.539
  20
4664925.798
 66
1
  0
ATTRIB
  8
FeatureAttribs
 70
0
  1
PNOA-H_AMS_1956-57_33k_ES_PAN_2
  2
NAME
  10
356007.539
  20
4664925.798
 40
33.81366
  0
SEQEND
  0
POLYLINE
  8
Unknown_Area_Type
  70
1
  66
1
  0
VERTEX
  8
Unknown_Area_Type
  10
355986.000
  20
4667244.000
  0
VERTEX
  8
Unknown_Area_Type
  10
355983.000
  20
4667244.000
  0
VERTEX
  8
Unknown_Area_Type
  10
355071.500
  20
4667333.000
  0
VERTEX
  8
Unknown_Area_Type
  10
354822.000
  20
4667201.000
  0
VERTEX
  8
Unknown_Area_Type
  10
354724.000
  20
4662769.500
  0
VERTEX
  8
Unknown_Area_Type
  10
357267.000
  20
4662563.500
  0
VERTEX
  8
Unknown_Area_Type
  10
357214.000
  20
4667124.000
  0
VERTEX
  8
Unknown_Area_Type
  10
355986.000
  20
4667244.000
  0
SEQEND
  8
Unknown_Area_Type
  0
INSERT
  8
FeatureAttribs
  2
FEATURE
  41
1
  42
1
  43
1
  50
0
  10
364937.262
  20
4663924.698
 66
1
  0
ATTRIB
  8
FeatureAttribs
 70
0
  1
PNOA-H_AMS_1956-57_33k_ES_PAN_2
  2
NAME
  10
364937.262
  20
4663924.698
 40
33.81366
  0
SEQEND
  0
POLYLINE
  8
Unknown_Area_Type
  70
1
  66
1
  0
VERTEX
  8
Unknown_Area_Type
  10
365377.500
  20
4666702.500
  0
VERTEX
  8
Unknown_Area_Type
  10
366129.500
  20
4663296.000
  0
VERTEX
  8
Unknown_Area_Type
  10
366087.500
  20
4662577.500
  0
VERTEX
  8
Unknown_Area_Type
  10
365783.000
  20
4662404.000
  0
VERTEX
  8
Unknown_Area_Type
  10
363226.500
  20
4662624.000
  0
VERTEX
  8
Unknown_Area_Type
  10
363231.500
  20
4662726.500
  0
VERTEX
  8
Unknown_Area_Type
  10
363232.000
  20
4662733.000
  0
VERTEX
  8
Unknown_Area_Type
  10
363234.500
  20
4662738.000
  0
VERTEX
  8
Unknown_Area_Type
  10
365377.500
  20
4666701.500
  0
VERTEX
  8
Unknown_Area_Type
  10
365377.500
  20
4666702.500
  0
SEQEND
  8
Unknown_Area_Type
  0
INSERT
  8
FeatureAttribs
  2
FEATURE
  41
1
  42
1
  43
1
  50
0
  10
364937.262
  20
4663924.698
 66
1
  0
ATTRIB
  8
FeatureAttribs
 70
0
  1
PNOA-H_AMS_1956-57_33k_ES_PAN_2
  2
NAME
  10
364937.262
  20
4663924.698
 40
33.81366
  0
SEQEND
  0
POLYLINE
  8
Unknown_Area_Type
  70
1
  66
1
  0
VERTEX
  8
Unknown_Area_Type
  10
365377.500
  20
4666702.500
  0
VERTEX
  8
Unknown_Area_Type
  10
365377.500
  20
4666701.500
  0
VERTEX
  8
Unknown_Area_Type
  10
363234.500
  20
4662738.000
  0
VERTEX
  8
Unknown_Area_Type
  10
363232.000
  20
4662733.000
  0
VERTEX
  8
Unknown_Area_Type
  10
363231.500
  20
4662726.500
  0
VERTEX
  8
Unknown_Area_Type
  10
363226.500
  20
4662624.000
  0
VERTEX
  8
Unknown_Area_Type
  10
365783.000
  20
4662404.000
  0
VERTEX
  8
Unknown_Area_Type
  10
366087.500
  20
4662577.500
  0
VERTEX
  8
Unknown_Area_Type
  10
366129.500
  20
4663296.000
  0
VERTEX
  8
Unknown_Area_Type
  10
365377.500
  20
4666702.500
  0
SEQEND
  8
Unknown_Area_Type
  0
INSERT
  8
FeatureAttribs
  2
FEATURE
  41
1
  42
1
  43
1
  50
0
  10
362174.858
  20
4664286.535
 66
1
  0
ATTRIB
  8
FeatureAttribs
 70
0
  1
PNOA-H_AMS_1956-57_33k_ES_PAN_2
  2
NAME
  10
362174.858
  20
4664286.535
 40
33.81366
  0
SEQEND
  0
POLYLINE
  8
Unknown_Area_Type
  70
1
  66
1
  0
VERTEX
  8
Unknown_Area_Type
  10
363075.000
  20
4662536.000
  0
VERTEX
  8
Unknown_Area_Type
  10
363013.000
  20
4662499.500
  0
VERTEX
  8
Unknown_Area_Type
  10
363011.000
  20
4662498.500
  0
VERTEX
  8
Unknown_Area_Type
  10
363002.500
  20
4662498.500
  0
VERTEX
  8
Unknown_Area_Type
  10
360842.500
  20
4662635.500
  0
VERTEX
  8
Unknown_Area_Type
  10
362107.500
  20
4666966.000
  0
VERTEX
  8
Unknown_Area_Type
  10
362628.500
  20
4666933.000
  0
VERTEX
  8
Unknown_Area_Type
  10
363232.000
  20
4662735.000
  0
VERTEX
  8
Unknown_Area_Type
  10
363226.500
  20
4662624.000
  0
VERTEX
  8
Unknown_Area_Type
  10
363076.500
  20
4662536.500
  0
VERTEX
  8
Unknown_Area_Type
  10
363075.000
  20
4662536.000
  0
SEQEND
  8
Unknown_Area_Type
  0
INSERT
  8
FeatureAttribs
  2
FEATURE
  41
1
  42
1
  43
1
  50
0
  10
362174.858
  20
4664286.535
 66
1
  0
ATTRIB
  8
FeatureAttribs
 70
0
  1
PNOA-H_AMS_1956-57_33k_ES_PAN_2
  2
NAME
  10
362174.858
  20
4664286.535
 40
33.81366
  0
SEQEND
  0
POLYLINE
  8
Unknown_Area_Type
  70
1
  66
1
  0
VERTEX
  8
Unknown_Area_Type
  10
363075.000
  20
4662536.000
  0
VERTEX
  8
Unknown_Area_Type
  10
363076.500
  20
4662536.500
  0
VERTEX
  8
Unknown_Area_Type
  10
363226.500
  20
4662624.000
  0
VERTEX
  8
Unknown_Area_Type
  10
363232.000
  20
4662735.000
  0
VERTEX
  8
Unknown_Area_Type
  10
362628.500
  20
4666933.000
  0
VERTEX
  8
Unknown_Area_Type
  10
362107.500
  20
4666966.000
  0
VERTEX
  8
Unknown_Area_Type
  10
360842.500
  20
4662635.500
  0
VERTEX
  8
Unknown_Area_Type
  10
363002.500
  20
4662498.500
  0
VERTEX
  8
Unknown_Area_Type
  10
363011.000
  20
4662498.500
  0
VERTEX
  8
Unknown_Area_Type
  10
363013.000
  20
4662499.500
  0
VERTEX
  8
Unknown_Area_Type
  10
363075.000
  20
4662536.000
  0
SEQEND
  8
Unknown_Area_Type
  0
INSERT
  8
FeatureAttribs
  2
FEATURE
  41
1
  42
1
  43
1
  50
0
  10
350480.461
  20
4665103.832
 66
1
  0
ATTRIB
  8
FeatureAttribs
 70
0
  1
PNOA-H_AMS_1956-57_33k_ES_PAN_2
  2
NAME
  10
350480.461
  20
4665103.832
 40
33.81366
  0
SEQEND
  0
POLYLINE
  8
Unknown_Area_Type
  70
1
  66
1
  0
VERTEX
  8
Unknown_Area_Type
  10
349484.500
  20
4667541.500
  0
VERTEX
  8
Unknown_Area_Type
  10
351924.500
  20
4667309.500
  0
VERTEX
  8
Unknown_Area_Type
  10
351857.000
  20
4662841.000
  0
VERTEX
  8
Unknown_Area_Type
  10
351527.000
  20
4662666.500
  0
VERTEX
  8
Unknown_Area_Type
  10
351521.000
  20
4662664.500
  0
VERTEX
  8
Unknown_Area_Type
  10
349022.000
  20
4662915.500
  0
VERTEX
  8
Unknown_Area_Type
  10
349113.000
  20
4667364.000
  0
VERTEX
  8
Unknown_Area_Type
  10
349483.500
  20
4667541.000
  0
VERTEX
  8
Unknown_Area_Type
  10
349484.500
  20
4667541.500
  0
SEQEND
  8
Unknown_Area_Type
  0
INSERT
  8
FeatureAttribs
  2
FEATURE
  41
1
  42
1
  43
1
  50
0
  10
350480.461
  20
4665103.832
 66
1
  0
ATTRIB
  8
FeatureAttribs
 70
0
  1
PNOA-H_AMS_1956-57_33k_ES_PAN_2
  2
NAME
  10
350480.461
  20
4665103.832
 40
33.81366
  0
SEQEND
  0
POLYLINE
  8
Unknown_Area_Type
  70
1
  66
1
  0
VERTEX
  8
Unknown_Area_Type
  10
349484.500
  20
4667541.500
  0
VERTEX
  8
Unknown_Area_Type
  10
349483.500
  20
4667541.000
  0
VERTEX
  8
Unknown_Area_Type
  10
349113.000
  20
4667364.000
  0
VERTEX
  8
Unknown_Area_Type
  10
349022.000
  20
4662915.500
  0
VERTEX
  8
Unknown_Area_Type
  10
351521.000
  20
4662664.500
  0
VERTEX
  8
Unknown_Area_Type
  10
351527.000
  20
4662666.500
  0
VERTEX
  8
Unknown_Area_Type
  10
351857.000
  20
4662841.000
  0
VERTEX
  8
Unknown_Area_Type
  10
351924.500
  20
4667309.500
  0
VERTEX
  8
Unknown_Area_Type
  10
349484.500
  20
4667541.500
  0
SEQEND
  8
Unknown_Area_Type
  0
INSERT
  8
FeatureAttribs
  2
FEATURE
  41
1
  42
1
  43
1
  50
0
  10
353331.424
  20
4665022.490
 66
1
  0
ATTRIB
  8
FeatureAttribs
 70
0
  1
PNOA-H_AMS_1956-57_33k_ES_PAN_2
  2
NAME
  10
353331.424
  20
4665022.490
 40
33.81366
  0
SEQEND
  0
POLYLINE
  8
Unknown_Area_Type
  70
1
  66
1
  0
VERTEX
  8
Unknown_Area_Type
  10
351889.500
  20
4664999.500
  0
VERTEX
  8
Unknown_Area_Type
  10
351925.000
  20
4667310.000
  0
VERTEX
  8
Unknown_Area_Type
  10
352180.500
  20
4667437.000
  0
VERTEX
  8
Unknown_Area_Type
  10
354822.000
  20
4667201.000
  0
VERTEX
  8
Unknown_Area_Type
  10
354724.000
  20
4662769.000
  0
VERTEX
  8
Unknown_Area_Type
  10
354407.000
  20
4662594.500
  0
VERTEX
  8
Unknown_Area_Type
  10
354404.000
  20
4662593.000
  0
VERTEX
  8
Unknown_Area_Type
  10
354398.500
  20
4662593.000
  0
VERTEX
  8
Unknown_Area_Type
  10
351857.000
  20
4662841.000
  0
VERTEX
  8
Unknown_Area_Type
  10
351889.500
  20
4664966.000
  0
VERTEX
  8
Unknown_Area_Type
  10
351889.500
  20
4664999.500
  0
SEQEND
  8
Unknown_Area_Type
  0
INSERT
  8
FeatureAttribs
  2
FEATURE
  41
1
  42
1
  43
1
  50
0
  10
353331.424
  20
4665022.490
 66
1
  0
ATTRIB
  8
FeatureAttribs
 70
0
  1
PNOA-H_AMS_1956-57_33k_ES_PAN_2
  2
NAME
  10
353331.424
  20
4665022.490
 40
33.81366
  0
SEQEND
  0
POLYLINE
  8
Unknown_Area_Type
  70
1
  66
1
  0
VERTEX
  8
Unknown_Area_Type
  10
351889.500
  20
4664999.500
  0
VERTEX
  8
Unknown_Area_Type
  10
351889.500
  20
4664966.000
  0
VERTEX
  8
Unknown_Area_Type
  10
351857.000
  20
4662841.000
  0
VERTEX
  8
Unknown_Area_Type
  10
354398.500
  20
4662593.000
  0
VERTEX
  8
Unknown_Area_Type
  10
354404.000
  20
4662593.000
  0
VERTEX
  8
Unknown_Area_Type
  10
354407.000
  20
4662594.500
  0
VERTEX
  8
Unknown_Area_Type
  10
354724.000
  20
4662769.000
  0
VERTEX
  8
Unknown_Area_Type
  10
354822.000
  20
4667201.000
  0
VERTEX
  8
Unknown_Area_Type
  10
352180.500
  20
4667437.000
  0
VERTEX
  8
Unknown_Area_Type
  10
351925.000
  20
4667310.000
  0
VERTEX
  8
Unknown_Area_Type
  10
351889.500
  20
4664999.500
  0
SEQEND
  8
Unknown_Area_Type
  0
INSERT
  8
FeatureAttribs
  2
FEATURE
  41
1
  42
1
  43
1
  50
0
  10
370684.205
  20
4663743.847
 66
1
  0
ATTRIB
  8
FeatureAttribs
 70
0
  1
PNOA-H_AMS_1956-57_33k_ES_PAN_2
  2
NAME
  10
370684.205
  20
4663743.847
 40
33.81366
  0
SEQEND
  0
POLYLINE
  8
Unknown_Area_Type
  70
1
  66
1
  0
VERTEX
  8
Unknown_Area_Type
  10
371908.000
  20
4666227.500
  0
VERTEX
  8
Unknown_Area_Type
  10
371852.500
  20
4662540.500
  0
VERTEX
  8
Unknown_Area_Type
  10
371216.000
  20
4662177.000
  0
VERTEX
  8
Unknown_Area_Type
  10
368936.500
  20
4662523.500
  0
VERTEX
  8
Unknown_Area_Type
  10
368930.500
  20
4662524.500
  0
VERTEX
  8
Unknown_Area_Type
  10
368930.500
  20
4662531.500
  0
VERTEX
  8
Unknown_Area_Type
  10
368994.500
  20
4663635.500
  0
VERTEX
  8
Unknown_Area_Type
  10
371907.500
  20
4666226.500
  0
VERTEX
  8
Unknown_Area_Type
  10
371908.000
  20
4666227.500
  0
SEQEND
  8
Unknown_Area_Type
  0
INSERT
  8
FeatureAttribs
  2
FEATURE
  41
1
  42
1
  43
1
  50
0
  10
370684.205
  20
4663743.847
 66
1
  0
ATTRIB
  8
FeatureAttribs
 70
0
  1
PNOA-H_AMS_1956-57_33k_ES_PAN_2
  2
NAME
  10
370684.205
  20
4663743.847
 40
33.81366
  0
SEQEND
  0
POLYLINE
  8
Unknown_Area_Type
  70
1
  66
1
  0
VERTEX
  8
Unknown_Area_Type
  10
371908.000
  20
4666227.500
  0
VERTEX
  8
Unknown_Area_Type
  10
371907.500
  20
4666226.500
  0
VERTEX
  8
Unknown_Area_Type
  10
368994.500
  20
4663635.500
  0
VERTEX
  8
Unknown_Area_Type
  10
368930.500
  20
4662531.500
  0
VERTEX
  8
Unknown_Area_Type
  10
368930.500
  20
4662524.500
  0
VERTEX
  8
Unknown_Area_Type
  10
368936.500
  20
4662523.500
  0
VERTEX
  8
Unknown_Area_Type
  10
371216.000
  20
4662177.000
  0
VERTEX
  8
Unknown_Area_Type
  10
371852.500
  20
4662540.500
  0
VERTEX
  8
Unknown_Area_Type
  10
371908.000
  20
4666227.500
  0
SEQEND
  8
Unknown_Area_Type
  0
INSERT
  8
FeatureAttribs
  2
FEATURE
  41
1
  42
1
  43
1
  50
0
  10
367746.139
  20
4663721.396
 66
1
  0
ATTRIB
  8
FeatureAttribs
 70
0
  1
PNOA-H_AMS_1956-57_33k_ES_PAN_2
  2
NAME
  10
367746.139
  20
4663721.396
 40
33.81366
  0
SEQEND
  0
POLYLINE
  8
Unknown_Area_Type
  70
1
  66
1
  0
VERTEX
  8
Unknown_Area_Type
  10
368931.000
  20
4662536.000
  0
VERTEX
  8
Unknown_Area_Type
  10
368930.500
  20
4662524.500
  0
VERTEX
  8
Unknown_Area_Type
  10
368479.000
  20
4662274.500
  0
VERTEX
  8
Unknown_Area_Type
  10
366087.500
  20
4662577.500
  0
VERTEX
  8
Unknown_Area_Type
  10
366129.000
  20
4663295.000
  0
VERTEX
  8
Unknown_Area_Type
  10
366130.000
  20
4663297.000
  0
VERTEX
  8
Unknown_Area_Type
  10
368290.500
  20
4666079.500
  0
VERTEX
  8
Unknown_Area_Type
  10
368318.500
  20
4666115.500
  0
VERTEX
  8
Unknown_Area_Type
  10
368320.500
  20
4666116.500
  0
VERTEX
  8
Unknown_Area_Type
  10
368994.500
  20
4663636.000
  0
VERTEX
  8
Unknown_Area_Type
  10
368931.000
  20
4662540.500
  0
VERTEX
  8
Unknown_Area_Type
  10
368931.000
  20
4662536.000
  0
SEQEND
  8
Unknown_Area_Type
  0
INSERT
  8
FeatureAttribs
  2
FEATURE
  41
1
  42
1
  43
1
  50
0
  10
367746.139
  20
4663721.396
 66
1
  0
ATTRIB
  8
FeatureAttribs
 70
0
  1
PNOA-H_AMS_1956-57_33k_ES_PAN_2
  2
NAME
  10
367746.139
  20
4663721.396
 40
33.81366
  0
SEQEND
  0
POLYLINE
  8
Unknown_Area_Type
  70
1
  66
1
  0
VERTEX
  8
Unknown_Area_Type
  10
368931.000
  20
4662536.000
  0
VERTEX
  8
Unknown_Area_Type
  10
368931.000
  20
4662540.500
  0
VERTEX
  8
Unknown_Area_Type
  10
368994.500
  20
4663636.000
  0
VERTEX
  8
Unknown_Area_Type
  10
368320.500
  20
4666116.500
  0
VERTEX
  8
Unknown_Area_Type
  10
368318.500
  20
4666115.500
  0
VERTEX
  8
Unknown_Area_Type
  10
368290.500
  20
4666079.500
  0
VERTEX
  8
Unknown_Area_Type
  10
366130.000
  20
4663297.000
  0
VERTEX
  8
Unknown_Area_Type
  10
366129.000
  20
4663295.000
  0
VERTEX
  8
Unknown_Area_Type
  10
366087.500
  20
4662577.500
  0
VERTEX
  8
Unknown_Area_Type
  10
368479.000
  20
4662274.500
  0
VERTEX
  8
Unknown_Area_Type
  10
368930.500
  20
4662524.500
  0
VERTEX
  8
Unknown_Area_Type
  10
368931.000
  20
4662536.000
  0
SEQEND
  8
Unknown_Area_Type
  0
INSERT
  8
FeatureAttribs
  2
FEATURE
  41
1
  42
1
  43
1
  50
0
  10
374331.628
  20
4664426.961
 66
1
  0
ATTRIB
  8
FeatureAttribs
 70
0
  1
PNOA-H_AMS_1956-57_33k_ES_PAN_2
  2
NAME
  10
374331.628
  20
4664426.961
 40
33.81366
  0
SEQEND
  0
POLYLINE
  8
Unknown_Area_Type
  70
1
  66
1
  0
VERTEX
  8
Unknown_Area_Type
  10
374375.945
  20
4662379.673
  0
VERTEX
  8
Unknown_Area_Type
  10
374249.690
  20
4662313.871
  0
VERTEX
  8
Unknown_Area_Type
  10
374252.307
  20
4662460.937
  0
VERTEX
  8
Unknown_Area_Type
  10
374293.494
  20
4664774.167
  0
VERTEX
  8
Unknown_Area_Type
  10
374324.910
  20
4666537.934
  0
VERTEX
  8
Unknown_Area_Type
  10
374375.945
  20
4666540.051
  0
VERTEX
  8
Unknown_Area_Type
  10
374375.945
  20
4662379.673
  0
SEQEND
  8
Unknown_Area_Type
  0
INSERT
  8
FeatureAttribs
  2
FEATURE
  41
1
  42
1
  43
1
  50
0
  10
373107.268
  20
4664405.829
 66
1
  0
ATTRIB
  8
FeatureAttribs
 70
0
  1
PNOA-H_AMS_1956-57_33k_ES_PAN_2
  2
NAME
  10
373107.268
  20
4664405.829
 40
33.81366
  0
SEQEND
  0
POLYLINE
  8
Unknown_Area_Type
  70
1
  66
1
  0
VERTEX
  8
Unknown_Area_Type
  10
374249.690
  20
4662313.871
  0
VERTEX
  8
Unknown_Area_Type
  10
373918.000
  20
4662141.000
  0
VERTEX
  8
Unknown_Area_Type
  10
371852.500
  20
4662541.000
  0
VERTEX
  8
Unknown_Area_Type
  10
371908.500
  20
4666229.000
  0
VERTEX
  8
Unknown_Area_Type
  10
371955.000
  20
4666439.500
  0
VERTEX
  8
Unknown_Area_Type
  10
372350.500
  20
4666456.000
  0
VERTEX
  8
Unknown_Area_Type
  10
372362.500
  20
4666456.500
  0
VERTEX
  8
Unknown_Area_Type
  10
374324.910
  20
4666537.934
  0
VERTEX
  8
Unknown_Area_Type
  10
374293.494
  20
4664774.167
  0
VERTEX
  8
Unknown_Area_Type
  10
374252.307
  20
4662460.937
  0
VERTEX
  8
Unknown_Area_Type
  10
374249.690
  20
4662313.871
  0
SEQEND
  8
Unknown_Area_Type
  0
INSERT
  8
FeatureAttribs
  2
FEATURE
  41
1
  42
1
  43
1
  50
0
  10
373107.268
  20
4664405.829
 66
1
  0
ATTRIB
  8
FeatureAttribs
 70
0
  1
PNOA-H_AMS_1956-57_33k_ES_PAN_2
  2
NAME
  10
373107.268
  20
4664405.829
 40
33.81366
  0
SEQEND
  0
POLYLINE
  8
Unknown_Area_Type
  70
1
  66
1
  0
VERTEX
  8
Unknown_Area_Type
  10
374249.690
  20
4662313.871
  0
VERTEX
  8
Unknown_Area_Type
  10
374252.307
  20
4662460.937
  0
VERTEX
  8
Unknown_Area_Type
  10
374293.494
  20
4664774.167
  0
VERTEX
  8
Unknown_Area_Type
  10
374324.910
  20
4666537.934
  0
VERTEX
  8
Unknown_Area_Type
  10
372362.500
  20
4666456.500
  0
VERTEX
  8
Unknown_Area_Type
  10
372350.500
  20
4666456.000
  0
VERTEX
  8
Unknown_Area_Type
  10
371955.000
  20
4666439.500
  0
VERTEX
  8
Unknown_Area_Type
  10
371908.500
  20
4666229.000
  0
VERTEX
  8
Unknown_Area_Type
  10
371852.500
  20
4662541.000
  0
VERTEX
  8
Unknown_Area_Type
  10
373918.000
  20
4662141.000
  0
VERTEX
  8
Unknown_Area_Type
  10
374249.690
  20
4662313.871
  0
SEQEND
  8
Unknown_Area_Type
  0
INSERT
  8
FeatureAttribs
  2
FEATURE
  41
1
  42
1
  43
1
  50
0
  10
359849.833
  20
4660256.296
 66
1
  0
ATTRIB
  8
FeatureAttribs
 70
0
  1
PNOA-H_AMS_1956-57_33k_ES_PAN_2
  2
NAME
  10
359849.833
  20
4660256.296
 40
33.81366
  0
SEQEND
  0
POLYLINE
  8
Unknown_Area_Type
  70
1
  66
1
  0
VERTEX
  8
Unknown_Area_Type
  10
360079.000
  20
4662705.500
  0
VERTEX
  8
Unknown_Area_Type
  10
360179.500
  20
4662714.000
  0
VERTEX
  8
Unknown_Area_Type
  10
360512.000
  20
4662594.500
  0
VERTEX
  8
Unknown_Area_Type
  10
360558.500
  20
4658034.000
  0
VERTEX
  8
Unknown_Area_Type
  10
360558.500
  20
4658002.000
  0
VERTEX
  8
Unknown_Area_Type
  10
360083.000
  20
4657799.500
  0
VERTEX
  8
Unknown_Area_Type
  10
359159.000
  20
4657940.500
  0
VERTEX
  8
Unknown_Area_Type
  10
359166.500
  20
4662623.000
  0
VERTEX
  8
Unknown_Area_Type
  10
360073.500
  20
4662705.000
  0
VERTEX
  8
Unknown_Area_Type
  10
360079.000
  20
4662705.500
  0
SEQEND
  8
Unknown_Area_Type
  0
INSERT
  8
FeatureAttribs
  2
FEATURE
  41
1
  42
1
  43
1
  50
0
  10
359849.833
  20
4660256.296
 66
1
  0
ATTRIB
  8
FeatureAttribs
 70
0
  1
PNOA-H_AMS_1956-57_33k_ES_PAN_2
  2
NAME
  10
359849.833
  20
4660256.296
 40
33.81366
  0
SEQEND
  0
POLYLINE
  8
Unknown_Area_Type
  70
1
  66
1
  0
VERTEX
  8
Unknown_Area_Type
  10
360079.000
  20
4662705.500
  0
VERTEX
  8
Unknown_Area_Type
  10
360073.500
  20
4662705.000
  0
VERTEX
  8
Unknown_Area_Type
  10
359166.500
  20
4662623.000
  0
VERTEX
  8
Unknown_Area_Type
  10
359159.000
  20
4657940.500
  0
VERTEX
  8
Unknown_Area_Type
  10
360083.000
  20
4657799.500
  0
VERTEX
  8
Unknown_Area_Type
  10
360558.500
  20
4658002.000
  0
VERTEX
  8
Unknown_Area_Type
  10
360558.500
  20
4658034.000
  0
VERTEX
  8
Unknown_Area_Type
  10
360512.000
  20
4662594.500
  0
VERTEX
  8
Unknown_Area_Type
  10
360179.500
  20
4662714.000
  0
VERTEX
  8
Unknown_Area_Type
  10
360079.000
  20
4662705.500
  0
SEQEND
  8
Unknown_Area_Type
  0
INSERT
  8
FeatureAttribs
  2
FEATURE
  41
1
  42
1
  43
1
  50
0
  10
372279.032
  20
4657577.182
 66
1
  0
ATTRIB
  8
FeatureAttribs
 70
0
  1
PNOA-H_AMS_1956-57_33k_ES_PAN_2
  2
NAME
  10
372279.032
  20
4657577.182
 40
33.81366
  0
SEQEND
  0
POLYLINE
  8
Unknown_Area_Type
  70
1
  66
1
  0
VERTEX
  8
Unknown_Area_Type
  10
372285.500
  20
4657589.000
  0
VERTEX
  8
Unknown_Area_Type
  10
372291.000
  20
4657588.000
  0
VERTEX
  8
Unknown_Area_Type
  10
372294.000
  20
4657584.500
  0
VERTEX
  8
Unknown_Area_Type
  10
372294.000
  20
4657580.500
  0
VERTEX
  8
Unknown_Area_Type
  10
372279.000
  20
4657566.000
  0
VERTEX
  8
Unknown_Area_Type
  10
372271.000
  20
4657566.000
  0
VERTEX
  8
Unknown_Area_Type
  10
372267.000
  20
4657569.000
  0
VERTEX
  8
Unknown_Area_Type
  10
372266.000
  20
4657571.000
  0
VERTEX
  8
Unknown_Area_Type
  10
372266.000
  20
4657579.500
  0
VERTEX
  8
Unknown_Area_Type
  10
372270.500
  20
4657584.000
  0
VERTEX
  8
Unknown_Area_Type
  10
372281.000
  20
4657584.000
  0
VERTEX
  8
Unknown_Area_Type
  10
372285.000
  20
4657588.000
  0
VERTEX
  8
Unknown_Area_Type
  10
372285.500
  20
4657589.000
  0
SEQEND
  8
Unknown_Area_Type
  0
INSERT
  8
FeatureAttribs
  2
FEATURE
  41
1
  42
1
  43
1
  50
0
  10
372279.032
  20
4657577.182
 66
1
  0
ATTRIB
  8
FeatureAttribs
 70
0
  1
PNOA-H_AMS_1956-57_33k_ES_PAN_2
  2
NAME
  10
372279.032
  20
4657577.182
 40
33.81366
  0
SEQEND
  0
POLYLINE
  8
Unknown_Area_Type
  70
1
  66
1
  0
VERTEX
  8
Unknown_Area_Type
  10
372285.500
  20
4657589.000
  0
VERTEX
  8
Unknown_Area_Type
  10
372285.000
  20
4657588.000
  0
VERTEX
  8
Unknown_Area_Type
  10
372281.000
  20
4657584.000
  0
VERTEX
  8
Unknown_Area_Type
  10
372270.500
  20
4657584.000
  0
VERTEX
  8
Unknown_Area_Type
  10
372266.000
  20
4657579.500
  0
VERTEX
  8
Unknown_Area_Type
  10
372266.000
  20
4657571.000
  0
VERTEX
  8
Unknown_Area_Type
  10
372267.000
  20
4657569.000
  0
VERTEX
  8
Unknown_Area_Type
  10
372271.000
  20
4657566.000
  0
VERTEX
  8
Unknown_Area_Type
  10
372279.000
  20
4657566.000
  0
VERTEX
  8
Unknown_Area_Type
  10
372294.000
  20
4657580.500
  0
VERTEX
  8
Unknown_Area_Type
  10
372294.000
  20
4657584.500
  0
VERTEX
  8
Unknown_Area_Type
  10
372291.000
  20
4657588.000
  0
VERTEX
  8
Unknown_Area_Type
  10
372285.500
  20
4657589.000
  0
SEQEND
  8
Unknown_Area_Type
  0
INSERT
  8
FeatureAttribs
  2
FEATURE
  41
1
  42
1
  43
1
  50
0
  10
372565.881
  20
4660132.043
 66
1
  0
ATTRIB
  8
FeatureAttribs
 70
0
  1
PNOA-H_AMS_1956-57_33k_ES_PAN_2
  2
NAME
  10
372565.881
  20
4660132.043
 40
33.81366
  0
SEQEND
  0
POLYLINE
  8
Unknown_Area_Type
  70
1
  66
1
  0
VERTEX
  8
Unknown_Area_Type
  10
371216.500
  20
4662178.000
  0
VERTEX
  8
Unknown_Area_Type
  10
371853.500
  20
4662541.000
  0
VERTEX
  8
Unknown_Area_Type
  10
373917.000
  20
4662141.000
  0
VERTEX
  8
Unknown_Area_Type
  10
373957.500
  20
4658456.000
  0
VERTEX
  8
Unknown_Area_Type
  10
373957.500
  20
4658440.000
  0
VERTEX
  8
Unknown_Area_Type
  10
373962.500
  20
4657978.000
  0
VERTEX
  8
Unknown_Area_Type
  10
371476.500
  20
4657867.500
  0
VERTEX
  8
Unknown_Area_Type
  10
371235.500
  20
4657994.000
  0
VERTEX
  8
Unknown_Area_Type
  10
371215.500
  20
4662146.000
  0
VERTEX
  8
Unknown_Area_Type
  10
371215.500
  20
4662177.000
  0
VERTEX
  8
Unknown_Area_Type
  10
371216.500
  20
4662178.000
  0
SEQEND
  8
Unknown_Area_Type
  0
INSERT
  8
FeatureAttribs
  2
FEATURE
  41
1
  42
1
  43
1
  50
0
  10
372565.881
  20
4660132.043
 66
1
  0
ATTRIB
  8
FeatureAttribs
 70
0
  1
PNOA-H_AMS_1956-57_33k_ES_PAN_2
  2
NAME
  10
372565.881
  20
4660132.043
 40
33.81366
  0
SEQEND
  0
POLYLINE
  8
Unknown_Area_Type
  70
1
  66
1
  0
VERTEX
  8
Unknown_Area_Type
  10
371216.500
  20
4662178.000
  0
VERTEX
  8
Unknown_Area_Type
  10
371215.500
  20
4662177.000
  0
VERTEX
  8
Unknown_Area_Type
  10
371215.500
  20
4662146.000
  0
VERTEX
  8
Unknown_Area_Type
  10
371235.500
  20
4657994.000
  0
VERTEX
  8
Unknown_Area_Type
  10
371476.500
  20
4657867.500
  0
VERTEX
  8
Unknown_Area_Type
  10
373962.500
  20
4657978.000
  0
VERTEX
  8
Unknown_Area_Type
  10
373957.500
  20
4658440.000
  0
VERTEX
  8
Unknown_Area_Type
  10
373957.500
  20
4658456.000
  0
VERTEX
  8
Unknown_Area_Type
  10
373917.000
  20
4662141.000
  0
VERTEX
  8
Unknown_Area_Type
  10
371853.500
  20
4662541.000
  0
VERTEX
  8
Unknown_Area_Type
  10
371216.500
  20
4662178.000
  0
SEQEND
  8
Unknown_Area_Type
  0
INSERT
  8
FeatureAttribs
  2
FEATURE
  41
1
  42
1
  43
1
  50
0
  10
358274.778
  20
4660296.364
 66
1
  0
ATTRIB
  8
FeatureAttribs
 70
0
  1
PNOA-H_AMS_1956-57_33k_ES_PAN_2
  2
NAME
  10
358274.778
  20
4660296.364
 40
33.81366
  0
SEQEND
  0
POLYLINE
  8
Unknown_Area_Type
  70
1
  66
1
  0
VERTEX
  8
Unknown_Area_Type
  10
358032.000
  20
4662603.500
  0
VERTEX
  8
Unknown_Area_Type
  10
358350.000
  20
4662648.000
  0
VERTEX
  8
Unknown_Area_Type
  10
359166.500
  20
4662623.000
  0
VERTEX
  8
Unknown_Area_Type
  10
359159.000
  20
4657940.500
  0
VERTEX
  8
Unknown_Area_Type
  10
357381.000
  20
4658016.500
  0
VERTEX
  8
Unknown_Area_Type
  10
357367.500
  20
4662510.500
  0
VERTEX
  8
Unknown_Area_Type
  10
358028.000
  20
4662603.000
  0
VERTEX
  8
Unknown_Area_Type
  10
358032.000
  20
4662603.500
  0
SEQEND
  8
Unknown_Area_Type
  0
INSERT
  8
FeatureAttribs
  2
FEATURE
  41
1
  42
1
  43
1
  50
0
  10
358274.778
  20
4660296.364
 66
1
  0
ATTRIB
  8
FeatureAttribs
 70
0
  1
PNOA-H_AMS_1956-57_33k_ES_PAN_2
  2
NAME
  10
358274.778
  20
4660296.364
 40
33.81366
  0
SEQEND
  0
POLYLINE
  8
Unknown_Area_Type
  70
1
  66
1
  0
VERTEX
  8
Unknown_Area_Type
  10
358032.000
  20
4662603.500
  0
VERTEX
  8
Unknown_Area_Type
  10
358028.000
  20
4662603.000
  0
VERTEX
  8
Unknown_Area_Type
  10
357367.500
  20
4662510.500
  0
VERTEX
  8
Unknown_Area_Type
  10
357381.000
  20
4658016.500
  0
VERTEX
  8
Unknown_Area_Type
  10
359159.000
  20
4657940.500
  0
VERTEX
  8
Unknown_Area_Type
  10
359166.500
  20
4662623.000
  0
VERTEX
  8
Unknown_Area_Type
  10
358350.000
  20
4662648.000
  0
VERTEX
  8
Unknown_Area_Type
  10
358032.000
  20
4662603.500
  0
SEQEND
  8
Unknown_Area_Type
  0
INSERT
  8
FeatureAttribs
  2
FEATURE
  41
1
  42
1
  43
1
  50
0
  10
364385.376
  20
4660256.154
 66
1
  0
ATTRIB
  8
FeatureAttribs
 70
0
  1
PNOA-H_AMS_1956-57_33k_ES_PAN_2
  2
NAME
  10
364385.376
  20
4660256.154
 40
33.81366
  0
SEQEND
  0
POLYLINE
  8
Unknown_Area_Type
  70
1
  66
1
  0
VERTEX
  8
Unknown_Area_Type
  10
363226.000
  20
4662624.000
  0
VERTEX
  8
Unknown_Area_Type
  10
365783.500
  20
4662404.000
  0
VERTEX
  8
Unknown_Area_Type
  10
365750.000
  20
4657956.500
  0
VERTEX
  8
Unknown_Area_Type
  10
363030.000
  20
4658001.500
  0
VERTEX
  8
Unknown_Area_Type
  10
363010.500
  20
4662498.500
  0
VERTEX
  8
Unknown_Area_Type
  10
363225.500
  20
4662623.000
  0
VERTEX
  8
Unknown_Area_Type
  10
363226.000
  20
4662624.000
  0
SEQEND
  8
Unknown_Area_Type
  0
INSERT
  8
FeatureAttribs
  2
FEATURE
  41
1
  42
1
  43
1
  50
0
  10
364385.376
  20
4660256.154
 66
1
  0
ATTRIB
  8
FeatureAttribs
 70
0
  1
PNOA-H_AMS_1956-57_33k_ES_PAN_2
  2
NAME
  10
364385.376
  20
4660256.154
 40
33.81366
  0
SEQEND
  0
POLYLINE
  8
Unknown_Area_Type
  70
1
  66
1
  0
VERTEX
  8
Unknown_Area_Type
  10
363226.000
  20
4662624.000
  0
VERTEX
  8
Unknown_Area_Type
  10
363225.500
  20
4662623.000
  0
VERTEX
  8
Unknown_Area_Type
  10
363010.500
  20
4662498.500
  0
VERTEX
  8
Unknown_Area_Type
  10
363030.000
  20
4658001.500
  0
VERTEX
  8
Unknown_Area_Type
  10
365750.000
  20
4657956.500
  0
VERTEX
  8
Unknown_Area_Type
  10
365783.500
  20
4662404.000
  0
VERTEX
  8
Unknown_Area_Type
  10
363226.000
  20
4662624.000
  0
SEQEND
  8
Unknown_Area_Type
  0
INSERT
  8
FeatureAttribs
  2
FEATURE
  41
1
  42
1
  43
1
  50
0
  10
369840.699
  20
4660158.089
 66
1
  0
ATTRIB
  8
FeatureAttribs
 70
0
  1
PNOA-H_AMS_1956-57_33k_ES_PAN_2
  2
NAME
  10
369840.699
  20
4660158.089
 40
33.81366
  0
SEQEND
  0
POLYLINE
  8
Unknown_Area_Type
  70
1
  66
1
  0
VERTEX
  8
Unknown_Area_Type
  10
370322.000
  20
4662313.000
  0
VERTEX
  8
Unknown_Area_Type
  10
371215.500
  20
4662177.000
  0
VERTEX
  8
Unknown_Area_Type
  10
371235.500
  20
4657994.000
  0
VERTEX
  8
Unknown_Area_Type
  10
368574.000
  20
4657914.500
  0
VERTEX
  8
Unknown_Area_Type
  10
368571.500
  20
4657914.500
  0
VERTEX
  8
Unknown_Area_Type
  10
368566.500
  20
4657917.000
  0
VERTEX
  8
Unknown_Area_Type
  10
368506.500
  20
4657950.000
  0
VERTEX
  8
Unknown_Area_Type
  10
368480.000
  20
4662275.000
  0
VERTEX
  8
Unknown_Area_Type
  10
368929.500
  20
4662524.500
  0
VERTEX
  8
Unknown_Area_Type
  10
370320.500
  20
4662313.000
  0
VERTEX
  8
Unknown_Area_Type
  10
370322.000
  20
4662313.000
  0
SEQEND
  8
Unknown_Area_Type
  0
INSERT
  8
FeatureAttribs
  2
FEATURE
  41
1
  42
1
  43
1
  50
0
  10
369840.699
  20
4660158.089
 66
1
  0
ATTRIB
  8
FeatureAttribs
 70
0
  1
PNOA-H_AMS_1956-57_33k_ES_PAN_2
  2
NAME
  10
369840.699
  20
4660158.089
 40
33.81366
  0
SEQEND
  0
POLYLINE
  8
Unknown_Area_Type
  70
1
  66
1
  0
VERTEX
  8
Unknown_Area_Type
  10
370322.000
  20
4662313.000
  0
VERTEX
  8
Unknown_Area_Type
  10
370320.500
  20
4662313.000
  0
VERTEX
  8
Unknown_Area_Type
  10
368929.500
  20
4662524.500
  0
VERTEX
  8
Unknown_Area_Type
  10
368480.000
  20
4662275.000
  0
VERTEX
  8
Unknown_Area_Type
  10
368506.500
  20
4657950.000
  0
VERTEX
  8
Unknown_Area_Type
  10
368566.500
  20
4657917.000
  0
VERTEX
  8
Unknown_Area_Type
  10
368571.500
  20
4657914.500
  0
VERTEX
  8
Unknown_Area_Type
  10
368574.000
  20
4657914.500
  0
VERTEX
  8
Unknown_Area_Type
  10
371235.500
  20
4657994.000
  0
VERTEX
  8
Unknown_Area_Type
  10
371215.500
  20
4662177.000
  0
VERTEX
  8
Unknown_Area_Type
  10
370322.000
  20
4662313.000
  0
SEQEND
  8
Unknown_Area_Type
  0
INSERT
  8
FeatureAttribs
  2
FEATURE
  41
1
  42
1
  43
1
  50
0
  10
361774.136
  20
4660276.763
 66
1
  0
ATTRIB
  8
FeatureAttribs
 70
0
  1
PNOA-H_AMS_1956-57_33k_ES_PAN_2
  2
NAME
  10
361774.136
  20
4660276.763
 40
33.81366
  0
SEQEND
  0
POLYLINE
  8
Unknown_Area_Type
  70
1
  66
1
  0
VERTEX
  8
Unknown_Area_Type
  10
360839.000
  20
4662635.500
  0
VERTEX
  8
Unknown_Area_Type
  10
363010.500
  20
4662498.500
  0
VERTEX
  8
Unknown_Area_Type
  10
363030.000
  20
4658001.500
  0
VERTEX
  8
Unknown_Area_Type
  10
362919.500
  20
4657941.000
  0
VERTEX
  8
Unknown_Area_Type
  10
360558.500
  20
4658002.500
  0
VERTEX
  8
Unknown_Area_Type
  10
360512.000
  20
4662594.500
  0
VERTEX
  8
Unknown_Area_Type
  10
360835.000
  20
4662635.000
  0
VERTEX
  8
Unknown_Area_Type
  10
360839.000
  20
4662635.500
  0
SEQEND
  8
Unknown_Area_Type
  0
INSERT
  8
FeatureAttribs
  2
FEATURE
  41
1
  42
1
  43
1
  50
0
  10
361774.136
  20
4660276.763
 66
1
  0
ATTRIB
  8
FeatureAttribs
 70
0
  1
PNOA-H_AMS_1956-57_33k_ES_PAN_2
  2
NAME
  10
361774.136
  20
4660276.763
 40
33.81366
  0
SEQEND
  0
POLYLINE
  8
Unknown_Area_Type
  70
1
  66
1
  0
VERTEX
  8
Unknown_Area_Type
  10
360839.000
  20
4662635.500
  0
VERTEX
  8
Unknown_Area_Type
  10
360835.000
  20
4662635.000
  0
VERTEX
  8
Unknown_Area_Type
  10
360512.000
  20
4662594.500
  0
VERTEX
  8
Unknown_Area_Type
  10
360558.500
  20
4658002.500
  0
VERTEX
  8
Unknown_Area_Type
  10
362919.500
  20
4657941.000
  0
VERTEX
  8
Unknown_Area_Type
  10
363030.000
  20
4658001.500
  0
VERTEX
  8
Unknown_Area_Type
  10
363010.500
  20
4662498.500
  0
VERTEX
  8
Unknown_Area_Type
  10
360839.000
  20
4662635.500
  0
SEQEND
  8
Unknown_Area_Type
  0
INSERT
  8
FeatureAttribs
  2
FEATURE
  41
1
  42
1
  43
1
  50
0
  10
355859.899
  20
4660290.225
 66
1
  0
ATTRIB
  8
FeatureAttribs
 70
0
  1
PNOA-H_AMS_1956-57_33k_ES_PAN_2
  2
NAME
  10
355859.899
  20
4660290.225
 40
33.81366
  0
SEQEND
  0
POLYLINE
  8
Unknown_Area_Type
  70
1
  66
1
  0
VERTEX
  8
Unknown_Area_Type
  10
354724.000
  20
4662769.500
  0
VERTEX
  8
Unknown_Area_Type
  10
357264.000
  20
4662564.000
  0
VERTEX
  8
Unknown_Area_Type
  10
357267.500
  20
4662563.500
  0
VERTEX
  8
Unknown_Area_Type
  10
357367.500
  20
4662510.500
  0
VERTEX
  8
Unknown_Area_Type
  10
357381.000
  20
4658016.000
  0
VERTEX
  8
Unknown_Area_Type
  10
357244.000
  20
4657936.500
  0
VERTEX
  8
Unknown_Area_Type
  10
357241.000
  20
4657935.000
  0
VERTEX
  8
Unknown_Area_Type
  10
357056.000
  20
4657935.000
  0
VERTEX
  8
Unknown_Area_Type
  10
354326.000
  20
4657942.000
  0
VERTEX
  8
Unknown_Area_Type
  10
354403.000
  20
4662593.000
  0
VERTEX
  8
Unknown_Area_Type
  10
354723.000
  20
4662769.000
  0
VERTEX
  8
Unknown_Area_Type
  10
354724.000
  20
4662769.500
  0
SEQEND
  8
Unknown_Area_Type
  0
INSERT
  8
FeatureAttribs
  2
FEATURE
  41
1
  42
1
  43
1
  50
0
  10
355859.899
  20
4660290.225
 66
1
  0
ATTRIB
  8
FeatureAttribs
 70
0
  1
PNOA-H_AMS_1956-57_33k_ES_PAN_2
  2
NAME
  10
355859.899
  20
4660290.225
 40
33.81366
  0
SEQEND
  0
POLYLINE
  8
Unknown_Area_Type
  70
1
  66
1
  0
VERTEX
  8
Unknown_Area_Type
  10
354724.000
  20
4662769.500
  0
VERTEX
  8
Unknown_Area_Type
  10
354723.000
  20
4662769.000
  0
VERTEX
  8
Unknown_Area_Type
  10
354403.000
  20
4662593.000
  0
VERTEX
  8
Unknown_Area_Type
  10
354326.000
  20
4657942.000
  0
VERTEX
  8
Unknown_Area_Type
  10
357056.000
  20
4657935.000
  0
VERTEX
  8
Unknown_Area_Type
  10
357241.000
  20
4657935.000
  0
VERTEX
  8
Unknown_Area_Type
  10
357244.000
  20
4657936.500
  0
VERTEX
  8
Unknown_Area_Type
  10
357381.000
  20
4658016.000
  0
VERTEX
  8
Unknown_Area_Type
  10
357367.500
  20
4662510.500
  0
VERTEX
  8
Unknown_Area_Type
  10
357267.500
  20
4662563.500
  0
VERTEX
  8
Unknown_Area_Type
  10
357264.000
  20
4662564.000
  0
VERTEX
  8
Unknown_Area_Type
  10
354724.000
  20
4662769.500
  0
SEQEND
  8
Unknown_Area_Type
  0
INSERT
  8
FeatureAttribs
  2
FEATURE
  41
1
  42
1
  43
1
  50
0
  10
350030.133
  20
4660385.668
 66
1
  0
ATTRIB
  8
FeatureAttribs
 70
0
  1
PNOA-H_AMS_1956-57_33k_ES_PAN_2
  2
NAME
  10
350030.133
  20
4660385.668
 40
33.81366
  0
SEQEND
  0
POLYLINE
  8
Unknown_Area_Type
  70
1
  66
1
  0
VERTEX
  8
Unknown_Area_Type
  10
349021.500
  20
4662915.500
  0
VERTEX
  8
Unknown_Area_Type
  10
351522.500
  20
4662664.500
  0
VERTEX
  8
Unknown_Area_Type
  10
351350.500
  20
4657975.000
  0
VERTEX
  8
Unknown_Area_Type
  10
348537.000
  20
4657994.500
  0
VERTEX
  8
Unknown_Area_Type
  10
348746.000
  20
4662770.000
  0
VERTEX
  8
Unknown_Area_Type
  10
348746.500
  20
4662774.000
  0
VERTEX
  8
Unknown_Area_Type
  10
348748.500
  20
4662775.500
  0
VERTEX
  8
Unknown_Area_Type
  10
349021.000
  20
4662914.500
  0
VERTEX
  8
Unknown_Area_Type
  10
349021.500
  20
4662915.500
  0
SEQEND
  8
Unknown_Area_Type
  0
INSERT
  8
FeatureAttribs
  2
FEATURE
  41
1
  42
1
  43
1
  50
0
  10
350030.133
  20
4660385.668
 66
1
  0
ATTRIB
  8
FeatureAttribs
 70
0
  1
PNOA-H_AMS_1956-57_33k_ES_PAN_2
  2
NAME
  10
350030.133
  20
4660385.668
 40
33.81366
  0
SEQEND
  0
POLYLINE
  8
Unknown_Area_Type
  70
1
  66
1
  0
VERTEX
  8
Unknown_Area_Type
  10
349021.500
  20
4662915.500
  0
VERTEX
  8
Unknown_Area_Type
  10
349021.000
  20
4662914.500
  0
VERTEX
  8
Unknown_Area_Type
  10
348748.500
  20
4662775.500
  0
VERTEX
  8
Unknown_Area_Type
  10
348746.500
  20
4662774.000
  0
VERTEX
  8
Unknown_Area_Type
  10
348746.000
  20
4662770.000
  0
VERTEX
  8
Unknown_Area_Type
  10
348537.000
  20
4657994.500
  0
VERTEX
  8
Unknown_Area_Type
  10
351350.500
  20
4657975.000
  0
VERTEX
  8
Unknown_Area_Type
  10
351522.500
  20
4662664.500
  0
VERTEX
  8
Unknown_Area_Type
  10
349021.500
  20
4662915.500
  0
SEQEND
  8
Unknown_Area_Type
  0
INSERT
  8
FeatureAttribs
  2
FEATURE
  41
1
  42
1
  43
1
  50
0
  10
346537.817
  20
4660513.105
 66
1
  0
ATTRIB
  8
FeatureAttribs
 70
0
  1
PNOA-H_AMS_1956-57_33k_ES_PAN_2
  2
NAME
  10
346537.817
  20
4660513.105
 40
33.81366
  0
SEQEND
  0
POLYLINE
  8
Unknown_Area_Type
  70
1
  66
1
  0
VERTEX
  8
Unknown_Area_Type
  10
346689.066
  20
4662949.881
  0
VERTEX
  8
Unknown_Area_Type
  10
346640.070
  20
4660692.108
  0
VERTEX
  8
Unknown_Area_Type
  10
346589.891
  20
4658378.852
  0
VERTEX
  8
Unknown_Area_Type
  10
346582.868
  20
4658054.990
  0
VERTEX
  8
Unknown_Area_Type
  10
346521.000
  20
4658058.500
  0
VERTEX
  8
Unknown_Area_Type
  10
346512.500
  20
4658059.000
  0
VERTEX
  8
Unknown_Area_Type
  10
346511.000
  20
4658060.000
  0
VERTEX
  8
Unknown_Area_Type
  10
346439.446
  20
4658392.556
  0
VERTEX
  8
Unknown_Area_Type
  10
346439.446
  20
4662971.220
  0
VERTEX
  8
Unknown_Area_Type
  10
346689.066
  20
4662949.881
  0
SEQEND
  8
Unknown_Area_Type
  0
INSERT
  8
FeatureAttribs
  2
FEATURE
  41
1
  42
1
  43
1
  50
0
  10
347636.847
  20
4660453.176
 66
1
  0
ATTRIB
  8
FeatureAttribs
 70
0
  1
PNOA-H_AMS_1956-57_33k_ES_PAN_2
  2
NAME
  10
347636.847
  20
4660453.176
 40
33.81366
  0
SEQEND
  0
POLYLINE
  8
Unknown_Area_Type
  70
1
  66
1
  0
VERTEX
  8
Unknown_Area_Type
  10
346689.066
  20
4662949.881
  0
VERTEX
  8
Unknown_Area_Type
  10
348746.500
  20
4662774.000
  0
VERTEX
  8
Unknown_Area_Type
  10
348537.000
  20
4657994.500
  0
VERTEX
  8
Unknown_Area_Type
  10
348464.000
  20
4657957.000
  0
VERTEX
  8
Unknown_Area_Type
  10
348449.000
  20
4657949.500
  0
VERTEX
  8
Unknown_Area_Type
  10
348442.000
  20
4657949.500
  0
VERTEX
  8
Unknown_Area_Type
  10
346582.868
  20
4658054.990
  0
VERTEX
  8
Unknown_Area_Type
  10
346589.891
  20
4658378.852
  0
VERTEX
  8
Unknown_Area_Type
  10
346640.070
  20
4660692.108
  0
VERTEX
  8
Unknown_Area_Type
  10
346689.066
  20
4662949.881
  0
SEQEND
  8
Unknown_Area_Type
  0
INSERT
  8
FeatureAttribs
  2
FEATURE
  41
1
  42
1
  43
1
  50
0
  10
347636.847
  20
4660453.176
 66
1
  0
ATTRIB
  8
FeatureAttribs
 70
0
  1
PNOA-H_AMS_1956-57_33k_ES_PAN_2
  2
NAME
  10
347636.847
  20
4660453.176
 40
33.81366
  0
SEQEND
  0
POLYLINE
  8
Unknown_Area_Type
  70
1
  66
1
  0
VERTEX
  8
Unknown_Area_Type
  10
346689.066
  20
4662949.881
  0
VERTEX
  8
Unknown_Area_Type
  10
346640.070
  20
4660692.108
  0
VERTEX
  8
Unknown_Area_Type
  10
346589.891
  20
4658378.852
  0
VERTEX
  8
Unknown_Area_Type
  10
346582.868
  20
4658054.990
  0
VERTEX
  8
Unknown_Area_Type
  10
348442.000
  20
4657949.500
  0
VERTEX
  8
Unknown_Area_Type
  10
348449.000
  20
4657949.500
  0
VERTEX
  8
Unknown_Area_Type
  10
348464.000
  20
4657957.000
  0
VERTEX
  8
Unknown_Area_Type
  10
348537.000
  20
4657994.500
  0
VERTEX
  8
Unknown_Area_Type
  10
348746.500
  20
4662774.000
  0
VERTEX
  8
Unknown_Area_Type
  10
346689.066
  20
4662949.881
  0
SEQEND
  8
Unknown_Area_Type
  0
INSERT
  8
FeatureAttribs
  2
FEATURE
  41
1
  42
1
  43
1
  50
0
  10
367115.934
  20
4660183.031
 66
1
  0
ATTRIB
  8
FeatureAttribs
 70
0
  1
PNOA-H_AMS_1956-57_33k_ES_PAN_2
  2
NAME
  10
367115.934
  20
4660183.031
 40
33.81366
  0
SEQEND
  0
POLYLINE
  8
Unknown_Area_Type
  70
1
  66
1
  0
VERTEX
  8
Unknown_Area_Type
  10
366226.000
  20
4662560.000
  0
VERTEX
  8
Unknown_Area_Type
  10
368480.000
  20
4662274.500
  0
VERTEX
  8
Unknown_Area_Type
  10
368506.500
  20
4657950.000
  0
VERTEX
  8
Unknown_Area_Type
  10
366053.500
  20
4657946.000
  0
VERTEX
  8
Unknown_Area_Type
  10
365767.500
  20
4657946.000
  0
VERTEX
  8
Unknown_Area_Type
  10
365750.000
  20
4657956.000
  0
VERTEX
  8
Unknown_Area_Type
  10
365783.500
  20
4662404.500
  0
VERTEX
  8
Unknown_Area_Type
  10
366086.500
  20
4662577.500
  0
VERTEX
  8
Unknown_Area_Type
  10
366225.000
  20
4662560.000
  0
VERTEX
  8
Unknown_Area_Type
  10
366226.000
  20
4662560.000
  0
SEQEND
  8
Unknown_Area_Type
  0
INSERT
  8
FeatureAttribs
  2
FEATURE
  41
1
  42
1
  43
1
  50
0
  10
367115.934
  20
4660183.031
 66
1
  0
ATTRIB
  8
FeatureAttribs
 70
0
  1
PNOA-H_AMS_1956-57_33k_ES_PAN_2
  2
NAME
  10
367115.934
  20
4660183.031
 40
33.81366
  0
SEQEND
  0
POLYLINE
  8
Unknown_Area_Type
  70
1
  66
1
  0
VERTEX
  8
Unknown_Area_Type
  10
366226.000
  20
4662560.000
  0
VERTEX
  8
Unknown_Area_Type
  10
366225.000
  20
4662560.000
  0
VERTEX
  8
Unknown_Area_Type
  10
366086.500
  20
4662577.500
  0
VERTEX
  8
Unknown_Area_Type
  10
365783.500
  20
4662404.500
  0
VERTEX
  8
Unknown_Area_Type
  10
365750.000
  20
4657956.000
  0
VERTEX
  8
Unknown_Area_Type
  10
365767.500
  20
4657946.000
  0
VERTEX
  8
Unknown_Area_Type
  10
366053.500
  20
4657946.000
  0
VERTEX
  8
Unknown_Area_Type
  10
368506.500
  20
4657950.000
  0
VERTEX
  8
Unknown_Area_Type
  10
368480.000
  20
4662274.500
  0
VERTEX
  8
Unknown_Area_Type
  10
366226.000
  20
4662560.000
  0
SEQEND
  8
Unknown_Area_Type
  0
INSERT
  8
FeatureAttribs
  2
FEATURE
  41
1
  42
1
  43
1
  50
0
  10
352889.889
  20
4660308.162
 66
1
  0
ATTRIB
  8
FeatureAttribs
 70
0
  1
PNOA-H_AMS_1956-57_33k_ES_PAN_2
  2
NAME
  10
352889.889
  20
4660308.162
 40
33.81366
  0
SEQEND
  0
POLYLINE
  8
Unknown_Area_Type
  70
1
  66
1
  0
VERTEX
  8
Unknown_Area_Type
  10
353938.000
  20
4662638.000
  0
VERTEX
  8
Unknown_Area_Type
  10
354403.000
  20
4662593.000
  0
VERTEX
  8
Unknown_Area_Type
  10
354326.000
  20
4657941.500
  0
VERTEX
  8
Unknown_Area_Type
  10
354296.500
  20
4657924.000
  0
VERTEX
  8
Unknown_Area_Type
  10
351566.000
  20
4657915.500
  0
VERTEX
  8
Unknown_Area_Type
  10
351453.500
  20
4657915.500
  0
VERTEX
  8
Unknown_Area_Type
  10
351350.500
  20
4657975.000
  0
VERTEX
  8
Unknown_Area_Type
  10
351522.500
  20
4662664.500
  0
VERTEX
  8
Unknown_Area_Type
  10
351854.500
  20
4662840.000
  0
VERTEX
  8
Unknown_Area_Type
  10
351860.000
  20
4662841.000
  0
VERTEX
  8
Unknown_Area_Type
  10
353937.000
  20
4662638.000
  0
VERTEX
  8
Unknown_Area_Type
  10
353938.000
  20
4662638.000
  0
SEQEND
  8
Unknown_Area_Type
  0
INSERT
  8
FeatureAttribs
  2
FEATURE
  41
1
  42
1
  43
1
  50
0
  10
352889.889
  20
4660308.162
 66
1
  0
ATTRIB
  8
FeatureAttribs
 70
0
  1
PNOA-H_AMS_1956-57_33k_ES_PAN_2
  2
NAME
  10
352889.889
  20
4660308.162
 40
33.81366
  0
SEQEND
  0
POLYLINE
  8
Unknown_Area_Type
  70
1
  66
1
  0
VERTEX
  8
Unknown_Area_Type
  10
353938.000
  20
4662638.000
  0
VERTEX
  8
Unknown_Area_Type
  10
353937.000
  20
4662638.000
  0
VERTEX
  8
Unknown_Area_Type
  10
351860.000
  20
4662841.000
  0
VERTEX
  8
Unknown_Area_Type
  10
351854.500
  20
4662840.000
  0
VERTEX
  8
Unknown_Area_Type
  10
351522.500
  20
4662664.500
  0
VERTEX
  8
Unknown_Area_Type
  10
351350.500
  20
4657975.000
  0
VERTEX
  8
Unknown_Area_Type
  10
351453.500
  20
4657915.500
  0
VERTEX
  8
Unknown_Area_Type
  10
351566.000
  20
4657915.500
  0
VERTEX
  8
Unknown_Area_Type
  10
354296.500
  20
4657924.000
  0
VERTEX
  8
Unknown_Area_Type
  10
354326.000
  20
4657941.500
  0
VERTEX
  8
Unknown_Area_Type
  10
354403.000
  20
4662593.000
  0
VERTEX
  8
Unknown_Area_Type
  10
353938.000
  20
4662638.000
  0
SEQEND
  8
Unknown_Area_Type
  0
INSERT
  8
FeatureAttribs
  2
FEATURE
  41
1
  42
1
  43
1
  50
0
  10
374293.311
  20
4660121.815
 66
1
  0
ATTRIB
  8
FeatureAttribs
 70
0
  1
PNOA-H_AMS_1956-57_33k_ES_PAN_2
  2
NAME
  10
374293.311
  20
4660121.815
 40
33.81366
  0
SEQEND
  0
POLYLINE
  8
Unknown_Area_Type
  70
1
  66
1
  0
VERTEX
  8
Unknown_Area_Type
  10
374375.945
  20
4657874.234
  0
VERTEX
  8
Unknown_Area_Type
  10
374208.500
  20
4657863.500
  0
VERTEX
  8
Unknown_Area_Type
  10
374199.500
  20
4657863.500
  0
VERTEX
  8
Unknown_Area_Type
  10
374170.748
  20
4657877.391
  0
VERTEX
  8
Unknown_Area_Type
  10
374211.138
  20
4660147.713
  0
VERTEX
  8
Unknown_Area_Type
  10
374249.699
  20
4662314.350
  0
VERTEX
  8
Unknown_Area_Type
  10
374375.945
  20
4662380.130
  0
VERTEX
  8
Unknown_Area_Type
  10
374375.945
  20
4657874.234
  0
SEQEND
  8
Unknown_Area_Type
  0
INSERT
  8
FeatureAttribs
  2
FEATURE
  41
1
  42
1
  43
1
  50
0
  10
374076.970
  20
4660241.419
 66
1
  0
ATTRIB
  8
FeatureAttribs
 70
0
  1
PNOA-H_AMS_1956-57_33k_ES_PAN_2
  2
NAME
  10
374076.970
  20
4660241.419
 40
33.81366
  0
SEQEND
  0
POLYLINE
  8
Unknown_Area_Type
  70
1
  66
1
  0
VERTEX
  8
Unknown_Area_Type
  10
374249.699
  20
4662314.350
  0
VERTEX
  8
Unknown_Area_Type
  10
374211.138
  20
4660147.713
  0
VERTEX
  8
Unknown_Area_Type
  10
374170.748
  20
4657877.391
  0
VERTEX
  8
Unknown_Area_Type
  10
373962.500
  20
4657978.000
  0
VERTEX
  8
Unknown_Area_Type
  10
373917.000
  20
4662141.000
  0
VERTEX
  8
Unknown_Area_Type
  10
374249.699
  20
4662314.350
  0
SEQEND
  8
Unknown_Area_Type
  0
INSERT
  8
FeatureAttribs
  2
FEATURE
  41
1
  42
1
  43
1
  50
0
  10
374076.970
  20
4660241.419
 66
1
  0
ATTRIB
  8
FeatureAttribs
 70
0
  1
PNOA-H_AMS_1956-57_33k_ES_PAN_2
  2
NAME
  10
374076.970
  20
4660241.419
 40
33.81366
  0
SEQEND
  0
POLYLINE
  8
Unknown_Area_Type
  70
1
  66
1
  0
VERTEX
  8
Unknown_Area_Type
  10
374249.699
  20
4662314.350
  0
VERTEX
  8
Unknown_Area_Type
  10
373917.000
  20
4662141.000
  0
VERTEX
  8
Unknown_Area_Type
  10
373962.500
  20
4657978.000
  0
VERTEX
  8
Unknown_Area_Type
  10
374170.748
  20
4657877.391
  0
VERTEX
  8
Unknown_Area_Type
  10
374211.138
  20
4660147.713
  0
VERTEX
  8
Unknown_Area_Type
  10
374249.699
  20
4662314.350
  0
SEQEND
  8
Unknown_Area_Type
  0
INSERT
  8
FeatureAttribs
  2
FEATURE
  41
1
  42
1
  43
1
  50
0
  10
346471.645
  20
4654409.849
 66
1
  0
ATTRIB
  8
FeatureAttribs
 70
0
  1
PNOA-H_AMS_1956-57_33k_ES_PAN_2
  2
NAME
  10
346471.645
  20
4654409.849
 40
33.81366
  0
SEQEND
  0
POLYLINE
  8
Unknown_Area_Type
  70
1
  66
1
  0
VERTEX
  8
Unknown_Area_Type
  10
346477.075
  20
4653174.616
  0
VERTEX
  8
Unknown_Area_Type
  10
346439.446
  20
4653165.243
  0
VERTEX
  8
Unknown_Area_Type
  10
346439.446
  20
4655654.454
  0
VERTEX
  8
Unknown_Area_Type
  10
346529.013
  20
4655571.070
  0
VERTEX
  8
Unknown_Area_Type
  10
346489.593
  20
4653752.362
  0
VERTEX
  8
Unknown_Area_Type
  10
346477.075
  20
4653174.616
  0
SEQEND
  8
Unknown_Area_Type
  0
INSERT
  8
FeatureAttribs
  2
FEATURE
  41
1
  42
1
  43
1
  50
0
  10
347122.609
  20
4654166.362
 66
1
  0
ATTRIB
  8
FeatureAttribs
 70
0
  1
PNOA-H_AMS_1956-57_33k_ES_PAN_2
  2
NAME
  10
347122.609
  20
4654166.362
 40
33.81366
  0
SEQEND
  0
POLYLINE
  8
Unknown_Area_Type
  70
1
  66
1
  0
VERTEX
  8
Unknown_Area_Type
  10
346529.013
  20
4655571.070
  0
VERTEX
  8
Unknown_Area_Type
  10
347846.000
  20
4654345.000
  0
VERTEX
  8
Unknown_Area_Type
  10
347846.500
  20
4654344.000
  0
VERTEX
  8
Unknown_Area_Type
  10
348073.500
  20
4654133.500
  0
VERTEX
  8
Unknown_Area_Type
  10
348050.500
  20
4653566.500
  0
VERTEX
  8
Unknown_Area_Type
  10
346477.075
  20
4653174.616
  0
VERTEX
  8
Unknown_Area_Type
  10
346489.593
  20
4653752.362
  0
VERTEX
  8
Unknown_Area_Type
  10
346529.013
  20
4655571.070
  0
SEQEND
  8
Unknown_Area_Type
  0
INSERT
  8
FeatureAttribs
  2
FEATURE
  41
1
  42
1
  43
1
  50
0
  10
347122.609
  20
4654166.362
 66
1
  0
ATTRIB
  8
FeatureAttribs
 70
0
  1
PNOA-H_AMS_1956-57_33k_ES_PAN_2
  2
NAME
  10
347122.609
  20
4654166.362
 40
33.81366
  0
SEQEND
  0
POLYLINE
  8
Unknown_Area_Type
  70
1
  66
1
  0
VERTEX
  8
Unknown_Area_Type
  10
346529.013
  20
4655571.070
  0
VERTEX
  8
Unknown_Area_Type
  10
346489.593
  20
4653752.362
  0
VERTEX
  8
Unknown_Area_Type
  10
346477.075
  20
4653174.616
  0
VERTEX
  8
Unknown_Area_Type
  10
348050.500
  20
4653566.500
  0
VERTEX
  8
Unknown_Area_Type
  10
348073.500
  20
4654133.500
  0
VERTEX
  8
Unknown_Area_Type
  10
347846.500
  20
4654344.000
  0
VERTEX
  8
Unknown_Area_Type
  10
347846.000
  20
4654345.000
  0
VERTEX
  8
Unknown_Area_Type
  10
346529.013
  20
4655571.070
  0
SEQEND
  8
Unknown_Area_Type
  0
INSERT
  8
FeatureAttribs
  2
FEATURE
  41
1
  42
1
  43
1
  50
0
  10
349196.499
  20
4654444.999
 66
1
  0
ATTRIB
  8
FeatureAttribs
 70
0
  1
PNOA-H_AMS_1956-57_33k_ES_PAN_2
  2
NAME
  10
349196.499
  20
4654444.999
 40
33.81366
  0
SEQEND
  0
POLYLINE
  8
Unknown_Area_Type
  70
1
  66
1
  0
VERTEX
  8
Unknown_Area_Type
  10
350433.500
  20
4654344.000
  0
VERTEX
  8
Unknown_Area_Type
  10
350811.000
  20
4653885.000
  0
VERTEX
  8
Unknown_Area_Type
  10
350796.500
  20
4653517.000
  0
VERTEX
  8
Unknown_Area_Type
  10
349164.000
  20
4652970.000
  0
VERTEX
  8
Unknown_Area_Type
  10
349158.000
  20
4652972.000
  0
VERTEX
  8
Unknown_Area_Type
  10
348050.500
  20
4653566.500
  0
VERTEX
  8
Unknown_Area_Type
  10
348073.500
  20
4654133.500
  0
VERTEX
  8
Unknown_Area_Type
  10
348465.000
  20
4656742.000
  0
VERTEX
  8
Unknown_Area_Type
  10
350433.000
  20
4654345.500
  0
VERTEX
  8
Unknown_Area_Type
  10
350433.500
  20
4654344.000
  0
SEQEND
  8
Unknown_Area_Type
  0
INSERT
  8
FeatureAttribs
  2
FEATURE
  41
1
  42
1
  43
1
  50
0
  10
349196.499
  20
4654444.999
 66
1
  0
ATTRIB
  8
FeatureAttribs
 70
0
  1
PNOA-H_AMS_1956-57_33k_ES_PAN_2
  2
NAME
  10
349196.499
  20
4654444.999
 40
33.81366
  0
SEQEND
  0
POLYLINE
  8
Unknown_Area_Type
  70
1
  66
1
  0
VERTEX
  8
Unknown_Area_Type
  10
350433.500
  20
4654344.000
  0
VERTEX
  8
Unknown_Area_Type
  10
350433.000
  20
4654345.500
  0
VERTEX
  8
Unknown_Area_Type
  10
348465.000
  20
4656742.000
  0
VERTEX
  8
Unknown_Area_Type
  10
348073.500
  20
4654133.500
  0
VERTEX
  8
Unknown_Area_Type
  10
348050.500
  20
4653566.500
  0
VERTEX
  8
Unknown_Area_Type
  10
349158.000
  20
4652972.000
  0
VERTEX
  8
Unknown_Area_Type
  10
349164.000
  20
4652970.000
  0
VERTEX
  8
Unknown_Area_Type
  10
350796.500
  20
4653517.000
  0
VERTEX
  8
Unknown_Area_Type
  10
350811.000
  20
4653885.000
  0
VERTEX
  8
Unknown_Area_Type
  10
350433.500
  20
4654344.000
  0
SEQEND
  8
Unknown_Area_Type
  0
INSERT
  8
FeatureAttribs
  2
FEATURE
  41
1
  42
1
  43
1
  50
0
  10
352031.546
  20
4654342.034
 66
1
  0
ATTRIB
  8
FeatureAttribs
 70
0
  1
PNOA-H_AMS_1956-57_33k_ES_PAN_2
  2
NAME
  10
352031.546
  20
4654342.034
 40
33.81366
  0
SEQEND
  0
POLYLINE
  8
Unknown_Area_Type
  70
1
  66
1
  0
VERTEX
  8
Unknown_Area_Type
  10
353171.500
  20
4654344.000
  0
VERTEX
  8
Unknown_Area_Type
  10
353612.000
  20
4653761.000
  0
VERTEX
  8
Unknown_Area_Type
  10
353603.000
  20
4653429.500
  0
VERTEX
  8
Unknown_Area_Type
  10
352209.000
  20
4652847.500
  0
VERTEX
  8
Unknown_Area_Type
  10
352205.000
  20
4652847.000
  0
VERTEX
  8
Unknown_Area_Type
  10
350796.500
  20
4653517.000
  0
VERTEX
  8
Unknown_Area_Type
  10
350811.000
  20
4653886.000
  0
VERTEX
  8
Unknown_Area_Type
  10
351443.000
  20
4656634.000
  0
VERTEX
  8
Unknown_Area_Type
  10
351445.000
  20
4656633.000
  0
VERTEX
  8
Unknown_Area_Type
  10
351459.000
  20
4656614.500
  0
VERTEX
  8
Unknown_Area_Type
  10
353171.000
  20
4654345.500
  0
VERTEX
  8
Unknown_Area_Type
  10
353171.500
  20
4654344.000
  0
SEQEND
  8
Unknown_Area_Type
  0
INSERT
  8
FeatureAttribs
  2
FEATURE
  41
1
  42
1
  43
1
  50
0
  10
352031.546
  20
4654342.034
 66
1
  0
ATTRIB
  8
FeatureAttribs
 70
0
  1
PNOA-H_AMS_1956-57_33k_ES_PAN_2
  2
NAME
  10
352031.546
  20
4654342.034
 40
33.81366
  0
SEQEND
  0
POLYLINE
  8
Unknown_Area_Type
  70
1
  66
1
  0
VERTEX
  8
Unknown_Area_Type
  10
353171.500
  20
4654344.000
  0
VERTEX
  8
Unknown_Area_Type
  10
353171.000
  20
4654345.500
  0
VERTEX
  8
Unknown_Area_Type
  10
351459.000
  20
4656614.500
  0
VERTEX
  8
Unknown_Area_Type
  10
351445.000
  20
4656633.000
  0
VERTEX
  8
Unknown_Area_Type
  10
351443.000
  20
4656634.000
  0
VERTEX
  8
Unknown_Area_Type
  10
350811.000
  20
4653886.000
  0
VERTEX
  8
Unknown_Area_Type
  10
350796.500
  20
4653517.000
  0
VERTEX
  8
Unknown_Area_Type
  10
352205.000
  20
4652847.000
  0
VERTEX
  8
Unknown_Area_Type
  10
352209.000
  20
4652847.500
  0
VERTEX
  8
Unknown_Area_Type
  10
353603.000
  20
4653429.500
  0
VERTEX
  8
Unknown_Area_Type
  10
353612.000
  20
4653761.000
  0
VERTEX
  8
Unknown_Area_Type
  10
353171.500
  20
4654344.000
  0
SEQEND
  8
Unknown_Area_Type
  0
INSERT
  8
FeatureAttribs
  2
FEATURE
  41
1
  42
1
  43
1
  50
0
  10
357775.177
  20
4654117.157
 66
1
  0
ATTRIB
  8
FeatureAttribs
 70
0
  1
PNOA-H_AMS_1956-57_33k_ES_PAN_2
  2
NAME
  10
357775.177
  20
4654117.157
 40
33.81366
  0
SEQEND
  0
POLYLINE
  8
Unknown_Area_Type
  70
1
  66
1
  0
VERTEX
  8
Unknown_Area_Type
  10
357257.000
  20
4656156.500
  0
VERTEX
  8
Unknown_Area_Type
  10
359209.000
  20
4654159.000
  0
VERTEX
  8
Unknown_Area_Type
  10
359177.000
  20
4653134.000
  0
VERTEX
  8
Unknown_Area_Type
  10
358246.500
  20
4652663.500
  0
VERTEX
  8
Unknown_Area_Type
  10
356402.500
  20
4653306.000
  0
VERTEX
  8
Unknown_Area_Type
  10
356427.500
  20
4653961.000
  0
VERTEX
  8
Unknown_Area_Type
  10
357257.000
  20
4656155.000
  0
VERTEX
  8
Unknown_Area_Type
  10
357257.000
  20
4656156.500
  0
SEQEND
  8
Unknown_Area_Type
  0
INSERT
  8
FeatureAttribs
  2
FEATURE
  41
1
  42
1
  43
1
  50
0
  10
357775.177
  20
4654117.157
 66
1
  0
ATTRIB
  8
FeatureAttribs
 70
0
  1
PNOA-H_AMS_1956-57_33k_ES_PAN_2
  2
NAME
  10
357775.177
  20
4654117.157
 40
33.81366
  0
SEQEND
  0
POLYLINE
  8
Unknown_Area_Type
  70
1
  66
1
  0
VERTEX
  8
Unknown_Area_Type
  10
357257.000
  20
4656156.500
  0
VERTEX
  8
Unknown_Area_Type
  10
357257.000
  20
4656155.000
  0
VERTEX
  8
Unknown_Area_Type
  10
356427.500
  20
4653961.000
  0
VERTEX
  8
Unknown_Area_Type
  10
356402.500
  20
4653306.000
  0
VERTEX
  8
Unknown_Area_Type
  10
358246.500
  20
4652663.500
  0
VERTEX
  8
Unknown_Area_Type
  10
359177.000
  20
4653134.000
  0
VERTEX
  8
Unknown_Area_Type
  10
359209.000
  20
4654159.000
  0
VERTEX
  8
Unknown_Area_Type
  10
357257.000
  20
4656156.500
  0
SEQEND
  8
Unknown_Area_Type
  0
INSERT
  8
FeatureAttribs
  2
FEATURE
  41
1
  42
1
  43
1
  50
0
  10
354918.659
  20
4654263.843
 66
1
  0
ATTRIB
  8
FeatureAttribs
 70
0
  1
PNOA-H_AMS_1956-57_33k_ES_PAN_2
  2
NAME
  10
354918.659
  20
4654263.843
 40
33.81366
  0
SEQEND
  0
POLYLINE
  8
Unknown_Area_Type
  70
1
  66
1
  0
VERTEX
  8
Unknown_Area_Type
  10
355986.000
  20
4654495.500
  0
VERTEX
  8
Unknown_Area_Type
  10
356427.500
  20
4653961.000
  0
VERTEX
  8
Unknown_Area_Type
  10
356402.500
  20
4653306.000
  0
VERTEX
  8
Unknown_Area_Type
  10
355247.500
  20
4652772.500
  0
VERTEX
  8
Unknown_Area_Type
  10
353603.000
  20
4653430.000
  0
VERTEX
  8
Unknown_Area_Type
  10
353612.000
  20
4653762.000
  0
VERTEX
  8
Unknown_Area_Type
  10
354338.000
  20
4656493.000
  0
VERTEX
  8
Unknown_Area_Type
  10
355986.000
  20
4654496.500
  0
VERTEX
  8
Unknown_Area_Type
  10
355986.000
  20
4654495.500
  0
SEQEND
  8
Unknown_Area_Type
  0
INSERT
  8
FeatureAttribs
  2
FEATURE
  41
1
  42
1
  43
1
  50
0
  10
354918.659
  20
4654263.843
 66
1
  0
ATTRIB
  8
FeatureAttribs
 70
0
  1
PNOA-H_AMS_1956-57_33k_ES_PAN_2
  2
NAME
  10
354918.659
  20
4654263.843
 40
33.81366
  0
SEQEND
  0
POLYLINE
  8
Unknown_Area_Type
  70
1
  66
1
  0
VERTEX
  8
Unknown_Area_Type
  10
355986.000
  20
4654495.500
  0
VERTEX
  8
Unknown_Area_Type
  10
355986.000
  20
4654496.500
  0
VERTEX
  8
Unknown_Area_Type
  10
354338.000
  20
4656493.000
  0
VERTEX
  8
Unknown_Area_Type
  10
353612.000
  20
4653762.000
  0
VERTEX
  8
Unknown_Area_Type
  10
353603.000
  20
4653430.000
  0
VERTEX
  8
Unknown_Area_Type
  10
355247.500
  20
4652772.500
  0
VERTEX
  8
Unknown_Area_Type
  10
356402.500
  20
4653306.000
  0
VERTEX
  8
Unknown_Area_Type
  10
356427.500
  20
4653961.000
  0
VERTEX
  8
Unknown_Area_Type
  10
355986.000
  20
4654495.500
  0
SEQEND
  8
Unknown_Area_Type
  0
INSERT
  8
FeatureAttribs
  2
FEATURE
  41
1
  42
1
  43
1
  50
0
  10
360638.669
  20
4654005.283
 66
1
  0
ATTRIB
  8
FeatureAttribs
 70
0
  1
PNOA-H_AMS_1956-57_33k_ES_PAN_2
  2
NAME
  10
360638.669
  20
4654005.283
 40
33.81366
  0
SEQEND
  0
POLYLINE
  8
Unknown_Area_Type
  70
1
  66
1
  0
VERTEX
  8
Unknown_Area_Type
  10
360081.500
  20
4656039.500
  0
VERTEX
  8
Unknown_Area_Type
  10
360093.000
  20
4656064.000
  0
VERTEX
  8
Unknown_Area_Type
  10
360105.500
  20
4656052.000
  0
VERTEX
  8
Unknown_Area_Type
  10
362650.000
  20
4653412.000
  0
VERTEX
  8
Unknown_Area_Type
  10
362638.000
  20
4653404.000
  0
VERTEX
  8
Unknown_Area_Type
  10
361256.000
  20
4652596.000
  0
VERTEX
  8
Unknown_Area_Type
  10
359177.000
  20
4653134.000
  0
VERTEX
  8
Unknown_Area_Type
  10
359209.000
  20
4654159.000
  0
VERTEX
  8
Unknown_Area_Type
  10
360081.500
  20
4656038.500
  0
VERTEX
  8
Unknown_Area_Type
  10
360081.500
  20
4656039.500
  0
SEQEND
  8
Unknown_Area_Type
  0
INSERT
  8
FeatureAttribs
  2
FEATURE
  41
1
  42
1
  43
1
  50
0
  10
360638.669
  20
4654005.283
 66
1
  0
ATTRIB
  8
FeatureAttribs
 70
0
  1
PNOA-H_AMS_1956-57_33k_ES_PAN_2
  2
NAME
  10
360638.669
  20
4654005.283
 40
33.81366
  0
SEQEND
  0
POLYLINE
  8
Unknown_Area_Type
  70
1
  66
1
  0
VERTEX
  8
Unknown_Area_Type
  10
360081.500
  20
4656039.500
  0
VERTEX
  8
Unknown_Area_Type
  10
360081.500
  20
4656038.500
  0
VERTEX
  8
Unknown_Area_Type
  10
359209.000
  20
4654159.000
  0
VERTEX
  8
Unknown_Area_Type
  10
359177.000
  20
4653134.000
  0
VERTEX
  8
Unknown_Area_Type
  10
361256.000
  20
4652596.000
  0
VERTEX
  8
Unknown_Area_Type
  10
362638.000
  20
4653404.000
  0
VERTEX
  8
Unknown_Area_Type
  10
362650.000
  20
4653412.000
  0
VERTEX
  8
Unknown_Area_Type
  10
360105.500
  20
4656052.000
  0
VERTEX
  8
Unknown_Area_Type
  10
360093.000
  20
4656064.000
  0
VERTEX
  8
Unknown_Area_Type
  10
360081.500
  20
4656039.500
  0
SEQEND
  8
Unknown_Area_Type
  0
INSERT
  8
FeatureAttribs
  2
FEATURE
  41
1
  42
1
  43
1
  50
0
  10
346564.040
  20
4668726.889
 66
1
  0
ATTRIB
  8
FeatureAttribs
 70
0
  1
PNOA-H_AMS_1956-57_33k_ES_PAN_2
  2
NAME
  10
346564.040
  20
4668726.889
 40
33.81366
  0
SEQEND
  0
POLYLINE
  8
Unknown_Area_Type
  70
1
  66
1
  0
VERTEX
  8
Unknown_Area_Type
  10
346735.181
  20
4669945.228
  0
VERTEX
  8
Unknown_Area_Type
  10
346646.000
  20
4667611.000
  0
VERTEX
  8
Unknown_Area_Type
  10
346645.500
  20
4667608.000
  0
VERTEX
  8
Unknown_Area_Type
  10
346635.500
  20
4667603.000
  0
VERTEX
  8
Unknown_Area_Type
  10
346439.446
  20
4667508.551
  0
VERTEX
  8
Unknown_Area_Type
  10
346439.446
  20
4669945.228
  0
VERTEX
  8
Unknown_Area_Type
  10
346735.181
  20
4669945.228
  0
SEQEND
  8
Unknown_Area_Type
  0
INSERT
  8
FeatureAttribs
  2
FEATURE
  41
1
  42
1
  43
1
  50
0
  10
346752.719
  20
4668769.477
 66
1
  0
ATTRIB
  8
FeatureAttribs
 70
0
  1
PNOA-H_AMS_1956-57_33k_ES_PAN_2
  2
NAME
  10
346752.719
  20
4668769.477
 40
33.81366
  0
SEQEND
  0
POLYLINE
  8
Unknown_Area_Type
  70
1
  66
1
  0
VERTEX
  8
Unknown_Area_Type
  10
346789.901
  20
4667593.727
  0
VERTEX
  8
Unknown_Area_Type
  10
346645.500
  20
4667608.000
  0
VERTEX
  8
Unknown_Area_Type
  10
346735.030
  20
4669945.228
  0
VERTEX
  8
Unknown_Area_Type
  10
346840.125
  20
4669945.228
  0
VERTEX
  8
Unknown_Area_Type
  10
346840.992
  20
4669945.209
  0
VERTEX
  8
Unknown_Area_Type
  10
346790.731
  20
4667631.922
  0
VERTEX
  8
Unknown_Area_Type
  10
346789.901
  20
4667593.727
  0
SEQEND
  8
Unknown_Area_Type
  0
INSERT
  8
FeatureAttribs
  2
FEATURE
  41
1
  42
1
  43
1
  50
0
  10
348172.648
  20
4668694.543
 66
1
  0
ATTRIB
  8
FeatureAttribs
 70
0
  1
PNOA-H_AMS_1956-57_33k_ES_PAN_2
  2
NAME
  10
348172.648
  20
4668694.543
 40
33.81366
  0
SEQEND
  0
POLYLINE
  8
Unknown_Area_Type
  70
1
  66
1
  0
VERTEX
  8
Unknown_Area_Type
  10
349530.690
  20
4669887.415
  0
VERTEX
  8
Unknown_Area_Type
  10
349485.500
  20
4667541.500
  0
VERTEX
  8
Unknown_Area_Type
  10
349114.000
  20
4667364.000
  0
VERTEX
  8
Unknown_Area_Type
  10
346789.901
  20
4667593.727
  0
VERTEX
  8
Unknown_Area_Type
  10
346790.731
  20
4667631.922
  0
VERTEX
  8
Unknown_Area_Type
  10
346840.992
  20
4669945.209
  0
VERTEX
  8
Unknown_Area_Type
  10
349530.690
  20
4669887.415
  0
SEQEND
  8
Unknown_Area_Type
  0
INSERT
  8
FeatureAttribs
  2
FEATURE
  41
1
  42
1
  43
1
  50
0
  10
348172.648
  20
4668694.543
 66
1
  0
ATTRIB
  8
FeatureAttribs
 70
0
  1
PNOA-H_AMS_1956-57_33k_ES_PAN_2
  2
NAME
  10
348172.648
  20
4668694.543
 40
33.81366
  0
SEQEND
  0
POLYLINE
  8
Unknown_Area_Type
  70
1
  66
1
  0
VERTEX
  8
Unknown_Area_Type
  10
349530.690
  20
4669887.415
  0
VERTEX
  8
Unknown_Area_Type
  10
346840.992
  20
4669945.209
  0
VERTEX
  8
Unknown_Area_Type
  10
346790.731
  20
4667631.922
  0
VERTEX
  8
Unknown_Area_Type
  10
346789.901
  20
4667593.727
  0
VERTEX
  8
Unknown_Area_Type
  10
349114.000
  20
4667364.000
  0
VERTEX
  8
Unknown_Area_Type
  10
349485.500
  20
4667541.500
  0
VERTEX
  8
Unknown_Area_Type
  10
349530.690
  20
4669887.415
  0
SEQEND
  8
Unknown_Area_Type
  0
INSERT
  8
FeatureAttribs
  2
FEATURE
  41
1
  42
1
  43
1
  50
0
  10
353712.490
  20
4668554.521
 66
1
  0
ATTRIB
  8
FeatureAttribs
 70
0
  1
PNOA-H_AMS_1956-57_33k_ES_PAN_2
  2
NAME
  10
353712.490
  20
4668554.521
 40
33.81366
  0
SEQEND
  0
POLYLINE
  8
Unknown_Area_Type
  70
1
  66
1
  0
VERTEX
  8
Unknown_Area_Type
  10
355213.796
  20
4669768.439
  0
VERTEX
  8
Unknown_Area_Type
  10
355072.500
  20
4667333.000
  0
VERTEX
  8
Unknown_Area_Type
  10
354826.500
  20
4667203.000
  0
VERTEX
  8
Unknown_Area_Type
  10
354820.000
  20
4667201.000
  0
VERTEX
  8
Unknown_Area_Type
  10
352179.000
  20
4667437.000
  0
VERTEX
  8
Unknown_Area_Type
  10
352330.899
  20
4669828.248
  0
VERTEX
  8
Unknown_Area_Type
  10
353724.768
  20
4669798.979
  0
VERTEX
  8
Unknown_Area_Type
  10
355213.796
  20
4669768.439
  0
SEQEND
  8
Unknown_Area_Type
  0
INSERT
  8
FeatureAttribs
  2
FEATURE
  41
1
  42
1
  43
1
  50
0
  10
353712.490
  20
4668554.521
 66
1
  0
ATTRIB
  8
FeatureAttribs
 70
0
  1
PNOA-H_AMS_1956-57_33k_ES_PAN_2
  2
NAME
  10
353712.490
  20
4668554.521
 40
33.81366
  0
SEQEND
  0
POLYLINE
  8
Unknown_Area_Type
  70
1
  66
1
  0
VERTEX
  8
Unknown_Area_Type
  10
355213.796
  20
4669768.439
  0
VERTEX
  8
Unknown_Area_Type
  10
353724.768
  20
4669798.979
  0
VERTEX
  8
Unknown_Area_Type
  10
352330.899
  20
4669828.248
  0
VERTEX
  8
Unknown_Area_Type
  10
352179.000
  20
4667437.000
  0
VERTEX
  8
Unknown_Area_Type
  10
354820.000
  20
4667201.000
  0
VERTEX
  8
Unknown_Area_Type
  10
354826.500
  20
4667203.000
  0
VERTEX
  8
Unknown_Area_Type
  10
355072.500
  20
4667333.000
  0
VERTEX
  8
Unknown_Area_Type
  10
355213.796
  20
4669768.439
  0
SEQEND
  8
Unknown_Area_Type
  0
INSERT
  8
FeatureAttribs
  2
FEATURE
  41
1
  42
1
  43
1
  50
0
  10
350895.200
  20
4668646.270
 66
1
  0
ATTRIB
  8
FeatureAttribs
 70
0
  1
PNOA-H_AMS_1956-57_33k_ES_PAN_2
  2
NAME
  10
350895.200
  20
4668646.270
 40
33.81366
  0
SEQEND
  0
POLYLINE
  8
Unknown_Area_Type
  70
1
  66
1
  0
VERTEX
  8
Unknown_Area_Type
  10
352331.017
  20
4669828.245
  0
VERTEX
  8
Unknown_Area_Type
  10
352179.500
  20
4667440.000
  0
VERTEX
  8
Unknown_Area_Type
  10
352179.000
  20
4667436.500
  0
VERTEX
  8
Unknown_Area_Type
  10
351925.000
  20
4667309.500
  0
VERTEX
  8
Unknown_Area_Type
  10
349485.500
  20
4667541.500
  0
VERTEX
  8
Unknown_Area_Type
  10
349530.684
  20
4669887.415
  0
VERTEX
  8
Unknown_Area_Type
  10
350282.884
  20
4669871.253
  0
VERTEX
  8
Unknown_Area_Type
  10
352331.017
  20
4669828.245
  0
SEQEND
  8
Unknown_Area_Type
  0
INSERT
  8
FeatureAttribs
  2
FEATURE
  41
1
  42
1
  43
1
  50
0
  10
350895.200
  20
4668646.270
 66
1
  0
ATTRIB
  8
FeatureAttribs
 70
0
  1
PNOA-H_AMS_1956-57_33k_ES_PAN_2
  2
NAME
  10
350895.200
  20
4668646.270
 40
33.81366
  0
SEQEND
  0
POLYLINE
  8
Unknown_Area_Type
  70
1
  66
1
  0
VERTEX
  8
Unknown_Area_Type
  10
352331.017
  20
4669828.245
  0
VERTEX
  8
Unknown_Area_Type
  10
350282.884
  20
4669871.253
  0
VERTEX
  8
Unknown_Area_Type
  10
349530.684
  20
4669887.415
  0
VERTEX
  8
Unknown_Area_Type
  10
349485.500
  20
4667541.500
  0
VERTEX
  8
Unknown_Area_Type
  10
351925.000
  20
4667309.500
  0
VERTEX
  8
Unknown_Area_Type
  10
352179.000
  20
4667436.500
  0
VERTEX
  8
Unknown_Area_Type
  10
352179.500
  20
4667440.000
  0
VERTEX
  8
Unknown_Area_Type
  10
352331.017
  20
4669828.245
  0
SEQEND
  8
Unknown_Area_Type
  0
INSERT
  8
FeatureAttribs
  2
FEATURE
  41
1
  42
1
  43
1
  50
0
  10
362142.227
  20
4668360.970
 66
1
  0
ATTRIB
  8
FeatureAttribs
 70
0
  1
PNOA-H_AMS_1956-57_33k_ES_PAN_2
  2
NAME
  10
362142.227
  20
4668360.970
 40
33.81366
  0
SEQEND
  0
POLYLINE
  8
Unknown_Area_Type
  70
1
  66
1
  0
VERTEX
  8
Unknown_Area_Type
  10
363572.180
  20
4669601.588
  0
VERTEX
  8
Unknown_Area_Type
  10
363499.000
  20
4667295.000
  0
VERTEX
  8
Unknown_Area_Type
  10
362629.500
  20
4666933.000
  0
VERTEX
  8
Unknown_Area_Type
  10
362107.500
  20
4666966.000
  0
VERTEX
  8
Unknown_Area_Type
  10
360683.500
  20
4667344.500
  0
VERTEX
  8
Unknown_Area_Type
  10
360790.216
  20
4669655.927
  0
VERTEX
  8
Unknown_Area_Type
  10
363572.180
  20
4669601.588
  0
SEQEND
  8
Unknown_Area_Type
  0
INSERT
  8
FeatureAttribs
  2
FEATURE
  41
1
  42
1
  43
1
  50
0
  10
362142.227
  20
4668360.970
 66
1
  0
ATTRIB
  8
FeatureAttribs
 70
0
  1
PNOA-H_AMS_1956-57_33k_ES_PAN_2
  2
NAME
  10
362142.227
  20
4668360.970
 40
33.81366
  0
SEQEND
  0
POLYLINE
  8
Unknown_Area_Type
  70
1
  66
1
  0
VERTEX
  8
Unknown_Area_Type
  10
363572.180
  20
4669601.588
  0
VERTEX
  8
Unknown_Area_Type
  10
360790.216
  20
4669655.927
  0
VERTEX
  8
Unknown_Area_Type
  10
360683.500
  20
4667344.500
  0
VERTEX
  8
Unknown_Area_Type
  10
362107.500
  20
4666966.000
  0
VERTEX
  8
Unknown_Area_Type
  10
362629.500
  20
4666933.000
  0
VERTEX
  8
Unknown_Area_Type
  10
363499.000
  20
4667295.000
  0
VERTEX
  8
Unknown_Area_Type
  10
363572.180
  20
4669601.588
  0
SEQEND
  8
Unknown_Area_Type
  0
INSERT
  8
FeatureAttribs
  2
FEATURE
  41
1
  42
1
  43
1
  50
0
  10
356554.515
  20
4668483.446
 66
1
  0
ATTRIB
  8
FeatureAttribs
 70
0
  1
PNOA-H_AMS_1956-57_33k_ES_PAN_2
  2
NAME
  10
356554.515
  20
4668483.446
 40
33.81366
  0
SEQEND
  0
POLYLINE
  8
Unknown_Area_Type
  70
1
  66
1
  0
VERTEX
  8
Unknown_Area_Type
  10
358021.373
  20
4669711.274
  0
VERTEX
  8
Unknown_Area_Type
  10
357912.500
  20
4667370.500
  0
VERTEX
  8
Unknown_Area_Type
  10
357219.000
  20
4667125.500
  0
VERTEX
  8
Unknown_Area_Type
  10
357214.500
  20
4667124.000
  0
VERTEX
  8
Unknown_Area_Type
  10
357202.000
  20
4667125.000
  0
VERTEX
  8
Unknown_Area_Type
  10
355072.500
  20
4667333.000
  0
VERTEX
  8
Unknown_Area_Type
  10
355213.796
  20
4669768.439
  0
VERTEX
  8
Unknown_Area_Type
  10
357166.645
  20
4669728.386
  0
VERTEX
  8
Unknown_Area_Type
  10
358021.373
  20
4669711.274
  0
SEQEND
  8
Unknown_Area_Type
  0
INSERT
  8
FeatureAttribs
  2
FEATURE
  41
1
  42
1
  43
1
  50
0
  10
356554.515
  20
4668483.446
 66
1
  0
ATTRIB
  8
FeatureAttribs
 70
0
  1
PNOA-H_AMS_1956-57_33k_ES_PAN_2
  2
NAME
  10
356554.515
  20
4668483.446
 40
33.81366
  0
SEQEND
  0
POLYLINE
  8
Unknown_Area_Type
  70
1
  66
1
  0
VERTEX
  8
Unknown_Area_Type
  10
358021.373
  20
4669711.274
  0
VERTEX
  8
Unknown_Area_Type
  10
357166.645
  20
4669728.386
  0
VERTEX
  8
Unknown_Area_Type
  10
355213.796
  20
4669768.439
  0
VERTEX
  8
Unknown_Area_Type
  10
355072.500
  20
4667333.000
  0
VERTEX
  8
Unknown_Area_Type
  10
357202.000
  20
4667125.000
  0
VERTEX
  8
Unknown_Area_Type
  10
357214.500
  20
4667124.000
  0
VERTEX
  8
Unknown_Area_Type
  10
357219.000
  20
4667125.500
  0
VERTEX
  8
Unknown_Area_Type
  10
357912.500
  20
4667370.500
  0
VERTEX
  8
Unknown_Area_Type
  10
358021.373
  20
4669711.274
  0
SEQEND
  8
Unknown_Area_Type
  0
INSERT
  8
FeatureAttribs
  2
FEATURE
  41
1
  42
1
  43
1
  50
0
  10
367631.084
  20
4668268.645
 66
1
  0
ATTRIB
  8
FeatureAttribs
 70
0
  1
PNOA-H_AMS_1956-57_33k_ES_PAN_2
  2
NAME
  10
367631.084
  20
4668268.645
 40
33.81366
  0
SEQEND
  0
POLYLINE
  8
Unknown_Area_Type
  70
1
  66
1
  0
VERTEX
  8
Unknown_Area_Type
  10
369039.146
  20
4669497.997
  0
VERTEX
  8
Unknown_Area_Type
  10
369001.500
  20
4668689.000
  0
VERTEX
  8
Unknown_Area_Type
  10
369001.500
  20
4668680.000
  0
VERTEX
  8
Unknown_Area_Type
  10
368930.000
  20
4667137.500
  0
VERTEX
  8
Unknown_Area_Type
  10
368334.500
  20
4666819.000
  0
VERTEX
  8
Unknown_Area_Type
  10
368332.500
  20
4666818.000
  0
VERTEX
  8
Unknown_Area_Type
  10
368326.000
  20
4666818.500
  0
VERTEX
  8
Unknown_Area_Type
  10
366201.000
  20
4667232.000
  0
VERTEX
  8
Unknown_Area_Type
  10
366281.910
  20
4669549.750
  0
VERTEX
  8
Unknown_Area_Type
  10
367492.229
  20
4669526.701
  0
VERTEX
  8
Unknown_Area_Type
  10
369039.146
  20
4669497.997
  0
SEQEND
  8
Unknown_Area_Type
  0
INSERT
  8
FeatureAttribs
  2
FEATURE
  41
1
  42
1
  43
1
  50
0
  10
367631.084
  20
4668268.645
 66
1
  0
ATTRIB
  8
FeatureAttribs
 70
0
  1
PNOA-H_AMS_1956-57_33k_ES_PAN_2
  2
NAME
  10
367631.084
  20
4668268.645
 40
33.81366
  0
SEQEND
  0
POLYLINE
  8
Unknown_Area_Type
  70
1
  66
1
  0
VERTEX
  8
Unknown_Area_Type
  10
369039.146
  20
4669497.997
  0
VERTEX
  8
Unknown_Area_Type
  10
367492.229
  20
4669526.701
  0
VERTEX
  8
Unknown_Area_Type
  10
366281.910
  20
4669549.750
  0
VERTEX
  8
Unknown_Area_Type
  10
366201.000
  20
4667232.000
  0
VERTEX
  8
Unknown_Area_Type
  10
368326.000
  20
4666818.500
  0
VERTEX
  8
Unknown_Area_Type
  10
368332.500
  20
4666818.000
  0
VERTEX
  8
Unknown_Area_Type
  10
368334.500
  20
4666819.000
  0
VERTEX
  8
Unknown_Area_Type
  10
368930.000
  20
4667137.500
  0
VERTEX
  8
Unknown_Area_Type
  10
369001.500
  20
4668680.000
  0
VERTEX
  8
Unknown_Area_Type
  10
369001.500
  20
4668689.000
  0
VERTEX
  8
Unknown_Area_Type
  10
369039.146
  20
4669497.997
  0
SEQEND
  8
Unknown_Area_Type
  0
INSERT
  8
FeatureAttribs
  2
FEATURE
  41
1
  42
1
  43
1
  50
0
  10
359353.302
  20
4668425.940
 66
1
  0
ATTRIB
  8
FeatureAttribs
 70
0
  1
PNOA-H_AMS_1956-57_33k_ES_PAN_2
  2
NAME
  10
359353.302
  20
4668425.940
 40
33.81366
  0
SEQEND
  0
POLYLINE
  8
Unknown_Area_Type
  70
1
  66
1
  0
VERTEX
  8
Unknown_Area_Type
  10
360790.380
  20
4669655.924
  0
VERTEX
  8
Unknown_Area_Type
  10
360684.000
  20
4667345.500
  0
VERTEX
  8
Unknown_Area_Type
  10
360683.500
  20
4667344.000
  0
VERTEX
  8
Unknown_Area_Type
  10
360681.000
  20
4667343.000
  0
VERTEX
  8
Unknown_Area_Type
  10
359929.500
  20
4667047.000
  0
VERTEX
  8
Unknown_Area_Type
  10
359923.000
  20
4667046.000
  0
VERTEX
  8
Unknown_Area_Type
  10
358932.000
  20
4667116.500
  0
VERTEX
  8
Unknown_Area_Type
  10
357912.500
  20
4667370.500
  0
VERTEX
  8
Unknown_Area_Type
  10
358021.478
  20
4669711.272
  0
VERTEX
  8
Unknown_Area_Type
  10
360608.514
  20
4669659.476
  0
VERTEX
  8
Unknown_Area_Type
  10
360790.380
  20
4669655.924
  0
SEQEND
  8
Unknown_Area_Type
  0
INSERT
  8
FeatureAttribs
  2
FEATURE
  41
1
  42
1
  43
1
  50
0
  10
359353.302
  20
4668425.940
 66
1
  0
ATTRIB
  8
FeatureAttribs
 70
0
  1
PNOA-H_AMS_1956-57_33k_ES_PAN_2
  2
NAME
  10
359353.302
  20
4668425.940
 40
33.81366
  0
SEQEND
  0
POLYLINE
  8
Unknown_Area_Type
  70
1
  66
1
  0
VERTEX
  8
Unknown_Area_Type
  10
360790.380
  20
4669655.924
  0
VERTEX
  8
Unknown_Area_Type
  10
360608.514
  20
4669659.476
  0
VERTEX
  8
Unknown_Area_Type
  10
358021.478
  20
4669711.272
  0
VERTEX
  8
Unknown_Area_Type
  10
357912.500
  20
4667370.500
  0
VERTEX
  8
Unknown_Area_Type
  10
358932.000
  20
4667116.500
  0
VERTEX
  8
Unknown_Area_Type
  10
359923.000
  20
4667046.000
  0
VERTEX
  8
Unknown_Area_Type
  10
359929.500
  20
4667047.000
  0
VERTEX
  8
Unknown_Area_Type
  10
360681.000
  20
4667343.000
  0
VERTEX
  8
Unknown_Area_Type
  10
360683.500
  20
4667344.000
  0
VERTEX
  8
Unknown_Area_Type
  10
360684.000
  20
4667345.500
  0
VERTEX
  8
Unknown_Area_Type
  10
360790.380
  20
4669655.924
  0
SEQEND
  8
Unknown_Area_Type
  0
INSERT
  8
FeatureAttribs
  2
FEATURE
  41
1
  42
1
  43
1
  50
0
  10
370400.273
  20
4668187.248
 66
1
  0
ATTRIB
  8
FeatureAttribs
 70
0
  1
PNOA-H_AMS_1956-57_33k_ES_PAN_2
  2
NAME
  10
370400.273
  20
4668187.248
 40
33.81366
  0
SEQEND
  0
POLYLINE
  8
Unknown_Area_Type
  70
1
  66
1
  0
VERTEX
  8
Unknown_Area_Type
  10
371804.773
  20
4669447.105
  0
VERTEX
  8
Unknown_Area_Type
  10
371682.000
  20
4666681.500
  0
VERTEX
  8
Unknown_Area_Type
  10
368930.000
  20
4667137.500
  0
VERTEX
  8
Unknown_Area_Type
  10
369039.238
  20
4669497.996
  0
VERTEX
  8
Unknown_Area_Type
  10
370934.076
  20
4669462.836
  0
VERTEX
  8
Unknown_Area_Type
  10
371804.773
  20
4669447.105
  0
SEQEND
  8
Unknown_Area_Type
  0
INSERT
  8
FeatureAttribs
  2
FEATURE
  41
1
  42
1
  43
1
  50
0
  10
370400.273
  20
4668187.248
 66
1
  0
ATTRIB
  8
FeatureAttribs
 70
0
  1
PNOA-H_AMS_1956-57_33k_ES_PAN_2
  2
NAME
  10
370400.273
  20
4668187.248
 40
33.81366
  0
SEQEND
  0
POLYLINE
  8
Unknown_Area_Type
  70
1
  66
1
  0
VERTEX
  8
Unknown_Area_Type
  10
371804.773
  20
4669447.105
  0
VERTEX
  8
Unknown_Area_Type
  10
370934.076
  20
4669462.836
  0
VERTEX
  8
Unknown_Area_Type
  10
369039.238
  20
4669497.996
  0
VERTEX
  8
Unknown_Area_Type
  10
368930.000
  20
4667137.500
  0
VERTEX
  8
Unknown_Area_Type
  10
371682.000
  20
4666681.500
  0
VERTEX
  8
Unknown_Area_Type
  10
371804.773
  20
4669447.105
  0
SEQEND
  8
Unknown_Area_Type
  0
INSERT
  8
FeatureAttribs
  2
FEATURE
  41
1
  42
1
  43
1
  50
0
  10
364900.537
  20
4668316.010
 66
1
  0
ATTRIB
  8
FeatureAttribs
 70
0
  1
PNOA-H_AMS_1956-57_33k_ES_PAN_2
  2
NAME
  10
364900.537
  20
4668316.010
 40
33.81366
  0
SEQEND
  0
POLYLINE
  8
Unknown_Area_Type
  70
1
  66
1
  0
VERTEX
  8
Unknown_Area_Type
  10
366281.910
  20
4669549.750
  0
VERTEX
  8
Unknown_Area_Type
  10
366201.000
  20
4667232.000
  0
VERTEX
  8
Unknown_Area_Type
  10
365378.000
  20
4666846.500
  0
VERTEX
  8
Unknown_Area_Type
  10
363499.000
  20
4667295.000
  0
VERTEX
  8
Unknown_Area_Type
  10
363571.883
  20
4669601.594
  0
VERTEX
  8
Unknown_Area_Type
  10
364050.375
  20
4669592.248
  0
VERTEX
  8
Unknown_Area_Type
  10
366281.910
  20
4669549.750
  0
SEQEND
  8
Unknown_Area_Type
  0
INSERT
  8
FeatureAttribs
  2
FEATURE
  41
1
  42
1
  43
1
  50
0
  10
364900.537
  20
4668316.010
 66
1
  0
ATTRIB
  8
FeatureAttribs
 70
0
  1
PNOA-H_AMS_1956-57_33k_ES_PAN_2
  2
NAME
  10
364900.537
  20
4668316.010
 40
33.81366
  0
SEQEND
  0
POLYLINE
  8
Unknown_Area_Type
  70
1
  66
1
  0
VERTEX
  8
Unknown_Area_Type
  10
366281.910
  20
4669549.750
  0
VERTEX
  8
Unknown_Area_Type
  10
364050.375
  20
4669592.248
  0
VERTEX
  8
Unknown_Area_Type
  10
363571.883
  20
4669601.594
  0
VERTEX
  8
Unknown_Area_Type
  10
363499.000
  20
4667295.000
  0
VERTEX
  8
Unknown_Area_Type
  10
365378.000
  20
4666846.500
  0
VERTEX
  8
Unknown_Area_Type
  10
366201.000
  20
4667232.000
  0
VERTEX
  8
Unknown_Area_Type
  10
366281.910
  20
4669549.750
  0
SEQEND
  8
Unknown_Area_Type
  0
INSERT
  8
FeatureAttribs
  2
FEATURE
  41
1
  42
1
  43
1
  50
0
  10
374363.178
  20
4667969.301
 66
1
  0
ATTRIB
  8
FeatureAttribs
 70
0
  1
PNOA-H_AMS_1956-57_33k_ES_PAN_2
  2
NAME
  10
374363.178
  20
4667969.301
 40
33.81366
  0
SEQEND
  0
POLYLINE
  8
Unknown_Area_Type
  70
1
  66
1
  0
VERTEX
  8
Unknown_Area_Type
  10
374375.945
  20
4666540.070
  0
VERTEX
  8
Unknown_Area_Type
  10
374324.910
  20
4666537.950
  0
VERTEX
  8
Unknown_Area_Type
  10
374334.697
  20
4667087.406
  0
VERTEX
  8
Unknown_Area_Type
  10
374375.917
  20
4669400.653
  0
VERTEX
  8
Unknown_Area_Type
  10
374375.945
  20
4669400.652
  0
VERTEX
  8
Unknown_Area_Type
  10
374375.945
  20
4666540.070
  0
SEQEND
  8
Unknown_Area_Type
  0
INSERT
  8
FeatureAttribs
  2
FEATURE
  41
1
  42
1
  43
1
  50
0
  10
373038.266
  20
4667952.605
 66
1
  0
ATTRIB
  8
FeatureAttribs
 70
0
  1
PNOA-H_AMS_1956-57_33k_ES_PAN_2
  2
NAME
  10
373038.266
  20
4667952.605
 40
33.81366
  0
SEQEND
  0
POLYLINE
  8
Unknown_Area_Type
  70
1
  66
1
  0
VERTEX
  8
Unknown_Area_Type
  10
374324.910
  20
4666537.950
  0
VERTEX
  8
Unknown_Area_Type
  10
371954.500
  20
4666439.500
  0
VERTEX
  8
Unknown_Area_Type
  10
371682.000
  20
4666681.500
  0
VERTEX
  8
Unknown_Area_Type
  10
371804.788
  20
4669447.105
  0
VERTEX
  8
Unknown_Area_Type
  10
374375.917
  20
4669400.653
  0
VERTEX
  8
Unknown_Area_Type
  10
374334.697
  20
4667087.406
  0
VERTEX
  8
Unknown_Area_Type
  10
374324.910
  20
4666537.950
  0
SEQEND
  8
Unknown_Area_Type
  0
INSERT
  8
FeatureAttribs
  2
FEATURE
  41
1
  42
1
  43
1
  50
0
  10
373038.266
  20
4667952.605
 66
1
  0
ATTRIB
  8
FeatureAttribs
 70
0
  1
PNOA-H_AMS_1956-57_33k_ES_PAN_2
  2
NAME
  10
373038.266
  20
4667952.605
 40
33.81366
  0
SEQEND
  0
POLYLINE
  8
Unknown_Area_Type
  70
1
  66
1
  0
VERTEX
  8
Unknown_Area_Type
  10
374324.910
  20
4666537.950
  0
VERTEX
  8
Unknown_Area_Type
  10
374334.697
  20
4667087.406
  0
VERTEX
  8
Unknown_Area_Type
  10
374375.917
  20
4669400.653
  0
VERTEX
  8
Unknown_Area_Type
  10
371804.788
  20
4669447.105
  0
VERTEX
  8
Unknown_Area_Type
  10
371682.000
  20
4666681.500
  0
VERTEX
  8
Unknown_Area_Type
  10
371954.500
  20
4666439.500
  0
VERTEX
  8
Unknown_Area_Type
  10
374324.910
  20
4666537.950
  0
SEQEND
  8
Unknown_Area_Type
  0
INSERT
  8
FeatureAttribs
  2
FEATURE
  41
1
  42
1
  43
1
  50
0
  10
346459.319
  20
4658209.220
 66
1
  0
ATTRIB
  8
FeatureAttribs
 70
0
  1
PNOA-H_AMS_1956-57_33k_ES_PAN_2
  2
NAME
  10
346459.319
  20
4658209.220
 40
33.81366
  0
SEQEND
  0
POLYLINE
  8
Unknown_Area_Type
  70
1
  66
1
  0
VERTEX
  8
Unknown_Area_Type
  10
346439.446
  20
4658394.022
  0
VERTEX
  8
Unknown_Area_Type
  10
346511.500
  20
4658059.000
  0
VERTEX
  8
Unknown_Area_Type
  10
346439.446
  20
4658024.419
  0
VERTEX
  8
Unknown_Area_Type
  10
346439.446
  20
4658394.022
  0
SEQEND
  8
Unknown_Area_Type
  0
INSERT
  8
FeatureAttribs
  2
FEATURE
  41
1
  42
1
  43
1
  50
0
  10
360814.380
  20
4665314.829
 66
1
  0
ATTRIB
  8
FeatureAttribs
 70
0
  1
PNOA-H_AMS_1956-57_33k_ES_PAN_2
  2
NAME
  10
360814.380
  20
4665314.829
 40
33.81366
  0
SEQEND
  0
POLYLINE
  8
Unknown_Area_Type
  70
1
  66
1
  0
VERTEX
  8
Unknown_Area_Type
  10
360683.500
  20
4667344.500
  0
VERTEX
  8
Unknown_Area_Type
  10
362107.500
  20
4666966.500
  0
VERTEX
  8
Unknown_Area_Type
  10
360842.500
  20
4662635.500
  0
VERTEX
  8
Unknown_Area_Type
  10
360511.500
  20
4662594.500
  0
VERTEX
  8
Unknown_Area_Type
  10
360178.000
  20
4662714.500
  0
VERTEX
  8
Unknown_Area_Type
  10
359926.000
  20
4667044.500
  0
VERTEX
  8
Unknown_Area_Type
  10
359926.500
  20
4667046.500
  0
VERTEX
  8
Unknown_Area_Type
  10
360682.000
  20
4667344.000
  0
VERTEX
  8
Unknown_Area_Type
  10
360683.500
  20
4667344.500
  0
SEQEND
  8
Unknown_Area_Type
  0
INSERT
  8
FeatureAttribs
  2
FEATURE
  41
1
  42
1
  43
1
  50
0
  10
360814.380
  20
4665314.829
 66
1
  0
ATTRIB
  8
FeatureAttribs
 70
0
  1
PNOA-H_AMS_1956-57_33k_ES_PAN_2
  2
NAME
  10
360814.380
  20
4665314.829
 40
33.81366
  0
SEQEND
  0
POLYLINE
  8
Unknown_Area_Type
  70
1
  66
1
  0
VERTEX
  8
Unknown_Area_Type
  10
360683.500
  20
4667344.500
  0
VERTEX
  8
Unknown_Area_Type
  10
360682.000
  20
4667344.000
  0
VERTEX
  8
Unknown_Area_Type
  10
359926.500
  20
4667046.500
  0
VERTEX
  8
Unknown_Area_Type
  10
359926.000
  20
4667044.500
  0
VERTEX
  8
Unknown_Area_Type
  10
360178.000
  20
4662714.500
  0
VERTEX
  8
Unknown_Area_Type
  10
360511.500
  20
4662594.500
  0
VERTEX
  8
Unknown_Area_Type
  10
360842.500
  20
4662635.500
  0
VERTEX
  8
Unknown_Area_Type
  10
362107.500
  20
4666966.500
  0
VERTEX
  8
Unknown_Area_Type
  10
360683.500
  20
4667344.500
  0
SEQEND
  8
Unknown_Area_Type
  0
INSERT
  8
FeatureAttribs
  2
FEATURE
  41
1
  42
1
  43
1
  50
0
  10
363775.476
  20
4665628.649
 66
1
  0
ATTRIB
  8
FeatureAttribs
 70
0
  1
PNOA-H_AMS_1956-57_33k_ES_PAN_2
  2
NAME
  10
363775.476
  20
4665628.649
 40
33.81366
  0
SEQEND
  0
POLYLINE
  8
Unknown_Area_Type
  70
1
  66
1
  0
VERTEX
  8
Unknown_Area_Type
  10
364178.000
  20
4667132.500
  0
VERTEX
  8
Unknown_Area_Type
  10
365377.000
  20
4666846.500
  0
VERTEX
  8
Unknown_Area_Type
  10
365378.000
  20
4666702.500
  0
VERTEX
  8
Unknown_Area_Type
  10
363232.000
  20
4662733.000
  0
VERTEX
  8
Unknown_Area_Type
  10
362628.500
  20
4666933.000
  0
VERTEX
  8
Unknown_Area_Type
  10
363498.500
  20
4667295.000
  0
VERTEX
  8
Unknown_Area_Type
  10
364176.000
  20
4667133.000
  0
VERTEX
  8
Unknown_Area_Type
  10
364178.000
  20
4667132.500
  0
SEQEND
  8
Unknown_Area_Type
  0
INSERT
  8
FeatureAttribs
  2
FEATURE
  41
1
  42
1
  43
1
  50
0
  10
363775.476
  20
4665628.649
 66
1
  0
ATTRIB
  8
FeatureAttribs
 70
0
  1
PNOA-H_AMS_1956-57_33k_ES_PAN_2
  2
NAME
  10
363775.476
  20
4665628.649
 40
33.81366
  0
SEQEND
  0
POLYLINE
  8
Unknown_Area_Type
  70
1
  66
1
  0
VERTEX
  8
Unknown_Area_Type
  10
364178.000
  20
4667132.500
  0
VERTEX
  8
Unknown_Area_Type
  10
364176.000
  20
4667133.000
  0
VERTEX
  8
Unknown_Area_Type
  10
363498.500
  20
4667295.000
  0
VERTEX
  8
Unknown_Area_Type
  10
362628.500
  20
4666933.000
  0
VERTEX
  8
Unknown_Area_Type
  10
363232.000
  20
4662733.000
  0
VERTEX
  8
Unknown_Area_Type
  10
365378.000
  20
4666702.500
  0
VERTEX
  8
Unknown_Area_Type
  10
365377.000
  20
4666846.500
  0
VERTEX
  8
Unknown_Area_Type
  10
364178.000
  20
4667132.500
  0
SEQEND
  8
Unknown_Area_Type
  0
INSERT
  8
FeatureAttribs
  2
FEATURE
  41
1
  42
1
  43
1
  50
0
  10
369798.970
  20
4665776.842
 66
1
  0
ATTRIB
  8
FeatureAttribs
 70
0
  1
PNOA-H_AMS_1956-57_33k_ES_PAN_2
  2
NAME
  10
369798.970
  20
4665776.842
 40
33.81366
  0
SEQEND
  0
POLYLINE
  8
Unknown_Area_Type
  70
1
  66
1
  0
VERTEX
  8
Unknown_Area_Type
  10
370060.500
  20
4664584.000
  0
VERTEX
  8
Unknown_Area_Type
  10
369062.500
  20
4663695.500
  0
VERTEX
  8
Unknown_Area_Type
  10
368995.000
  20
4663635.500
  0
VERTEX
  8
Unknown_Area_Type
  10
368994.000
  20
4663636.000
  0
VERTEX
  8
Unknown_Area_Type
  10
368320.000
  20
4666116.500
  0
VERTEX
  8
Unknown_Area_Type
  10
368331.500
  20
4666818.000
  0
VERTEX
  8
Unknown_Area_Type
  10
368927.500
  20
4667136.500
  0
VERTEX
  8
Unknown_Area_Type
  10
368931.000
  20
4667137.500
  0
VERTEX
  8
Unknown_Area_Type
  10
368967.500
  20
4667131.500
  0
VERTEX
  8
Unknown_Area_Type
  10
371681.500
  20
4666682.000
  0
VERTEX
  8
Unknown_Area_Type
  10
371955.000
  20
4666439.500
  0
VERTEX
  8
Unknown_Area_Type
  10
371909.500
  20
4666231.000
  0
VERTEX
  8
Unknown_Area_Type
  10
371907.000
  20
4666226.000
  0
VERTEX
  8
Unknown_Area_Type
  10
370061.500
  20
4664584.500
  0
VERTEX
  8
Unknown_Area_Type
  10
370060.500
  20
4664584.000
  0
SEQEND
  8
Unknown_Area_Type
  0
INSERT
  8
FeatureAttribs
  2
FEATURE
  41
1
  42
1
  43
1
  50
0
  10
369798.970
  20
4665776.842
 66
1
  0
ATTRIB
  8
FeatureAttribs
 70
0
  1
PNOA-H_AMS_1956-57_33k_ES_PAN_2
  2
NAME
  10
369798.970
  20
4665776.842
 40
33.81366
  0
SEQEND
  0
POLYLINE
  8
Unknown_Area_Type
  70
1
  66
1
  0
VERTEX
  8
Unknown_Area_Type
  10
370060.500
  20
4664584.000
  0
VERTEX
  8
Unknown_Area_Type
  10
370061.500
  20
4664584.500
  0
VERTEX
  8
Unknown_Area_Type
  10
371907.000
  20
4666226.000
  0
VERTEX
  8
Unknown_Area_Type
  10
371909.500
  20
4666231.000
  0
VERTEX
  8
Unknown_Area_Type
  10
371955.000
  20
4666439.500
  0
VERTEX
  8
Unknown_Area_Type
  10
371681.500
  20
4666682.000
  0
VERTEX
  8
Unknown_Area_Type
  10
368967.500
  20
4667131.500
  0
VERTEX
  8
Unknown_Area_Type
  10
368931.000
  20
4667137.500
  0
VERTEX
  8
Unknown_Area_Type
  10
368927.500
  20
4667136.500
  0
VERTEX
  8
Unknown_Area_Type
  10
368331.500
  20
4666818.000
  0
VERTEX
  8
Unknown_Area_Type
  10
368320.000
  20
4666116.500
  0
VERTEX
  8
Unknown_Area_Type
  10
368994.000
  20
4663636.000
  0
VERTEX
  8
Unknown_Area_Type
  10
368995.000
  20
4663635.500
  0
VERTEX
  8
Unknown_Area_Type
  10
369062.500
  20
4663695.500
  0
VERTEX
  8
Unknown_Area_Type
  10
370060.500
  20
4664584.000
  0
SEQEND
  8
Unknown_Area_Type
  0
INSERT
  8
FeatureAttribs
  2
FEATURE
  41
1
  42
1
  43
1
  50
0
  10
366718.183
  20
4665740.350
 66
1
  0
ATTRIB
  8
FeatureAttribs
 70
0
  1
PNOA-H_AMS_1956-57_33k_ES_PAN_2
  2
NAME
  10
366718.183
  20
4665740.350
 40
33.81366
  0
SEQEND
  0
POLYLINE
  8
Unknown_Area_Type
  70
1
  66
1
  0
VERTEX
  8
Unknown_Area_Type
  10
366200.500
  20
4667232.000
  0
VERTEX
  8
Unknown_Area_Type
  10
368331.500
  20
4666818.000
  0
VERTEX
  8
Unknown_Area_Type
  10
368320.500
  20
4666127.500
  0
VERTEX
  8
Unknown_Area_Type
  10
368320.000
  20
4666116.500
  0
VERTEX
  8
Unknown_Area_Type
  10
368317.000
  20
4666112.500
  0
VERTEX
  8
Unknown_Area_Type
  10
366130.000
  20
4663296.000
  0
VERTEX
  8
Unknown_Area_Type
  10
366129.000
  20
4663296.000
  0
VERTEX
  8
Unknown_Area_Type
  10
366123.500
  20
4663320.500
  0
VERTEX
  8
Unknown_Area_Type
  10
365378.000
  20
4666700.000
  0
VERTEX
  8
Unknown_Area_Type
  10
365377.000
  20
4666846.500
  0
VERTEX
  8
Unknown_Area_Type
  10
366199.500
  20
4667231.500
  0
VERTEX
  8
Unknown_Area_Type
  10
366200.500
  20
4667232.000
  0
SEQEND
  8
Unknown_Area_Type
  0
INSERT
  8
FeatureAttribs
  2
FEATURE
  41
1
  42
1
  43
1
  50
0
  10
366718.183
  20
4665740.350
 66
1
  0
ATTRIB
  8
FeatureAttribs
 70
0
  1
PNOA-H_AMS_1956-57_33k_ES_PAN_2
  2
NAME
  10
366718.183
  20
4665740.350
 40
33.81366
  0
SEQEND
  0
POLYLINE
  8
Unknown_Area_Type
  70
1
  66
1
  0
VERTEX
  8
Unknown_Area_Type
  10
366200.500
  20
4667232.000
  0
VERTEX
  8
Unknown_Area_Type
  10
366199.500
  20
4667231.500
  0
VERTEX
  8
Unknown_Area_Type
  10
365377.000
  20
4666846.500
  0
VERTEX
  8
Unknown_Area_Type
  10
365378.000
  20
4666700.000
  0
VERTEX
  8
Unknown_Area_Type
  10
366123.500
  20
4663320.500
  0
VERTEX
  8
Unknown_Area_Type
  10
366129.000
  20
4663296.000
  0
VERTEX
  8
Unknown_Area_Type
  10
366130.000
  20
4663296.000
  0
VERTEX
  8
Unknown_Area_Type
  10
368317.000
  20
4666112.500
  0
VERTEX
  8
Unknown_Area_Type
  10
368320.000
  20
4666116.500
  0
VERTEX
  8
Unknown_Area_Type
  10
368320.500
  20
4666127.500
  0
VERTEX
  8
Unknown_Area_Type
  10
368331.500
  20
4666818.000
  0
VERTEX
  8
Unknown_Area_Type
  10
366200.500
  20
4667232.000
  0
SEQEND
  8
Unknown_Area_Type
  0
INSERT
  8
FeatureAttribs
  2
FEATURE
  41
1
  42
1
  43
1
  50
0
  10
350108.837
  20
4656520.045
 66
1
  0
ATTRIB
  8
FeatureAttribs
 70
0
  1
PNOA-H_AMS_1956-57_33k_ES_PAN_2
  2
NAME
  10
350108.837
  20
4656520.045
 40
33.81366
  0
SEQEND
  0
POLYLINE
  8
Unknown_Area_Type
  70
1
  66
1
  0
VERTEX
  8
Unknown_Area_Type
  10
348536.500
  20
4657994.500
  0
VERTEX
  8
Unknown_Area_Type
  10
351346.500
  20
4657975.500
  0
VERTEX
  8
Unknown_Area_Type
  10
351352.500
  20
4657974.500
  0
VERTEX
  8
Unknown_Area_Type
  10
351454.000
  20
4657915.500
  0
VERTEX
  8
Unknown_Area_Type
  10
351443.500
  20
4656634.000
  0
VERTEX
  8
Unknown_Area_Type
  10
350811.000
  20
4653885.000
  0
VERTEX
  8
Unknown_Area_Type
  10
348465.000
  20
4656742.000
  0
VERTEX
  8
Unknown_Area_Type
  10
348448.500
  20
4657949.500
  0
VERTEX
  8
Unknown_Area_Type
  10
348535.500
  20
4657994.000
  0
VERTEX
  8
Unknown_Area_Type
  10
348536.500
  20
4657994.500
  0
SEQEND
  8
Unknown_Area_Type
  0
INSERT
  8
FeatureAttribs
  2
FEATURE
  41
1
  42
1
  43
1
  50
0
  10
350108.837
  20
4656520.045
 66
1
  0
ATTRIB
  8
FeatureAttribs
 70
0
  1
PNOA-H_AMS_1956-57_33k_ES_PAN_2
  2
NAME
  10
350108.837
  20
4656520.045
 40
33.81366
  0
SEQEND
  0
POLYLINE
  8
Unknown_Area_Type
  70
1
  66
1
  0
VERTEX
  8
Unknown_Area_Type
  10
348536.500
  20
4657994.500
  0
VERTEX
  8
Unknown_Area_Type
  10
348535.500
  20
4657994.000
  0
VERTEX
  8
Unknown_Area_Type
  10
348448.500
  20
4657949.500
  0
VERTEX
  8
Unknown_Area_Type
  10
348465.000
  20
4656742.000
  0
VERTEX
  8
Unknown_Area_Type
  10
350811.000
  20
4653885.000
  0
VERTEX
  8
Unknown_Area_Type
  10
351443.500
  20
4656634.000
  0
VERTEX
  8
Unknown_Area_Type
  10
351454.000
  20
4657915.500
  0
VERTEX
  8
Unknown_Area_Type
  10
351352.500
  20
4657974.500
  0
VERTEX
  8
Unknown_Area_Type
  10
351346.500
  20
4657975.500
  0
VERTEX
  8
Unknown_Area_Type
  10
348536.500
  20
4657994.500
  0
SEQEND
  8
Unknown_Area_Type
  0
INSERT
  8
FeatureAttribs
  2
FEATURE
  41
1
  42
1
  43
1
  50
0
  10
346497.716
  20
4656815.173
 66
1
  0
ATTRIB
  8
FeatureAttribs
 70
0
  1
PNOA-H_AMS_1956-57_33k_ES_PAN_2
  2
NAME
  10
346497.716
  20
4656815.173
 40
33.81366
  0
SEQEND
  0
POLYLINE
  8
Unknown_Area_Type
  70
1
  66
1
  0
VERTEX
  8
Unknown_Area_Type
  10
346582.878
  20
4658055.447
  0
VERTEX
  8
Unknown_Area_Type
  10
346539.731
  20
4656065.603
  0
VERTEX
  8
Unknown_Area_Type
  10
346529.008
  20
4655570.846
  0
VERTEX
  8
Unknown_Area_Type
  10
346439.446
  20
4655654.246
  0
VERTEX
  8
Unknown_Area_Type
  10
346439.446
  20
4658024.919
  0
VERTEX
  8
Unknown_Area_Type
  10
346511.500
  20
4658059.500
  0
VERTEX
  8
Unknown_Area_Type
  10
346582.878
  20
4658055.447
  0
SEQEND
  8
Unknown_Area_Type
  0
INSERT
  8
FeatureAttribs
  2
FEATURE
  41
1
  42
1
  43
1
  50
0
  10
347513.485
  20
4656425.206
 66
1
  0
ATTRIB
  8
FeatureAttribs
 70
0
  1
PNOA-H_AMS_1956-57_33k_ES_PAN_2
  2
NAME
  10
347513.485
  20
4656425.206
 40
33.81366
  0
SEQEND
  0
POLYLINE
  8
Unknown_Area_Type
  70
1
  66
1
  0
VERTEX
  8
Unknown_Area_Type
  10
346582.878
  20
4658055.447
  0
VERTEX
  8
Unknown_Area_Type
  10
348448.500
  20
4657949.500
  0
VERTEX
  8
Unknown_Area_Type
  10
348465.000
  20
4656740.000
  0
VERTEX
  8
Unknown_Area_Type
  10
348105.500
  20
4654346.500
  0
VERTEX
  8
Unknown_Area_Type
  10
348105.500
  20
4654344.000
  0
VERTEX
  8
Unknown_Area_Type
  10
348074.500
  20
4654136.500
  0
VERTEX
  8
Unknown_Area_Type
  10
348074.000
  20
4654133.500
  0
VERTEX
  8
Unknown_Area_Type
  10
348072.000
  20
4654134.000
  0
VERTEX
  8
Unknown_Area_Type
  10
346529.008
  20
4655570.846
  0
VERTEX
  8
Unknown_Area_Type
  10
346539.731
  20
4656065.603
  0
VERTEX
  8
Unknown_Area_Type
  10
346582.878
  20
4658055.447
  0
SEQEND
  8
Unknown_Area_Type
  0
INSERT
  8
FeatureAttribs
  2
FEATURE
  41
1
  42
1
  43
1
  50
0
  10
347513.485
  20
4656425.206
 66
1
  0
ATTRIB
  8
FeatureAttribs
 70
0
  1
PNOA-H_AMS_1956-57_33k_ES_PAN_2
  2
NAME
  10
347513.485
  20
4656425.206
 40
33.81366
  0
SEQEND
  0
POLYLINE
  8
Unknown_Area_Type
  70
1
  66
1
  0
VERTEX
  8
Unknown_Area_Type
  10
346582.878
  20
4658055.447
  0
VERTEX
  8
Unknown_Area_Type
  10
346539.731
  20
4656065.603
  0
VERTEX
  8
Unknown_Area_Type
  10
346529.008
  20
4655570.846
  0
VERTEX
  8
Unknown_Area_Type
  10
348072.000
  20
4654134.000
  0
VERTEX
  8
Unknown_Area_Type
  10
348074.000
  20
4654133.500
  0
VERTEX
  8
Unknown_Area_Type
  10
348074.500
  20
4654136.500
  0
VERTEX
  8
Unknown_Area_Type
  10
348105.500
  20
4654344.000
  0
VERTEX
  8
Unknown_Area_Type
  10
348105.500
  20
4654346.500
  0
VERTEX
  8
Unknown_Area_Type
  10
348465.000
  20
4656740.000
  0
VERTEX
  8
Unknown_Area_Type
  10
348448.500
  20
4657949.500
  0
VERTEX
  8
Unknown_Area_Type
  10
346582.878
  20
4658055.447
  0
SEQEND
  8
Unknown_Area_Type
  0
INSERT
  8
FeatureAttribs
  2
FEATURE
  41
1
  42
1
  43
1
  50
0
  10
355905.479
  20
4656469.621
 66
1
  0
ATTRIB
  8
FeatureAttribs
 70
0
  1
PNOA-H_AMS_1956-57_33k_ES_PAN_2
  2
NAME
  10
355905.479
  20
4656469.621
 40
33.81366
  0
SEQEND
  0
POLYLINE
  8
Unknown_Area_Type
  70
1
  66
1
  0
VERTEX
  8
Unknown_Area_Type
  10
354326.000
  20
4657942.000
  0
VERTEX
  8
Unknown_Area_Type
  10
357240.500
  20
4657935.000
  0
VERTEX
  8
Unknown_Area_Type
  10
357257.500
  20
4656156.500
  0
VERTEX
  8
Unknown_Area_Type
  10
356428.000
  20
4653961.000
  0
VERTEX
  8
Unknown_Area_Type
  10
356422.000
  20
4653967.000
  0
VERTEX
  8
Unknown_Area_Type
  10
354338.000
  20
4656493.000
  0
VERTEX
  8
Unknown_Area_Type
  10
354296.500
  20
4657909.000
  0
VERTEX
  8
Unknown_Area_Type
  10
354296.500
  20
4657924.500
  0
VERTEX
  8
Unknown_Area_Type
  10
354325.000
  20
4657941.500
  0
VERTEX
  8
Unknown_Area_Type
  10
354326.000
  20
4657942.000
  0
SEQEND
  8
Unknown_Area_Type
  0
INSERT
  8
FeatureAttribs
  2
FEATURE
  41
1
  42
1
  43
1
  50
0
  10
355905.479
  20
4656469.621
 66
1
  0
ATTRIB
  8
FeatureAttribs
 70
0
  1
PNOA-H_AMS_1956-57_33k_ES_PAN_2
  2
NAME
  10
355905.479
  20
4656469.621
 40
33.81366
  0
SEQEND
  0
POLYLINE
  8
Unknown_Area_Type
  70
1
  66
1
  0
VERTEX
  8
Unknown_Area_Type
  10
354326.000
  20
4657942.000
  0
VERTEX
  8
Unknown_Area_Type
  10
354325.000
  20
4657941.500
  0
VERTEX
  8
Unknown_Area_Type
  10
354296.500
  20
4657924.500
  0
VERTEX
  8
Unknown_Area_Type
  10
354296.500
  20
4657909.000
  0
VERTEX
  8
Unknown_Area_Type
  10
354338.000
  20
4656493.000
  0
VERTEX
  8
Unknown_Area_Type
  10
356422.000
  20
4653967.000
  0
VERTEX
  8
Unknown_Area_Type
  10
356428.000
  20
4653961.000
  0
VERTEX
  8
Unknown_Area_Type
  10
357257.500
  20
4656156.500
  0
VERTEX
  8
Unknown_Area_Type
  10
357240.500
  20
4657935.000
  0
VERTEX
  8
Unknown_Area_Type
  10
354326.000
  20
4657942.000
  0
SEQEND
  8
Unknown_Area_Type
  0
INSERT
  8
FeatureAttribs
  2
FEATURE
  41
1
  42
1
  43
1
  50
0
  10
353021.853
  20
4656422.418
 66
1
  0
ATTRIB
  8
FeatureAttribs
 70
0
  1
PNOA-H_AMS_1956-57_33k_ES_PAN_2
  2
NAME
  10
353021.853
  20
4656422.418
 40
33.81366
  0
SEQEND
  0
POLYLINE
  8
Unknown_Area_Type
  70
1
  66
1
  0
VERTEX
  8
Unknown_Area_Type
  10
354216.500
  20
4657924.000
  0
VERTEX
  8
Unknown_Area_Type
  10
354296.500
  20
4657924.000
  0
VERTEX
  8
Unknown_Area_Type
  10
354338.000
  20
4656492.000
  0
VERTEX
  8
Unknown_Area_Type
  10
353612.000
  20
4653761.000
  0
VERTEX
  8
Unknown_Area_Type
  10
351443.500
  20
4656634.000
  0
VERTEX
  8
Unknown_Area_Type
  10
351454.000
  20
4657915.500
  0
VERTEX
  8
Unknown_Area_Type
  10
354051.000
  20
4657923.500
  0
VERTEX
  8
Unknown_Area_Type
  10
354216.500
  20
4657924.000
  0
SEQEND
  8
Unknown_Area_Type
  0
INSERT
  8
FeatureAttribs
  2
FEATURE
  41
1
  42
1
  43
1
  50
0
  10
353021.853
  20
4656422.418
 66
1
  0
ATTRIB
  8
FeatureAttribs
 70
0
  1
PNOA-H_AMS_1956-57_33k_ES_PAN_2
  2
NAME
  10
353021.853
  20
4656422.418
 40
33.81366
  0
SEQEND
  0
POLYLINE
  8
Unknown_Area_Type
  70
1
  66
1
  0
VERTEX
  8
Unknown_Area_Type
  10
354216.500
  20
4657924.000
  0
VERTEX
  8
Unknown_Area_Type
  10
354051.000
  20
4657923.500
  0
VERTEX
  8
Unknown_Area_Type
  10
351454.000
  20
4657915.500
  0
VERTEX
  8
Unknown_Area_Type
  10
351443.500
  20
4656634.000
  0
VERTEX
  8
Unknown_Area_Type
  10
353612.000
  20
4653761.000
  0
VERTEX
  8
Unknown_Area_Type
  10
354338.000
  20
4656492.000
  0
VERTEX
  8
Unknown_Area_Type
  10
354296.500
  20
4657924.000
  0
VERTEX
  8
Unknown_Area_Type
  10
354216.500
  20
4657924.000
  0
SEQEND
  8
Unknown_Area_Type
  0
INSERT
  8
FeatureAttribs
  2
FEATURE
  41
1
  42
1
  43
1
  50
0
  10
358723.898
  20
4656486.289
 66
1
  0
ATTRIB
  8
FeatureAttribs
 70
0
  1
PNOA-H_AMS_1956-57_33k_ES_PAN_2
  2
NAME
  10
358723.898
  20
4656486.289
 40
33.81366
  0
SEQEND
  0
POLYLINE
  8
Unknown_Area_Type
  70
1
  66
1
  0
VERTEX
  8
Unknown_Area_Type
  10
360082.000
  20
4657769.000
  0
VERTEX
  8
Unknown_Area_Type
  10
360093.000
  20
4656063.500
  0
VERTEX
  8
Unknown_Area_Type
  10
359210.500
  20
4654161.000
  0
VERTEX
  8
Unknown_Area_Type
  10
359208.500
  20
4654159.000
  0
VERTEX
  8
Unknown_Area_Type
  10
357257.500
  20
4656156.000
  0
VERTEX
  8
Unknown_Area_Type
  10
357240.500
  20
4657903.500
  0
VERTEX
  8
Unknown_Area_Type
  10
357241.000
  20
4657935.500
  0
VERTEX
  8
Unknown_Area_Type
  10
357380.000
  20
4658016.000
  0
VERTEX
  8
Unknown_Area_Type
  10
357383.000
  20
4658016.500
  0
VERTEX
  8
Unknown_Area_Type
  10
359160.000
  20
4657940.500
  0
VERTEX
  8
Unknown_Area_Type
  10
360082.000
  20
4657799.500
  0
VERTEX
  8
Unknown_Area_Type
  10
360082.000
  20
4657769.000
  0
SEQEND
  8
Unknown_Area_Type
  0
INSERT
  8
FeatureAttribs
  2
FEATURE
  41
1
  42
1
  43
1
  50
0
  10
358723.898
  20
4656486.289
 66
1
  0
ATTRIB
  8
FeatureAttribs
 70
0
  1
PNOA-H_AMS_1956-57_33k_ES_PAN_2
  2
NAME
  10
358723.898
  20
4656486.289
 40
33.81366
  0
SEQEND
  0
POLYLINE
  8
Unknown_Area_Type
  70
1
  66
1
  0
VERTEX
  8
Unknown_Area_Type
  10
360082.000
  20
4657769.000
  0
VERTEX
  8
Unknown_Area_Type
  10
360082.000
  20
4657799.500
  0
VERTEX
  8
Unknown_Area_Type
  10
359160.000
  20
4657940.500
  0
VERTEX
  8
Unknown_Area_Type
  10
357383.000
  20
4658016.500
  0
VERTEX
  8
Unknown_Area_Type
  10
357380.000
  20
4658016.000
  0
VERTEX
  8
Unknown_Area_Type
  10
357241.000
  20
4657935.500
  0
VERTEX
  8
Unknown_Area_Type
  10
357240.500
  20
4657903.500
  0
VERTEX
  8
Unknown_Area_Type
  10
357257.500
  20
4656156.000
  0
VERTEX
  8
Unknown_Area_Type
  10
359208.500
  20
4654159.000
  0
VERTEX
  8
Unknown_Area_Type
  10
359210.500
  20
4654161.000
  0
VERTEX
  8
Unknown_Area_Type
  10
360093.000
  20
4656063.500
  0
VERTEX
  8
Unknown_Area_Type
  10
360082.000
  20
4657769.000
  0
SEQEND
  8
Unknown_Area_Type
  0
INSERT
  8
FeatureAttribs
  2
FEATURE
  41
1
  42
1
  43
1
  50
0
  10
357948.415
  20
4665093.038
 66
1
  0
ATTRIB
  8
FeatureAttribs
 70
0
  1
PNOA-H_AMS_1956-57_33k_ES_PAN_2
  2
NAME
  10
357948.415
  20
4665093.038
 40
33.81366
  0
SEQEND
  0
POLYLINE
  8
Unknown_Area_Type
  70
1
  66
1
  0
VERTEX
  8
Unknown_Area_Type
  10
358602.000
  20
4664584.000
  0
VERTEX
  8
Unknown_Area_Type
  10
358350.500
  20
4662648.000
  0
VERTEX
  8
Unknown_Area_Type
  10
357370.500
  20
4662510.500
  0
VERTEX
  8
Unknown_Area_Type
  10
357367.000
  20
4662510.500
  0
VERTEX
  8
Unknown_Area_Type
  10
357362.000
  20
4662513.000
  0
VERTEX
  8
Unknown_Area_Type
  10
357266.500
  20
4662564.000
  0
VERTEX
  8
Unknown_Area_Type
  10
357214.000
  20
4667111.500
  0
VERTEX
  8
Unknown_Area_Type
  10
357214.500
  20
4667124.500
  0
VERTEX
  8
Unknown_Area_Type
  10
357912.000
  20
4667370.500
  0
VERTEX
  8
Unknown_Area_Type
  10
358930.500
  20
4667117.000
  0
VERTEX
  8
Unknown_Area_Type
  10
358602.000
  20
4664587.000
  0
VERTEX
  8
Unknown_Area_Type
  10
358602.000
  20
4664584.000
  0
SEQEND
  8
Unknown_Area_Type
  0
INSERT
  8
FeatureAttribs
  2
FEATURE
  41
1
  42
1
  43
1
  50
0
  10
357948.415
  20
4665093.038
 66
1
  0
ATTRIB
  8
FeatureAttribs
 70
0
  1
PNOA-H_AMS_1956-57_33k_ES_PAN_2
  2
NAME
  10
357948.415
  20
4665093.038
 40
33.81366
  0
SEQEND
  0
POLYLINE
  8
Unknown_Area_Type
  70
1
  66
1
  0
VERTEX
  8
Unknown_Area_Type
  10
358602.000
  20
4664584.000
  0
VERTEX
  8
Unknown_Area_Type
  10
358602.000
  20
4664587.000
  0
VERTEX
  8
Unknown_Area_Type
  10
358930.500
  20
4667117.000
  0
VERTEX
  8
Unknown_Area_Type
  10
357912.000
  20
4667370.500
  0
VERTEX
  8
Unknown_Area_Type
  10
357214.500
  20
4667124.500
  0
VERTEX
  8
Unknown_Area_Type
  10
357214.000
  20
4667111.500
  0
VERTEX
  8
Unknown_Area_Type
  10
357266.500
  20
4662564.000
  0
VERTEX
  8
Unknown_Area_Type
  10
357362.000
  20
4662513.000
  0
VERTEX
  8
Unknown_Area_Type
  10
357367.000
  20
4662510.500
  0
VERTEX
  8
Unknown_Area_Type
  10
357370.500
  20
4662510.500
  0
VERTEX
  8
Unknown_Area_Type
  10
358350.500
  20
4662648.000
  0
VERTEX
  8
Unknown_Area_Type
  10
358602.000
  20
4664584.000
  0
SEQEND
  8
Unknown_Area_Type
  0
ENDSEC
  0
EOF
