  0
SECTION
  2
HEADER
  9
$ACADVER
  1
AC1009
  9
$LUNITS
  70
2
  9
$LIMMIN
  10
318831.743
  20
4651439.109
  9
$LIMMAX
  10
346841.020
  20
4670597.446
  9
$EXTMIN
  10
318831.743
  20
4651439.109
  9
$EXTMAX
  10
346841.020
  20
4670597.446
  999
Created by Global Mapper
  999
Projection: UTM
  999
Datum: ETRS89
  999
Ground Units: meters
  999
ZONE: 30
  0
ENDSEC
  0
SECTION
  2
TABLES
  0
ENDSEC
  0
SECTION
  2
BLOCKS
  0
BLOCK
  8
FeatureAttribs
  70
0
  2
FEATURE
  3
FEATURE
  10
0.00000000
  20
0.00000000
  0
ATTDEF
  8
FeatureAttribs
  70
0
  1
 
  2
NAME
  3
NAME
  10
0.00000000
  20
0.00000000
  40
1.00000000
  0
ENDBLK
  0
ENDSEC
  0
SECTION
  2
ENTITIES
  0
INSERT
  8
FeatureAttribs
  2
FEATURE
  41
1
  42
1
  43
1
  50
0
  10
318842.879
  20
4652961.031
 66
1
  0
ATTRIB
  8
FeatureAttribs
 70
0
  1
PNOA-H_AMS_1956-57_33k_ES_PAN_2
  2
NAME
  10
318842.879
  20
4652961.031
 40
33.93466
  0
SEQEND
  0
POLYLINE
  8
Unknown_Area_Type
  70
1
  66
1
  0
VERTEX
  8
Unknown_Area_Type
  10
318875.951
  20
4653819.116
  0
VERTEX
  8
Unknown_Area_Type
  10
318831.771
  20
4652090.954
  0
VERTEX
  8
Unknown_Area_Type
  10
318831.743
  20
4652090.955
  0
VERTEX
  8
Unknown_Area_Type
  10
318831.743
  20
4653831.108
  0
VERTEX
  8
Unknown_Area_Type
  10
318875.951
  20
4653819.116
  0
SEQEND
  8
Unknown_Area_Type
  0
INSERT
  8
FeatureAttribs
  2
FEATURE
  41
1
  42
1
  43
1
  50
0
  10
318831.757
  20
4652090.680
 66
1
  0
ATTRIB
  8
FeatureAttribs
 70
0
  1
PNOA-H_AMS_1956-57_33k_ES_PAN_2
  2
NAME
  10
318831.757
  20
4652090.680
 40
33.93466
  0
SEQEND
  0
POLYLINE
  8
Unknown_Area_Type
  70
1
  66
1
  0
VERTEX
  8
Unknown_Area_Type
  10
318831.743
  20
4652090.955
  0
VERTEX
  8
Unknown_Area_Type
  10
318831.771
  20
4652090.954
  0
VERTEX
  8
Unknown_Area_Type
  10
318831.743
  20
4652089.858
  0
VERTEX
  8
Unknown_Area_Type
  10
318831.743
  20
4652090.955
  0
SEQEND
  8
Unknown_Area_Type
  0
INSERT
  8
FeatureAttribs
  2
FEATURE
  41
1
  42
1
  43
1
  50
0
  10
318916.280
  20
4651765.031
 66
1
  0
ATTRIB
  8
FeatureAttribs
 70
0
  1
PNOA-H_AMS_1956-57_33k_ES_PAN_2
  2
NAME
  10
318916.280
  20
4651765.031
 40
33.93466
  0
SEQEND
  0
POLYLINE
  8
Unknown_Area_Type
  70
1
  66
1
  0
VERTEX
  8
Unknown_Area_Type
  10
318986.833
  20
4651439.109
  0
VERTEX
  8
Unknown_Area_Type
  10
318831.743
  20
4651439.109
  0
VERTEX
  8
Unknown_Area_Type
  10
318831.743
  20
4652089.858
  0
VERTEX
  8
Unknown_Area_Type
  10
318831.771
  20
4652090.954
  0
VERTEX
  8
Unknown_Area_Type
  10
319014.603
  20
4652086.325
  0
VERTEX
  8
Unknown_Area_Type
  10
318986.833
  20
4651439.109
  0
SEQEND
  8
Unknown_Area_Type
  0
INSERT
  8
FeatureAttribs
  2
FEATURE
  41
1
  42
1
  43
1
  50
0
  10
318952.467
  20
4652960.835
 66
1
  0
ATTRIB
  8
FeatureAttribs
 70
0
  1
PNOA-H_AMS_1956-57_33k_ES_PAN_2
  2
NAME
  10
318952.467
  20
4652960.835
 40
33.93466
  0
SEQEND
  0
POLYLINE
  8
Unknown_Area_Type
  70
1
  66
1
  0
VERTEX
  8
Unknown_Area_Type
  10
319014.603
  20
4652086.325
  0
VERTEX
  8
Unknown_Area_Type
  10
318831.771
  20
4652090.954
  0
VERTEX
  8
Unknown_Area_Type
  10
318875.951
  20
4653819.116
  0
VERTEX
  8
Unknown_Area_Type
  10
319086.500
  20
4653762.000
  0
VERTEX
  8
Unknown_Area_Type
  10
319014.603
  20
4652086.325
  0
SEQEND
  8
Unknown_Area_Type
  0
INSERT
  8
FeatureAttribs
  2
FEATURE
  41
1
  42
1
  43
1
  50
0
  10
318952.467
  20
4652960.835
 66
1
  0
ATTRIB
  8
FeatureAttribs
 70
0
  1
PNOA-H_AMS_1956-57_33k_ES_PAN_2
  2
NAME
  10
318952.467
  20
4652960.835
 40
33.93466
  0
SEQEND
  0
POLYLINE
  8
Unknown_Area_Type
  70
1
  66
1
  0
VERTEX
  8
Unknown_Area_Type
  10
319014.603
  20
4652086.325
  0
VERTEX
  8
Unknown_Area_Type
  10
319086.500
  20
4653762.000
  0
VERTEX
  8
Unknown_Area_Type
  10
318875.951
  20
4653819.116
  0
VERTEX
  8
Unknown_Area_Type
  10
318831.771
  20
4652090.954
  0
VERTEX
  8
Unknown_Area_Type
  10
319014.603
  20
4652086.325
  0
SEQEND
  8
Unknown_Area_Type
  0
INSERT
  8
FeatureAttribs
  2
FEATURE
  41
1
  42
1
  43
1
  50
0
  10
341693.731
  20
4651508.444
 66
1
  0
ATTRIB
  8
FeatureAttribs
 70
0
  1
PNOA-H_AMS_1956-57_33k_ES_PAN_2
  2
NAME
  10
341693.731
  20
4651508.444
 40
33.93466
  0
SEQEND
  0
POLYLINE
  8
Unknown_Area_Type
  70
1
  66
1
  0
VERTEX
  8
Unknown_Area_Type
  10
343215.380
  20
4651509.752
  0
VERTEX
  8
Unknown_Area_Type
  10
343214.821
  20
4651439.109
  0
VERTEX
  8
Unknown_Area_Type
  10
340171.744
  20
4651439.109
  0
VERTEX
  8
Unknown_Area_Type
  10
340172.441
  20
4651577.780
  0
VERTEX
  8
Unknown_Area_Type
  10
342988.544
  20
4651514.721
  0
VERTEX
  8
Unknown_Area_Type
  10
343215.380
  20
4651509.752
  0
SEQEND
  8
Unknown_Area_Type
  0
INSERT
  8
FeatureAttribs
  2
FEATURE
  41
1
  42
1
  43
1
  50
0
  10
341717.493
  20
4652481.414
 66
1
  0
ATTRIB
  8
FeatureAttribs
 70
0
  1
PNOA-H_AMS_1956-57_33k_ES_PAN_2
  2
NAME
  10
341717.493
  20
4652481.414
 40
33.93466
  0
SEQEND
  0
POLYLINE
  8
Unknown_Area_Type
  70
1
  66
1
  0
VERTEX
  8
Unknown_Area_Type
  10
343215.380
  20
4651509.752
  0
VERTEX
  8
Unknown_Area_Type
  10
342988.544
  20
4651514.721
  0
VERTEX
  8
Unknown_Area_Type
  10
340172.441
  20
4651577.780
  0
VERTEX
  8
Unknown_Area_Type
  10
340181.000
  20
4653281.500
  0
VERTEX
  8
Unknown_Area_Type
  10
340798.500
  20
4653389.500
  0
VERTEX
  8
Unknown_Area_Type
  10
342618.500
  20
4653535.000
  0
VERTEX
  8
Unknown_Area_Type
  10
342625.000
  20
4653535.500
  0
VERTEX
  8
Unknown_Area_Type
  10
342629.000
  20
4653535.500
  0
VERTEX
  8
Unknown_Area_Type
  10
342631.500
  20
4653534.000
  0
VERTEX
  8
Unknown_Area_Type
  10
343228.500
  20
4653168.500
  0
VERTEX
  8
Unknown_Area_Type
  10
343215.380
  20
4651509.752
  0
SEQEND
  8
Unknown_Area_Type
  0
INSERT
  8
FeatureAttribs
  2
FEATURE
  41
1
  42
1
  43
1
  50
0
  10
341717.493
  20
4652481.414
 66
1
  0
ATTRIB
  8
FeatureAttribs
 70
0
  1
PNOA-H_AMS_1956-57_33k_ES_PAN_2
  2
NAME
  10
341717.493
  20
4652481.414
 40
33.93466
  0
SEQEND
  0
POLYLINE
  8
Unknown_Area_Type
  70
1
  66
1
  0
VERTEX
  8
Unknown_Area_Type
  10
343215.380
  20
4651509.752
  0
VERTEX
  8
Unknown_Area_Type
  10
343228.500
  20
4653168.500
  0
VERTEX
  8
Unknown_Area_Type
  10
342631.500
  20
4653534.000
  0
VERTEX
  8
Unknown_Area_Type
  10
342629.000
  20
4653535.500
  0
VERTEX
  8
Unknown_Area_Type
  10
342625.000
  20
4653535.500
  0
VERTEX
  8
Unknown_Area_Type
  10
342618.500
  20
4653535.000
  0
VERTEX
  8
Unknown_Area_Type
  10
340798.500
  20
4653389.500
  0
VERTEX
  8
Unknown_Area_Type
  10
340181.000
  20
4653281.500
  0
VERTEX
  8
Unknown_Area_Type
  10
340172.441
  20
4651577.780
  0
VERTEX
  8
Unknown_Area_Type
  10
342988.544
  20
4651514.721
  0
VERTEX
  8
Unknown_Area_Type
  10
343215.380
  20
4651509.752
  0
SEQEND
  8
Unknown_Area_Type
  0
INSERT
  8
FeatureAttribs
  2
FEATURE
  41
1
  42
1
  43
1
  50
0
  10
335594.253
  20
4651578.336
 66
1
  0
ATTRIB
  8
FeatureAttribs
 70
0
  1
PNOA-H_AMS_1956-57_33k_ES_PAN_2
  2
NAME
  10
335594.253
  20
4651578.336
 40
33.93466
  0
SEQEND
  0
POLYLINE
  8
Unknown_Area_Type
  70
1
  66
1
  0
VERTEX
  8
Unknown_Area_Type
  10
337097.618
  20
4651439.109
  0
VERTEX
  8
Unknown_Area_Type
  10
334086.517
  20
4651439.109
  0
VERTEX
  8
Unknown_Area_Type
  10
334091.863
  20
4651717.563
  0
VERTEX
  8
Unknown_Area_Type
  10
336086.656
  20
4651670.951
  0
VERTEX
  8
Unknown_Area_Type
  10
337100.164
  20
4651647.763
  0
VERTEX
  8
Unknown_Area_Type
  10
337097.618
  20
4651439.109
  0
SEQEND
  8
Unknown_Area_Type
  0
INSERT
  8
FeatureAttribs
  2
FEATURE
  41
1
  42
1
  43
1
  50
0
  10
335634.203
  20
4652644.096
 66
1
  0
ATTRIB
  8
FeatureAttribs
 70
0
  1
PNOA-H_AMS_1956-57_33k_ES_PAN_2
  2
NAME
  10
335634.203
  20
4652644.096
 40
33.93466
  0
SEQEND
  0
POLYLINE
  8
Unknown_Area_Type
  70
1
  66
1
  0
VERTEX
  8
Unknown_Area_Type
  10
337100.164
  20
4651647.763
  0
VERTEX
  8
Unknown_Area_Type
  10
336086.656
  20
4651670.951
  0
VERTEX
  8
Unknown_Area_Type
  10
334091.863
  20
4651717.563
  0
VERTEX
  8
Unknown_Area_Type
  10
334126.500
  20
4653521.500
  0
VERTEX
  8
Unknown_Area_Type
  10
336760.000
  20
4653699.000
  0
VERTEX
  8
Unknown_Area_Type
  10
336767.500
  20
4653699.500
  0
VERTEX
  8
Unknown_Area_Type
  10
336773.000
  20
4653699.000
  0
VERTEX
  8
Unknown_Area_Type
  10
337122.000
  20
4653437.000
  0
VERTEX
  8
Unknown_Area_Type
  10
337100.164
  20
4651647.763
  0
SEQEND
  8
Unknown_Area_Type
  0
INSERT
  8
FeatureAttribs
  2
FEATURE
  41
1
  42
1
  43
1
  50
0
  10
335634.203
  20
4652644.096
 66
1
  0
ATTRIB
  8
FeatureAttribs
 70
0
  1
PNOA-H_AMS_1956-57_33k_ES_PAN_2
  2
NAME
  10
335634.203
  20
4652644.096
 40
33.93466
  0
SEQEND
  0
POLYLINE
  8
Unknown_Area_Type
  70
1
  66
1
  0
VERTEX
  8
Unknown_Area_Type
  10
337100.164
  20
4651647.763
  0
VERTEX
  8
Unknown_Area_Type
  10
337122.000
  20
4653437.000
  0
VERTEX
  8
Unknown_Area_Type
  10
336773.000
  20
4653699.000
  0
VERTEX
  8
Unknown_Area_Type
  10
336767.500
  20
4653699.500
  0
VERTEX
  8
Unknown_Area_Type
  10
336760.000
  20
4653699.000
  0
VERTEX
  8
Unknown_Area_Type
  10
334126.500
  20
4653521.500
  0
VERTEX
  8
Unknown_Area_Type
  10
334091.863
  20
4651717.563
  0
VERTEX
  8
Unknown_Area_Type
  10
336086.656
  20
4651670.951
  0
VERTEX
  8
Unknown_Area_Type
  10
337100.164
  20
4651647.763
  0
SEQEND
  8
Unknown_Area_Type
  0
INSERT
  8
FeatureAttribs
  2
FEATURE
  41
1
  42
1
  43
1
  50
0
  10
329531.879
  20
4651650.494
 66
1
  0
ATTRIB
  8
FeatureAttribs
 70
0
  1
PNOA-H_AMS_1956-57_33k_ES_PAN_2
  2
NAME
  10
329531.879
  20
4651650.494
 40
33.93466
  0
SEQEND
  0
POLYLINE
  8
Unknown_Area_Type
  70
1
  66
1
  0
VERTEX
  8
Unknown_Area_Type
  10
331029.232
  20
4651439.109
  0
VERTEX
  8
Unknown_Area_Type
  10
328022.890
  20
4651439.109
  0
VERTEX
  8
Unknown_Area_Type
  10
328035.540
  20
4651861.880
  0
VERTEX
  8
Unknown_Area_Type
  10
329184.731
  20
4651833.907
  0
VERTEX
  8
Unknown_Area_Type
  10
331038.040
  20
4651789.699
  0
VERTEX
  8
Unknown_Area_Type
  10
331029.232
  20
4651439.109
  0
SEQEND
  8
Unknown_Area_Type
  0
INSERT
  8
FeatureAttribs
  2
FEATURE
  41
1
  42
1
  43
1
  50
0
  10
329543.705
  20
4652789.031
 66
1
  0
ATTRIB
  8
FeatureAttribs
 70
0
  1
PNOA-H_AMS_1956-57_33k_ES_PAN_2
  2
NAME
  10
329543.705
  20
4652789.031
 40
33.93466
  0
SEQEND
  0
POLYLINE
  8
Unknown_Area_Type
  70
1
  66
1
  0
VERTEX
  8
Unknown_Area_Type
  10
331038.040
  20
4651789.699
  0
VERTEX
  8
Unknown_Area_Type
  10
329184.731
  20
4651833.907
  0
VERTEX
  8
Unknown_Area_Type
  10
328035.540
  20
4651861.880
  0
VERTEX
  8
Unknown_Area_Type
  10
328090.000
  20
4653682.000
  0
VERTEX
  8
Unknown_Area_Type
  10
328398.000
  20
4653876.500
  0
VERTEX
  8
Unknown_Area_Type
  10
329360.000
  20
4653784.000
  0
VERTEX
  8
Unknown_Area_Type
  10
329362.000
  20
4653784.000
  0
VERTEX
  8
Unknown_Area_Type
  10
331084.000
  20
4653619.000
  0
VERTEX
  8
Unknown_Area_Type
  10
331038.040
  20
4651789.699
  0
SEQEND
  8
Unknown_Area_Type
  0
INSERT
  8
FeatureAttribs
  2
FEATURE
  41
1
  42
1
  43
1
  50
0
  10
329543.705
  20
4652789.031
 66
1
  0
ATTRIB
  8
FeatureAttribs
 70
0
  1
PNOA-H_AMS_1956-57_33k_ES_PAN_2
  2
NAME
  10
329543.705
  20
4652789.031
 40
33.93466
  0
SEQEND
  0
POLYLINE
  8
Unknown_Area_Type
  70
1
  66
1
  0
VERTEX
  8
Unknown_Area_Type
  10
331038.040
  20
4651789.699
  0
VERTEX
  8
Unknown_Area_Type
  10
331084.000
  20
4653619.000
  0
VERTEX
  8
Unknown_Area_Type
  10
329362.000
  20
4653784.000
  0
VERTEX
  8
Unknown_Area_Type
  10
329360.000
  20
4653784.000
  0
VERTEX
  8
Unknown_Area_Type
  10
328398.000
  20
4653876.500
  0
VERTEX
  8
Unknown_Area_Type
  10
328090.000
  20
4653682.000
  0
VERTEX
  8
Unknown_Area_Type
  10
328035.540
  20
4651861.880
  0
VERTEX
  8
Unknown_Area_Type
  10
329184.731
  20
4651833.907
  0
VERTEX
  8
Unknown_Area_Type
  10
331038.040
  20
4651789.699
  0
SEQEND
  8
Unknown_Area_Type
  0
INSERT
  8
FeatureAttribs
  2
FEATURE
  41
1
  42
1
  43
1
  50
0
  10
344021.484
  20
4651474.430
 66
1
  0
ATTRIB
  8
FeatureAttribs
 70
0
  1
PNOA-H_AMS_1956-57_33k_ES_PAN_2
  2
NAME
  10
344021.484
  20
4651474.430
 40
33.93466
  0
SEQEND
  0
POLYLINE
  8
Unknown_Area_Type
  70
1
  66
1
  0
VERTEX
  8
Unknown_Area_Type
  10
346157.870
  20
4651445.297
  0
VERTEX
  8
Unknown_Area_Type
  10
346157.790
  20
4651439.109
  0
VERTEX
  8
Unknown_Area_Type
  10
343214.823
  20
4651439.109
  0
VERTEX
  8
Unknown_Area_Type
  10
343215.382
  20
4651509.752
  0
VERTEX
  8
Unknown_Area_Type
  10
346157.870
  20
4651445.297
  0
SEQEND
  8
Unknown_Area_Type
  0
INSERT
  8
FeatureAttribs
  2
FEATURE
  41
1
  42
1
  43
1
  50
0
  10
344721.850
  20
4652436.259
 66
1
  0
ATTRIB
  8
FeatureAttribs
 70
0
  1
PNOA-H_AMS_1956-57_33k_ES_PAN_2
  2
NAME
  10
344721.850
  20
4652436.259
 40
33.93466
  0
SEQEND
  0
POLYLINE
  8
Unknown_Area_Type
  70
1
  66
1
  0
VERTEX
  8
Unknown_Area_Type
  10
346157.870
  20
4651445.297
  0
VERTEX
  8
Unknown_Area_Type
  10
343215.382
  20
4651509.752
  0
VERTEX
  8
Unknown_Area_Type
  10
343228.500
  20
4653168.500
  0
VERTEX
  8
Unknown_Area_Type
  10
343695.000
  20
4653271.000
  0
VERTEX
  8
Unknown_Area_Type
  10
343697.500
  20
4653271.500
  0
VERTEX
  8
Unknown_Area_Type
  10
345020.000
  20
4653562.000
  0
VERTEX
  8
Unknown_Area_Type
  10
345331.500
  20
4653603.500
  0
VERTEX
  8
Unknown_Area_Type
  10
346179.500
  20
4653101.000
  0
VERTEX
  8
Unknown_Area_Type
  10
346157.870
  20
4651445.297
  0
SEQEND
  8
Unknown_Area_Type
  0
INSERT
  8
FeatureAttribs
  2
FEATURE
  41
1
  42
1
  43
1
  50
0
  10
344721.850
  20
4652436.259
 66
1
  0
ATTRIB
  8
FeatureAttribs
 70
0
  1
PNOA-H_AMS_1956-57_33k_ES_PAN_2
  2
NAME
  10
344721.850
  20
4652436.259
 40
33.93466
  0
SEQEND
  0
POLYLINE
  8
Unknown_Area_Type
  70
1
  66
1
  0
VERTEX
  8
Unknown_Area_Type
  10
346157.870
  20
4651445.297
  0
VERTEX
  8
Unknown_Area_Type
  10
346179.500
  20
4653101.000
  0
VERTEX
  8
Unknown_Area_Type
  10
345331.500
  20
4653603.500
  0
VERTEX
  8
Unknown_Area_Type
  10
345020.000
  20
4653562.000
  0
VERTEX
  8
Unknown_Area_Type
  10
343697.500
  20
4653271.500
  0
VERTEX
  8
Unknown_Area_Type
  10
343695.000
  20
4653271.000
  0
VERTEX
  8
Unknown_Area_Type
  10
343228.500
  20
4653168.500
  0
VERTEX
  8
Unknown_Area_Type
  10
343215.382
  20
4651509.752
  0
VERTEX
  8
Unknown_Area_Type
  10
346157.870
  20
4651445.297
  0
SEQEND
  8
Unknown_Area_Type
  0
INSERT
  8
FeatureAttribs
  2
FEATURE
  41
1
  42
1
  43
1
  50
0
  10
338635.434
  20
4651543.441
 66
1
  0
ATTRIB
  8
FeatureAttribs
 70
0
  1
PNOA-H_AMS_1956-57_33k_ES_PAN_2
  2
NAME
  10
338635.434
  20
4651543.441
 40
33.93466
  0
SEQEND
  0
POLYLINE
  8
Unknown_Area_Type
  70
1
  66
1
  0
VERTEX
  8
Unknown_Area_Type
  10
340171.895
  20
4651439.109
  0
VERTEX
  8
Unknown_Area_Type
  10
337097.187
  20
4651439.109
  0
VERTEX
  8
Unknown_Area_Type
  10
337099.728
  20
4651647.773
  0
VERTEX
  8
Unknown_Area_Type
  10
339537.604
  20
4651591.995
  0
VERTEX
  8
Unknown_Area_Type
  10
340172.581
  20
4651577.777
  0
VERTEX
  8
Unknown_Area_Type
  10
340171.895
  20
4651439.109
  0
SEQEND
  8
Unknown_Area_Type
  0
INSERT
  8
FeatureAttribs
  2
FEATURE
  41
1
  42
1
  43
1
  50
0
  10
338660.192
  20
4652560.516
 66
1
  0
ATTRIB
  8
FeatureAttribs
 70
0
  1
PNOA-H_AMS_1956-57_33k_ES_PAN_2
  2
NAME
  10
338660.192
  20
4652560.516
 40
33.93466
  0
SEQEND
  0
POLYLINE
  8
Unknown_Area_Type
  70
1
  66
1
  0
VERTEX
  8
Unknown_Area_Type
  10
340172.581
  20
4651577.777
  0
VERTEX
  8
Unknown_Area_Type
  10
339537.604
  20
4651591.995
  0
VERTEX
  8
Unknown_Area_Type
  10
337099.728
  20
4651647.773
  0
VERTEX
  8
Unknown_Area_Type
  10
337121.500
  20
4653435.000
  0
VERTEX
  8
Unknown_Area_Type
  10
337122.000
  20
4653437.000
  0
VERTEX
  8
Unknown_Area_Type
  10
337123.500
  20
4653437.500
  0
VERTEX
  8
Unknown_Area_Type
  10
337545.500
  20
4653464.500
  0
VERTEX
  8
Unknown_Area_Type
  10
337553.500
  20
4653465.000
  0
VERTEX
  8
Unknown_Area_Type
  10
339708.000
  20
4653602.500
  0
VERTEX
  8
Unknown_Area_Type
  10
340181.000
  20
4653281.500
  0
VERTEX
  8
Unknown_Area_Type
  10
340172.581
  20
4651577.777
  0
SEQEND
  8
Unknown_Area_Type
  0
INSERT
  8
FeatureAttribs
  2
FEATURE
  41
1
  42
1
  43
1
  50
0
  10
338660.192
  20
4652560.516
 66
1
  0
ATTRIB
  8
FeatureAttribs
 70
0
  1
PNOA-H_AMS_1956-57_33k_ES_PAN_2
  2
NAME
  10
338660.192
  20
4652560.516
 40
33.93466
  0
SEQEND
  0
POLYLINE
  8
Unknown_Area_Type
  70
1
  66
1
  0
VERTEX
  8
Unknown_Area_Type
  10
340172.581
  20
4651577.777
  0
VERTEX
  8
Unknown_Area_Type
  10
340181.000
  20
4653281.500
  0
VERTEX
  8
Unknown_Area_Type
  10
339708.000
  20
4653602.500
  0
VERTEX
  8
Unknown_Area_Type
  10
337553.500
  20
4653465.000
  0
VERTEX
  8
Unknown_Area_Type
  10
337545.500
  20
4653464.500
  0
VERTEX
  8
Unknown_Area_Type
  10
337123.500
  20
4653437.500
  0
VERTEX
  8
Unknown_Area_Type
  10
337122.000
  20
4653437.000
  0
VERTEX
  8
Unknown_Area_Type
  10
337121.500
  20
4653435.000
  0
VERTEX
  8
Unknown_Area_Type
  10
337099.728
  20
4651647.773
  0
VERTEX
  8
Unknown_Area_Type
  10
339537.604
  20
4651591.995
  0
VERTEX
  8
Unknown_Area_Type
  10
340172.581
  20
4651577.777
  0
SEQEND
  8
Unknown_Area_Type
  0
INSERT
  8
FeatureAttribs
  2
FEATURE
  41
1
  42
1
  43
1
  50
0
  10
323547.784
  20
4651724.311
 66
1
  0
ATTRIB
  8
FeatureAttribs
 70
0
  1
PNOA-H_AMS_1956-57_33k_ES_PAN_2
  2
NAME
  10
323547.784
  20
4651724.311
 40
33.93466
  0
SEQEND
  0
POLYLINE
  8
Unknown_Area_Type
  70
1
  66
1
  0
VERTEX
  8
Unknown_Area_Type
  10
325049.172
  20
4651439.109
  0
VERTEX
  8
Unknown_Area_Type
  10
322023.948
  20
4651439.109
  0
VERTEX
  8
Unknown_Area_Type
  10
322048.805
  20
4652009.513
  0
VERTEX
  8
Unknown_Area_Type
  10
322282.768
  20
4652003.590
  0
VERTEX
  8
Unknown_Area_Type
  10
325066.574
  20
4651934.473
  0
VERTEX
  8
Unknown_Area_Type
  10
325049.172
  20
4651439.109
  0
SEQEND
  8
Unknown_Area_Type
  0
INSERT
  8
FeatureAttribs
  2
FEATURE
  41
1
  42
1
  43
1
  50
0
  10
323576.323
  20
4652952.020
 66
1
  0
ATTRIB
  8
FeatureAttribs
 70
0
  1
PNOA-H_AMS_1956-57_33k_ES_PAN_2
  2
NAME
  10
323576.323
  20
4652952.020
 40
33.93466
  0
SEQEND
  0
POLYLINE
  8
Unknown_Area_Type
  70
1
  66
1
  0
VERTEX
  8
Unknown_Area_Type
  10
325066.574
  20
4651934.473
  0
VERTEX
  8
Unknown_Area_Type
  10
322282.768
  20
4652003.590
  0
VERTEX
  8
Unknown_Area_Type
  10
322048.805
  20
4652009.513
  0
VERTEX
  8
Unknown_Area_Type
  10
322124.500
  20
4653746.500
  0
VERTEX
  8
Unknown_Area_Type
  10
322126.000
  20
4653748.500
  0
VERTEX
  8
Unknown_Area_Type
  10
322145.000
  20
4653760.000
  0
VERTEX
  8
Unknown_Area_Type
  10
322734.000
  20
4654115.000
  0
VERTEX
  8
Unknown_Area_Type
  10
323214.500
  20
4654039.500
  0
VERTEX
  8
Unknown_Area_Type
  10
323218.000
  20
4654039.000
  0
VERTEX
  8
Unknown_Area_Type
  10
325130.000
  20
4653740.000
  0
VERTEX
  8
Unknown_Area_Type
  10
325066.574
  20
4651934.473
  0
SEQEND
  8
Unknown_Area_Type
  0
INSERT
  8
FeatureAttribs
  2
FEATURE
  41
1
  42
1
  43
1
  50
0
  10
323576.323
  20
4652952.020
 66
1
  0
ATTRIB
  8
FeatureAttribs
 70
0
  1
PNOA-H_AMS_1956-57_33k_ES_PAN_2
  2
NAME
  10
323576.323
  20
4652952.020
 40
33.93466
  0
SEQEND
  0
POLYLINE
  8
Unknown_Area_Type
  70
1
  66
1
  0
VERTEX
  8
Unknown_Area_Type
  10
325066.574
  20
4651934.473
  0
VERTEX
  8
Unknown_Area_Type
  10
325130.000
  20
4653740.000
  0
VERTEX
  8
Unknown_Area_Type
  10
323218.000
  20
4654039.000
  0
VERTEX
  8
Unknown_Area_Type
  10
323214.500
  20
4654039.500
  0
VERTEX
  8
Unknown_Area_Type
  10
322734.000
  20
4654115.000
  0
VERTEX
  8
Unknown_Area_Type
  10
322145.000
  20
4653760.000
  0
VERTEX
  8
Unknown_Area_Type
  10
322126.000
  20
4653748.500
  0
VERTEX
  8
Unknown_Area_Type
  10
322124.500
  20
4653746.500
  0
VERTEX
  8
Unknown_Area_Type
  10
322048.805
  20
4652009.513
  0
VERTEX
  8
Unknown_Area_Type
  10
322282.768
  20
4652003.590
  0
VERTEX
  8
Unknown_Area_Type
  10
325066.574
  20
4651934.473
  0
SEQEND
  8
Unknown_Area_Type
  0
INSERT
  8
FeatureAttribs
  2
FEATURE
  41
1
  42
1
  43
1
  50
0
  10
332561.672
  20
4651614.406
 66
1
  0
ATTRIB
  8
FeatureAttribs
 70
0
  1
PNOA-H_AMS_1956-57_33k_ES_PAN_2
  2
NAME
  10
332561.672
  20
4651614.406
 40
33.93466
  0
SEQEND
  0
POLYLINE
  8
Unknown_Area_Type
  70
1
  66
1
  0
VERTEX
  8
Unknown_Area_Type
  10
334086.517
  20
4651439.109
  0
VERTEX
  8
Unknown_Area_Type
  10
331029.073
  20
4651439.109
  0
VERTEX
  8
Unknown_Area_Type
  10
331037.851
  20
4651789.703
  0
VERTEX
  8
Unknown_Area_Type
  10
332635.698
  20
4651751.588
  0
VERTEX
  8
Unknown_Area_Type
  10
334091.863
  20
4651717.563
  0
VERTEX
  8
Unknown_Area_Type
  10
334086.517
  20
4651439.109
  0
SEQEND
  8
Unknown_Area_Type
  0
INSERT
  8
FeatureAttribs
  2
FEATURE
  41
1
  42
1
  43
1
  50
0
  10
332591.596
  20
4652716.399
 66
1
  0
ATTRIB
  8
FeatureAttribs
 70
0
  1
PNOA-H_AMS_1956-57_33k_ES_PAN_2
  2
NAME
  10
332591.596
  20
4652716.399
 40
33.93466
  0
SEQEND
  0
POLYLINE
  8
Unknown_Area_Type
  70
1
  66
1
  0
VERTEX
  8
Unknown_Area_Type
  10
334091.863
  20
4651717.563
  0
VERTEX
  8
Unknown_Area_Type
  10
332635.698
  20
4651751.588
  0
VERTEX
  8
Unknown_Area_Type
  10
331037.851
  20
4651789.703
  0
VERTEX
  8
Unknown_Area_Type
  10
331083.500
  20
4653613.000
  0
VERTEX
  8
Unknown_Area_Type
  10
331084.000
  20
4653619.000
  0
VERTEX
  8
Unknown_Area_Type
  10
331085.500
  20
4653620.500
  0
VERTEX
  8
Unknown_Area_Type
  10
331182.500
  20
4653688.000
  0
VERTEX
  8
Unknown_Area_Type
  10
331183.500
  20
4653688.500
  0
VERTEX
  8
Unknown_Area_Type
  10
333901.500
  20
4653687.000
  0
VERTEX
  8
Unknown_Area_Type
  10
334126.500
  20
4653521.500
  0
VERTEX
  8
Unknown_Area_Type
  10
334091.863
  20
4651717.563
  0
SEQEND
  8
Unknown_Area_Type
  0
INSERT
  8
FeatureAttribs
  2
FEATURE
  41
1
  42
1
  43
1
  50
0
  10
332591.596
  20
4652716.399
 66
1
  0
ATTRIB
  8
FeatureAttribs
 70
0
  1
PNOA-H_AMS_1956-57_33k_ES_PAN_2
  2
NAME
  10
332591.596
  20
4652716.399
 40
33.93466
  0
SEQEND
  0
POLYLINE
  8
Unknown_Area_Type
  70
1
  66
1
  0
VERTEX
  8
Unknown_Area_Type
  10
334091.863
  20
4651717.563
  0
VERTEX
  8
Unknown_Area_Type
  10
334126.500
  20
4653521.500
  0
VERTEX
  8
Unknown_Area_Type
  10
333901.500
  20
4653687.000
  0
VERTEX
  8
Unknown_Area_Type
  10
331183.500
  20
4653688.500
  0
VERTEX
  8
Unknown_Area_Type
  10
331182.500
  20
4653688.000
  0
VERTEX
  8
Unknown_Area_Type
  10
331085.500
  20
4653620.500
  0
VERTEX
  8
Unknown_Area_Type
  10
331084.000
  20
4653619.000
  0
VERTEX
  8
Unknown_Area_Type
  10
331083.500
  20
4653613.000
  0
VERTEX
  8
Unknown_Area_Type
  10
331037.851
  20
4651789.703
  0
VERTEX
  8
Unknown_Area_Type
  10
332635.698
  20
4651751.588
  0
VERTEX
  8
Unknown_Area_Type
  10
334091.863
  20
4651717.563
  0
SEQEND
  8
Unknown_Area_Type
  0
INSERT
  8
FeatureAttribs
  2
FEATURE
  41
1
  42
1
  43
1
  50
0
  10
326544.087
  20
4651686.791
 66
1
  0
ATTRIB
  8
FeatureAttribs
 70
0
  1
PNOA-H_AMS_1956-57_33k_ES_PAN_2
  2
NAME
  10
326544.087
  20
4651686.791
 40
33.93466
  0
SEQEND
  0
POLYLINE
  8
Unknown_Area_Type
  70
1
  66
1
  0
VERTEX
  8
Unknown_Area_Type
  10
328022.890
  20
4651439.109
  0
VERTEX
  8
Unknown_Area_Type
  10
325049.172
  20
4651439.109
  0
VERTEX
  8
Unknown_Area_Type
  10
325066.574
  20
4651934.473
  0
VERTEX
  8
Unknown_Area_Type
  10
325733.754
  20
4651917.908
  0
VERTEX
  8
Unknown_Area_Type
  10
328035.540
  20
4651861.880
  0
VERTEX
  8
Unknown_Area_Type
  10
328022.890
  20
4651439.109
  0
SEQEND
  8
Unknown_Area_Type
  0
INSERT
  8
FeatureAttribs
  2
FEATURE
  41
1
  42
1
  43
1
  50
0
  10
326560.723
  20
4652869.121
 66
1
  0
ATTRIB
  8
FeatureAttribs
 70
0
  1
PNOA-H_AMS_1956-57_33k_ES_PAN_2
  2
NAME
  10
326560.723
  20
4652869.121
 40
33.93466
  0
SEQEND
  0
POLYLINE
  8
Unknown_Area_Type
  70
1
  66
1
  0
VERTEX
  8
Unknown_Area_Type
  10
328035.540
  20
4651861.880
  0
VERTEX
  8
Unknown_Area_Type
  10
325733.754
  20
4651917.908
  0
VERTEX
  8
Unknown_Area_Type
  10
325066.574
  20
4651934.473
  0
VERTEX
  8
Unknown_Area_Type
  10
325130.000
  20
4653740.000
  0
VERTEX
  8
Unknown_Area_Type
  10
325264.500
  20
4653822.500
  0
VERTEX
  8
Unknown_Area_Type
  10
325265.000
  20
4653823.500
  0
VERTEX
  8
Unknown_Area_Type
  10
325524.500
  20
4653984.000
  0
VERTEX
  8
Unknown_Area_Type
  10
325529.500
  20
4653985.500
  0
VERTEX
  8
Unknown_Area_Type
  10
328090.000
  20
4653682.000
  0
VERTEX
  8
Unknown_Area_Type
  10
328035.540
  20
4651861.880
  0
SEQEND
  8
Unknown_Area_Type
  0
INSERT
  8
FeatureAttribs
  2
FEATURE
  41
1
  42
1
  43
1
  50
0
  10
326560.723
  20
4652869.121
 66
1
  0
ATTRIB
  8
FeatureAttribs
 70
0
  1
PNOA-H_AMS_1956-57_33k_ES_PAN_2
  2
NAME
  10
326560.723
  20
4652869.121
 40
33.93466
  0
SEQEND
  0
POLYLINE
  8
Unknown_Area_Type
  70
1
  66
1
  0
VERTEX
  8
Unknown_Area_Type
  10
328035.540
  20
4651861.880
  0
VERTEX
  8
Unknown_Area_Type
  10
328090.000
  20
4653682.000
  0
VERTEX
  8
Unknown_Area_Type
  10
325529.500
  20
4653985.500
  0
VERTEX
  8
Unknown_Area_Type
  10
325524.500
  20
4653984.000
  0
VERTEX
  8
Unknown_Area_Type
  10
325265.000
  20
4653823.500
  0
VERTEX
  8
Unknown_Area_Type
  10
325264.500
  20
4653822.500
  0
VERTEX
  8
Unknown_Area_Type
  10
325130.000
  20
4653740.000
  0
VERTEX
  8
Unknown_Area_Type
  10
325066.574
  20
4651934.473
  0
VERTEX
  8
Unknown_Area_Type
  10
325733.754
  20
4651917.908
  0
VERTEX
  8
Unknown_Area_Type
  10
328035.540
  20
4651861.880
  0
SEQEND
  8
Unknown_Area_Type
  0
INSERT
  8
FeatureAttribs
  2
FEATURE
  41
1
  42
1
  43
1
  50
0
  10
320519.496
  20
4651762.717
 66
1
  0
ATTRIB
  8
FeatureAttribs
 70
0
  1
PNOA-H_AMS_1956-57_33k_ES_PAN_2
  2
NAME
  10
320519.496
  20
4651762.717
 40
33.93466
  0
SEQEND
  0
POLYLINE
  8
Unknown_Area_Type
  70
1
  66
1
  0
VERTEX
  8
Unknown_Area_Type
  10
322024.135
  20
4651439.109
  0
VERTEX
  8
Unknown_Area_Type
  10
318986.833
  20
4651439.109
  0
VERTEX
  8
Unknown_Area_Type
  10
319014.603
  20
4652086.325
  0
VERTEX
  8
Unknown_Area_Type
  10
322049.059
  20
4652009.506
  0
VERTEX
  8
Unknown_Area_Type
  10
322024.135
  20
4651439.109
  0
SEQEND
  8
Unknown_Area_Type
  0
INSERT
  8
FeatureAttribs
  2
FEATURE
  41
1
  42
1
  43
1
  50
0
  10
320552.453
  20
4653016.170
 66
1
  0
ATTRIB
  8
FeatureAttribs
 70
0
  1
PNOA-H_AMS_1956-57_33k_ES_PAN_2
  2
NAME
  10
320552.453
  20
4653016.170
 40
33.93466
  0
SEQEND
  0
POLYLINE
  8
Unknown_Area_Type
  70
1
  66
1
  0
VERTEX
  8
Unknown_Area_Type
  10
322049.059
  20
4652009.506
  0
VERTEX
  8
Unknown_Area_Type
  10
319014.603
  20
4652086.325
  0
VERTEX
  8
Unknown_Area_Type
  10
319086.500
  20
4653762.000
  0
VERTEX
  8
Unknown_Area_Type
  10
319120.500
  20
4653781.000
  0
VERTEX
  8
Unknown_Area_Type
  10
319121.000
  20
4653782.000
  0
VERTEX
  8
Unknown_Area_Type
  10
319853.000
  20
4654200.000
  0
VERTEX
  8
Unknown_Area_Type
  10
319856.000
  20
4654200.000
  0
VERTEX
  8
Unknown_Area_Type
  10
322125.000
  20
4653747.500
  0
VERTEX
  8
Unknown_Area_Type
  10
322049.059
  20
4652009.506
  0
SEQEND
  8
Unknown_Area_Type
  0
INSERT
  8
FeatureAttribs
  2
FEATURE
  41
1
  42
1
  43
1
  50
0
  10
320552.453
  20
4653016.170
 66
1
  0
ATTRIB
  8
FeatureAttribs
 70
0
  1
PNOA-H_AMS_1956-57_33k_ES_PAN_2
  2
NAME
  10
320552.453
  20
4653016.170
 40
33.93466
  0
SEQEND
  0
POLYLINE
  8
Unknown_Area_Type
  70
1
  66
1
  0
VERTEX
  8
Unknown_Area_Type
  10
322049.059
  20
4652009.506
  0
VERTEX
  8
Unknown_Area_Type
  10
322125.000
  20
4653747.500
  0
VERTEX
  8
Unknown_Area_Type
  10
319856.000
  20
4654200.000
  0
VERTEX
  8
Unknown_Area_Type
  10
319853.000
  20
4654200.000
  0
VERTEX
  8
Unknown_Area_Type
  10
319121.000
  20
4653782.000
  0
VERTEX
  8
Unknown_Area_Type
  10
319120.500
  20
4653781.000
  0
VERTEX
  8
Unknown_Area_Type
  10
319086.500
  20
4653762.000
  0
VERTEX
  8
Unknown_Area_Type
  10
319014.603
  20
4652086.325
  0
VERTEX
  8
Unknown_Area_Type
  10
322049.059
  20
4652009.506
  0
SEQEND
  8
Unknown_Area_Type
  0
INSERT
  8
FeatureAttribs
  2
FEATURE
  41
1
  42
1
  43
1
  50
0
  10
346313.704
  20
4652306.912
 66
1
  0
ATTRIB
  8
FeatureAttribs
 70
0
  1
PNOA-H_AMS_1956-57_33k_ES_PAN_2
  2
NAME
  10
346313.704
  20
4652306.912
 40
33.93466
  0
SEQEND
  0
POLYLINE
  8
Unknown_Area_Type
  70
1
  66
1
  0
VERTEX
  8
Unknown_Area_Type
  10
346477.077
  20
4653174.695
  0
VERTEX
  8
Unknown_Area_Type
  10
346439.474
  20
4651439.128
  0
VERTEX
  8
Unknown_Area_Type
  10
346157.874
  20
4651445.296
  0
VERTEX
  8
Unknown_Area_Type
  10
346179.500
  20
4653100.500
  0
VERTEX
  8
Unknown_Area_Type
  10
346477.077
  20
4653174.695
  0
SEQEND
  8
Unknown_Area_Type
  0
INSERT
  8
FeatureAttribs
  2
FEATURE
  41
1
  42
1
  43
1
  50
0
  10
346313.704
  20
4652306.912
 66
1
  0
ATTRIB
  8
FeatureAttribs
 70
0
  1
PNOA-H_AMS_1956-57_33k_ES_PAN_2
  2
NAME
  10
346313.704
  20
4652306.912
 40
33.93466
  0
SEQEND
  0
POLYLINE
  8
Unknown_Area_Type
  70
1
  66
1
  0
VERTEX
  8
Unknown_Area_Type
  10
346477.077
  20
4653174.695
  0
VERTEX
  8
Unknown_Area_Type
  10
346439.474
  20
4651439.128
  0
VERTEX
  8
Unknown_Area_Type
  10
346157.874
  20
4651445.296
  0
VERTEX
  8
Unknown_Area_Type
  10
346179.500
  20
4653100.500
  0
VERTEX
  8
Unknown_Area_Type
  10
346477.077
  20
4653174.695
  0
SEQEND
  8
Unknown_Area_Type
  0
INSERT
  8
FeatureAttribs
  2
FEATURE
  41
1
  42
1
  43
1
  50
0
  10
346228.473
  20
4651442.203
 66
1
  0
ATTRIB
  8
FeatureAttribs
 70
0
  1
PNOA-H_AMS_1956-57_33k_ES_PAN_2
  2
NAME
  10
346228.473
  20
4651442.203
 40
33.93466
  0
SEQEND
  0
POLYLINE
  8
Unknown_Area_Type
  70
1
  66
1
  0
VERTEX
  8
Unknown_Area_Type
  10
346157.874
  20
4651445.296
  0
VERTEX
  8
Unknown_Area_Type
  10
346439.474
  20
4651439.128
  0
VERTEX
  8
Unknown_Area_Type
  10
346439.474
  20
4651439.109
  0
VERTEX
  8
Unknown_Area_Type
  10
346157.793
  20
4651439.109
  0
VERTEX
  8
Unknown_Area_Type
  10
346157.874
  20
4651445.296
  0
SEQEND
  8
Unknown_Area_Type
  0
INSERT
  8
FeatureAttribs
  2
FEATURE
  41
1
  42
1
  43
1
  50
0
  10
346439.698
  20
4651439.118
 66
1
  0
ATTRIB
  8
FeatureAttribs
 70
0
  1
PNOA-H_AMS_1956-57_33k_ES_PAN_2
  2
NAME
  10
346439.698
  20
4651439.118
 40
33.93466
  0
SEQEND
  0
POLYLINE
  8
Unknown_Area_Type
  70
1
  66
1
  0
VERTEX
  8
Unknown_Area_Type
  10
346439.474
  20
4651439.128
  0
VERTEX
  8
Unknown_Area_Type
  10
346440.369
  20
4651439.109
  0
VERTEX
  8
Unknown_Area_Type
  10
346439.474
  20
4651439.109
  0
VERTEX
  8
Unknown_Area_Type
  10
346439.474
  20
4651439.128
  0
SEQEND
  8
Unknown_Area_Type
  0
INSERT
  8
FeatureAttribs
  2
FEATURE
  41
1
  42
1
  43
1
  50
0
  10
346650.139
  20
4652352.273
 66
1
  0
ATTRIB
  8
FeatureAttribs
 70
0
  1
PNOA-H_AMS_1956-57_33k_ES_PAN_2
  2
NAME
  10
346650.139
  20
4652352.273
 40
33.93466
  0
SEQEND
  0
POLYLINE
  8
Unknown_Area_Type
  70
1
  66
1
  0
VERTEX
  8
Unknown_Area_Type
  10
346841.020
  20
4653265.437
  0
VERTEX
  8
Unknown_Area_Type
  10
346841.020
  20
4651439.109
  0
VERTEX
  8
Unknown_Area_Type
  10
346440.369
  20
4651439.109
  0
VERTEX
  8
Unknown_Area_Type
  10
346439.474
  20
4651439.128
  0
VERTEX
  8
Unknown_Area_Type
  10
346477.077
  20
4653174.695
  0
VERTEX
  8
Unknown_Area_Type
  10
346841.020
  20
4653265.437
  0
SEQEND
  8
Unknown_Area_Type
  0
INSERT
  8
FeatureAttribs
  2
FEATURE
  41
1
  42
1
  43
1
  50
0
  10
319020.954
  20
4666876.332
 66
1
  0
ATTRIB
  8
FeatureAttribs
 70
0
  1
PNOA-H_AMS_1956-57_33k_ES_PAN_2
  2
NAME
  10
319020.954
  20
4666876.332
 40
33.93466
  0
SEQEND
  0
POLYLINE
  8
Unknown_Area_Type
  70
1
  66
1
  0
VERTEX
  8
Unknown_Area_Type
  10
319250.443
  20
4668447.983
  0
VERTEX
  8
Unknown_Area_Type
  10
319246.241
  20
4668284.092
  0
VERTEX
  8
Unknown_Area_Type
  10
319186.959
  20
4665970.765
  0
VERTEX
  8
Unknown_Area_Type
  10
319169.332
  20
4665282.664
  0
VERTEX
  8
Unknown_Area_Type
  10
318831.743
  20
4665777.789
  0
VERTEX
  8
Unknown_Area_Type
  10
318831.743
  20
4668367.029
  0
VERTEX
  8
Unknown_Area_Type
  10
319119.500
  20
4668463.000
  0
VERTEX
  8
Unknown_Area_Type
  10
319121.000
  20
4668463.500
  0
VERTEX
  8
Unknown_Area_Type
  10
319141.000
  20
4668470.000
  0
VERTEX
  8
Unknown_Area_Type
  10
319250.443
  20
4668447.983
  0
SEQEND
  8
Unknown_Area_Type
  0
INSERT
  8
FeatureAttribs
  2
FEATURE
  41
1
  42
1
  43
1
  50
0
  10
320004.439
  20
4666560.274
 66
1
  0
ATTRIB
  8
FeatureAttribs
 70
0
  1
PNOA-H_AMS_1956-57_33k_ES_PAN_2
  2
NAME
  10
320004.439
  20
4666560.274
 40
33.93466
  0
SEQEND
  0
POLYLINE
  8
Unknown_Area_Type
  70
1
  66
1
  0
VERTEX
  8
Unknown_Area_Type
  10
319250.443
  20
4668447.983
  0
VERTEX
  8
Unknown_Area_Type
  10
321012.500
  20
4668093.500
  0
VERTEX
  8
Unknown_Area_Type
  10
320964.500
  20
4666737.000
  0
VERTEX
  8
Unknown_Area_Type
  10
320041.500
  20
4664003.500
  0
VERTEX
  8
Unknown_Area_Type
  10
319169.332
  20
4665282.664
  0
VERTEX
  8
Unknown_Area_Type
  10
319186.959
  20
4665970.765
  0
VERTEX
  8
Unknown_Area_Type
  10
319246.241
  20
4668284.092
  0
VERTEX
  8
Unknown_Area_Type
  10
319250.443
  20
4668447.983
  0
SEQEND
  8
Unknown_Area_Type
  0
INSERT
  8
FeatureAttribs
  2
FEATURE
  41
1
  42
1
  43
1
  50
0
  10
320004.439
  20
4666560.274
 66
1
  0
ATTRIB
  8
FeatureAttribs
 70
0
  1
PNOA-H_AMS_1956-57_33k_ES_PAN_2
  2
NAME
  10
320004.439
  20
4666560.274
 40
33.93466
  0
SEQEND
  0
POLYLINE
  8
Unknown_Area_Type
  70
1
  66
1
  0
VERTEX
  8
Unknown_Area_Type
  10
319250.443
  20
4668447.983
  0
VERTEX
  8
Unknown_Area_Type
  10
319246.241
  20
4668284.092
  0
VERTEX
  8
Unknown_Area_Type
  10
319186.959
  20
4665970.765
  0
VERTEX
  8
Unknown_Area_Type
  10
319169.332
  20
4665282.664
  0
VERTEX
  8
Unknown_Area_Type
  10
320041.500
  20
4664003.500
  0
VERTEX
  8
Unknown_Area_Type
  10
320964.500
  20
4666737.000
  0
VERTEX
  8
Unknown_Area_Type
  10
321012.500
  20
4668093.500
  0
VERTEX
  8
Unknown_Area_Type
  10
319250.443
  20
4668447.983
  0
SEQEND
  8
Unknown_Area_Type
  0
INSERT
  8
FeatureAttribs
  2
FEATURE
  41
1
  42
1
  43
1
  50
0
  10
322593.784
  20
4666309.737
 66
1
  0
ATTRIB
  8
FeatureAttribs
 70
0
  1
PNOA-H_AMS_1956-57_33k_ES_PAN_2
  2
NAME
  10
322593.784
  20
4666309.737
 40
33.93466
  0
SEQEND
  0
POLYLINE
  8
Unknown_Area_Type
  70
1
  66
1
  0
VERTEX
  8
Unknown_Area_Type
  10
321169.000
  20
4668144.500
  0
VERTEX
  8
Unknown_Area_Type
  10
321828.500
  20
4668359.500
  0
VERTEX
  8
Unknown_Area_Type
  10
321844.000
  20
4668363.500
  0
VERTEX
  8
Unknown_Area_Type
  10
323818.500
  20
4668002.000
  0
VERTEX
  8
Unknown_Area_Type
  10
323683.000
  20
4663504.000
  0
VERTEX
  8
Unknown_Area_Type
  10
323049.000
  20
4663493.500
  0
VERTEX
  8
Unknown_Area_Type
  10
320964.500
  20
4666736.500
  0
VERTEX
  8
Unknown_Area_Type
  10
321012.500
  20
4668093.500
  0
VERTEX
  8
Unknown_Area_Type
  10
321167.500
  20
4668144.000
  0
VERTEX
  8
Unknown_Area_Type
  10
321169.000
  20
4668144.500
  0
SEQEND
  8
Unknown_Area_Type
  0
INSERT
  8
FeatureAttribs
  2
FEATURE
  41
1
  42
1
  43
1
  50
0
  10
322593.784
  20
4666309.737
 66
1
  0
ATTRIB
  8
FeatureAttribs
 70
0
  1
PNOA-H_AMS_1956-57_33k_ES_PAN_2
  2
NAME
  10
322593.784
  20
4666309.737
 40
33.93466
  0
SEQEND
  0
POLYLINE
  8
Unknown_Area_Type
  70
1
  66
1
  0
VERTEX
  8
Unknown_Area_Type
  10
321169.000
  20
4668144.500
  0
VERTEX
  8
Unknown_Area_Type
  10
321167.500
  20
4668144.000
  0
VERTEX
  8
Unknown_Area_Type
  10
321012.500
  20
4668093.500
  0
VERTEX
  8
Unknown_Area_Type
  10
320964.500
  20
4666736.500
  0
VERTEX
  8
Unknown_Area_Type
  10
323049.000
  20
4663493.500
  0
VERTEX
  8
Unknown_Area_Type
  10
323683.000
  20
4663504.000
  0
VERTEX
  8
Unknown_Area_Type
  10
323818.500
  20
4668002.000
  0
VERTEX
  8
Unknown_Area_Type
  10
321844.000
  20
4668363.500
  0
VERTEX
  8
Unknown_Area_Type
  10
321828.500
  20
4668359.500
  0
VERTEX
  8
Unknown_Area_Type
  10
321169.000
  20
4668144.500
  0
SEQEND
  8
Unknown_Area_Type
  0
INSERT
  8
FeatureAttribs
  2
FEATURE
  41
1
  42
1
  43
1
  50
0
  10
330871.853
  20
4665545.796
 66
1
  0
ATTRIB
  8
FeatureAttribs
 70
0
  1
PNOA-H_AMS_1956-57_33k_ES_PAN_2
  2
NAME
  10
330871.853
  20
4665545.796
 40
33.93466
  0
SEQEND
  0
POLYLINE
  8
Unknown_Area_Type
  70
1
  66
1
  0
VERTEX
  8
Unknown_Area_Type
  10
331410.000
  20
4667880.000
  0
VERTEX
  8
Unknown_Area_Type
  10
332344.500
  20
4667753.000
  0
VERTEX
  8
Unknown_Area_Type
  10
332242.000
  20
4663211.500
  0
VERTEX
  8
Unknown_Area_Type
  10
329525.000
  20
4663205.000
  0
VERTEX
  8
Unknown_Area_Type
  10
329366.000
  20
4663318.500
  0
VERTEX
  8
Unknown_Area_Type
  10
329366.000
  20
4663329.500
  0
VERTEX
  8
Unknown_Area_Type
  10
329574.000
  20
4667827.500
  0
VERTEX
  8
Unknown_Area_Type
  10
330154.500
  20
4668051.000
  0
VERTEX
  8
Unknown_Area_Type
  10
331406.000
  20
4667880.500
  0
VERTEX
  8
Unknown_Area_Type
  10
331410.000
  20
4667880.000
  0
SEQEND
  8
Unknown_Area_Type
  0
INSERT
  8
FeatureAttribs
  2
FEATURE
  41
1
  42
1
  43
1
  50
0
  10
330871.853
  20
4665545.796
 66
1
  0
ATTRIB
  8
FeatureAttribs
 70
0
  1
PNOA-H_AMS_1956-57_33k_ES_PAN_2
  2
NAME
  10
330871.853
  20
4665545.796
 40
33.93466
  0
SEQEND
  0
POLYLINE
  8
Unknown_Area_Type
  70
1
  66
1
  0
VERTEX
  8
Unknown_Area_Type
  10
331410.000
  20
4667880.000
  0
VERTEX
  8
Unknown_Area_Type
  10
331406.000
  20
4667880.500
  0
VERTEX
  8
Unknown_Area_Type
  10
330154.500
  20
4668051.000
  0
VERTEX
  8
Unknown_Area_Type
  10
329574.000
  20
4667827.500
  0
VERTEX
  8
Unknown_Area_Type
  10
329366.000
  20
4663329.500
  0
VERTEX
  8
Unknown_Area_Type
  10
329366.000
  20
4663318.500
  0
VERTEX
  8
Unknown_Area_Type
  10
329525.000
  20
4663205.000
  0
VERTEX
  8
Unknown_Area_Type
  10
332242.000
  20
4663211.500
  0
VERTEX
  8
Unknown_Area_Type
  10
332344.500
  20
4667753.000
  0
VERTEX
  8
Unknown_Area_Type
  10
331410.000
  20
4667880.000
  0
SEQEND
  8
Unknown_Area_Type
  0
INSERT
  8
FeatureAttribs
  2
FEATURE
  41
1
  42
1
  43
1
  50
0
  10
325165.707
  20
4665756.654
 66
1
  0
ATTRIB
  8
FeatureAttribs
 70
0
  1
PNOA-H_AMS_1956-57_33k_ES_PAN_2
  2
NAME
  10
325165.707
  20
4665756.654
 40
33.93466
  0
SEQEND
  0
POLYLINE
  8
Unknown_Area_Type
  70
1
  66
1
  0
VERTEX
  8
Unknown_Area_Type
  10
325266.000
  20
4668169.000
  0
VERTEX
  8
Unknown_Area_Type
  10
326669.000
  20
4667916.000
  0
VERTEX
  8
Unknown_Area_Type
  10
326535.000
  20
4663415.500
  0
VERTEX
  8
Unknown_Area_Type
  10
326534.500
  20
4663414.500
  0
VERTEX
  8
Unknown_Area_Type
  10
326517.000
  20
4663414.000
  0
VERTEX
  8
Unknown_Area_Type
  10
323888.000
  20
4663377.000
  0
VERTEX
  8
Unknown_Area_Type
  10
323869.500
  20
4663377.000
  0
VERTEX
  8
Unknown_Area_Type
  10
323683.000
  20
4663504.000
  0
VERTEX
  8
Unknown_Area_Type
  10
323818.500
  20
4668002.000
  0
VERTEX
  8
Unknown_Area_Type
  10
324613.500
  20
4668286.500
  0
VERTEX
  8
Unknown_Area_Type
  10
325264.000
  20
4668169.000
  0
VERTEX
  8
Unknown_Area_Type
  10
325266.000
  20
4668169.000
  0
SEQEND
  8
Unknown_Area_Type
  0
INSERT
  8
FeatureAttribs
  2
FEATURE
  41
1
  42
1
  43
1
  50
0
  10
325165.707
  20
4665756.654
 66
1
  0
ATTRIB
  8
FeatureAttribs
 70
0
  1
PNOA-H_AMS_1956-57_33k_ES_PAN_2
  2
NAME
  10
325165.707
  20
4665756.654
 40
33.93466
  0
SEQEND
  0
POLYLINE
  8
Unknown_Area_Type
  70
1
  66
1
  0
VERTEX
  8
Unknown_Area_Type
  10
325266.000
  20
4668169.000
  0
VERTEX
  8
Unknown_Area_Type
  10
325264.000
  20
4668169.000
  0
VERTEX
  8
Unknown_Area_Type
  10
324613.500
  20
4668286.500
  0
VERTEX
  8
Unknown_Area_Type
  10
323818.500
  20
4668002.000
  0
VERTEX
  8
Unknown_Area_Type
  10
323683.000
  20
4663504.000
  0
VERTEX
  8
Unknown_Area_Type
  10
323869.500
  20
4663377.000
  0
VERTEX
  8
Unknown_Area_Type
  10
323888.000
  20
4663377.000
  0
VERTEX
  8
Unknown_Area_Type
  10
326517.000
  20
4663414.000
  0
VERTEX
  8
Unknown_Area_Type
  10
326534.500
  20
4663414.500
  0
VERTEX
  8
Unknown_Area_Type
  10
326535.000
  20
4663415.500
  0
VERTEX
  8
Unknown_Area_Type
  10
326669.000
  20
4667916.000
  0
VERTEX
  8
Unknown_Area_Type
  10
325266.000
  20
4668169.000
  0
SEQEND
  8
Unknown_Area_Type
  0
INSERT
  8
FeatureAttribs
  2
FEATURE
  41
1
  42
1
  43
1
  50
0
  10
339253.583
  20
4665399.040
 66
1
  0
ATTRIB
  8
FeatureAttribs
 70
0
  1
PNOA-H_AMS_1956-57_33k_ES_PAN_2
  2
NAME
  10
339253.583
  20
4665399.040
 40
33.93466
  0
SEQEND
  0
POLYLINE
  8
Unknown_Area_Type
  70
1
  66
1
  0
VERTEX
  8
Unknown_Area_Type
  10
339602.000
  20
4667695.000
  0
VERTEX
  8
Unknown_Area_Type
  10
340711.500
  20
4667557.500
  0
VERTEX
  8
Unknown_Area_Type
  10
340601.000
  20
4663068.500
  0
VERTEX
  8
Unknown_Area_Type
  10
340600.500
  20
4663057.000
  0
VERTEX
  8
Unknown_Area_Type
  10
340523.000
  20
4663011.000
  0
VERTEX
  8
Unknown_Area_Type
  10
337849.000
  20
4663121.500
  0
VERTEX
  8
Unknown_Area_Type
  10
337870.500
  20
4667621.000
  0
VERTEX
  8
Unknown_Area_Type
  10
338407.000
  20
4667843.000
  0
VERTEX
  8
Unknown_Area_Type
  10
339599.000
  20
4667695.000
  0
VERTEX
  8
Unknown_Area_Type
  10
339602.000
  20
4667695.000
  0
SEQEND
  8
Unknown_Area_Type
  0
INSERT
  8
FeatureAttribs
  2
FEATURE
  41
1
  42
1
  43
1
  50
0
  10
339253.583
  20
4665399.040
 66
1
  0
ATTRIB
  8
FeatureAttribs
 70
0
  1
PNOA-H_AMS_1956-57_33k_ES_PAN_2
  2
NAME
  10
339253.583
  20
4665399.040
 40
33.93466
  0
SEQEND
  0
POLYLINE
  8
Unknown_Area_Type
  70
1
  66
1
  0
VERTEX
  8
Unknown_Area_Type
  10
339602.000
  20
4667695.000
  0
VERTEX
  8
Unknown_Area_Type
  10
339599.000
  20
4667695.000
  0
VERTEX
  8
Unknown_Area_Type
  10
338407.000
  20
4667843.000
  0
VERTEX
  8
Unknown_Area_Type
  10
337870.500
  20
4667621.000
  0
VERTEX
  8
Unknown_Area_Type
  10
337849.000
  20
4663121.500
  0
VERTEX
  8
Unknown_Area_Type
  10
340523.000
  20
4663011.000
  0
VERTEX
  8
Unknown_Area_Type
  10
340600.500
  20
4663057.000
  0
VERTEX
  8
Unknown_Area_Type
  10
340601.000
  20
4663068.500
  0
VERTEX
  8
Unknown_Area_Type
  10
340711.500
  20
4667557.500
  0
VERTEX
  8
Unknown_Area_Type
  10
339602.000
  20
4667695.000
  0
SEQEND
  8
Unknown_Area_Type
  0
INSERT
  8
FeatureAttribs
  2
FEATURE
  41
1
  42
1
  43
1
  50
0
  10
342051.373
  20
4665277.579
 66
1
  0
ATTRIB
  8
FeatureAttribs
 70
0
  1
PNOA-H_AMS_1956-57_33k_ES_PAN_2
  2
NAME
  10
342051.373
  20
4665277.579
 40
33.93466
  0
SEQEND
  0
POLYLINE
  8
Unknown_Area_Type
  70
1
  66
1
  0
VERTEX
  8
Unknown_Area_Type
  10
341650.000
  20
4667666.500
  0
VERTEX
  8
Unknown_Area_Type
  10
343435.000
  20
4667493.500
  0
VERTEX
  8
Unknown_Area_Type
  10
343469.500
  20
4663043.500
  0
VERTEX
  8
Unknown_Area_Type
  10
343243.000
  20
4662913.500
  0
VERTEX
  8
Unknown_Area_Type
  10
340600.500
  20
4663057.000
  0
VERTEX
  8
Unknown_Area_Type
  10
340711.500
  20
4667557.500
  0
VERTEX
  8
Unknown_Area_Type
  10
341098.000
  20
4667720.000
  0
VERTEX
  8
Unknown_Area_Type
  10
341646.000
  20
4667666.500
  0
VERTEX
  8
Unknown_Area_Type
  10
341650.000
  20
4667666.500
  0
SEQEND
  8
Unknown_Area_Type
  0
INSERT
  8
FeatureAttribs
  2
FEATURE
  41
1
  42
1
  43
1
  50
0
  10
342051.373
  20
4665277.579
 66
1
  0
ATTRIB
  8
FeatureAttribs
 70
0
  1
PNOA-H_AMS_1956-57_33k_ES_PAN_2
  2
NAME
  10
342051.373
  20
4665277.579
 40
33.93466
  0
SEQEND
  0
POLYLINE
  8
Unknown_Area_Type
  70
1
  66
1
  0
VERTEX
  8
Unknown_Area_Type
  10
341650.000
  20
4667666.500
  0
VERTEX
  8
Unknown_Area_Type
  10
341646.000
  20
4667666.500
  0
VERTEX
  8
Unknown_Area_Type
  10
341098.000
  20
4667720.000
  0
VERTEX
  8
Unknown_Area_Type
  10
340711.500
  20
4667557.500
  0
VERTEX
  8
Unknown_Area_Type
  10
340600.500
  20
4663057.000
  0
VERTEX
  8
Unknown_Area_Type
  10
343243.000
  20
4662913.500
  0
VERTEX
  8
Unknown_Area_Type
  10
343469.500
  20
4663043.500
  0
VERTEX
  8
Unknown_Area_Type
  10
343435.000
  20
4667493.500
  0
VERTEX
  8
Unknown_Area_Type
  10
341650.000
  20
4667666.500
  0
SEQEND
  8
Unknown_Area_Type
  0
INSERT
  8
FeatureAttribs
  2
FEATURE
  41
1
  42
1
  43
1
  50
0
  10
346790.176
  20
4665265.273
 66
1
  0
ATTRIB
  8
FeatureAttribs
 70
0
  1
PNOA-H_AMS_1956-57_33k_ES_PAN_2
  2
NAME
  10
346790.176
  20
4665265.273
 40
33.93466
  0
SEQEND
  0
POLYLINE
  8
Unknown_Area_Type
  70
1
  66
1
  0
VERTEX
  8
Unknown_Area_Type
  10
346841.020
  20
4662936.934
  0
VERTEX
  8
Unknown_Area_Type
  10
346689.067
  20
4662949.923
  0
VERTEX
  8
Unknown_Area_Type
  10
346690.270
  20
4663005.372
  0
VERTEX
  8
Unknown_Area_Type
  10
346740.490
  20
4665318.643
  0
VERTEX
  8
Unknown_Area_Type
  10
346789.899
  20
4667593.612
  0
VERTEX
  8
Unknown_Area_Type
  10
346841.020
  20
4667588.554
  0
VERTEX
  8
Unknown_Area_Type
  10
346841.020
  20
4662936.934
  0
SEQEND
  8
Unknown_Area_Type
  0
INSERT
  8
FeatureAttribs
  2
FEATURE
  41
1
  42
1
  43
1
  50
0
  10
346508.014
  20
4665302.572
 66
1
  0
ATTRIB
  8
FeatureAttribs
 70
0
  1
PNOA-H_AMS_1956-57_33k_ES_PAN_2
  2
NAME
  10
346508.014
  20
4665302.572
 40
33.93466
  0
SEQEND
  0
POLYLINE
  8
Unknown_Area_Type
  70
1
  66
1
  0
VERTEX
  8
Unknown_Area_Type
  10
346689.067
  20
4662949.923
  0
VERTEX
  8
Unknown_Area_Type
  10
346249.500
  20
4662987.500
  0
VERTEX
  8
Unknown_Area_Type
  10
346292.500
  20
4667438.000
  0
VERTEX
  8
Unknown_Area_Type
  10
346644.500
  20
4667608.000
  0
VERTEX
  8
Unknown_Area_Type
  10
346789.899
  20
4667593.612
  0
VERTEX
  8
Unknown_Area_Type
  10
346740.490
  20
4665318.643
  0
VERTEX
  8
Unknown_Area_Type
  10
346690.270
  20
4663005.372
  0
VERTEX
  8
Unknown_Area_Type
  10
346689.067
  20
4662949.923
  0
SEQEND
  8
Unknown_Area_Type
  0
INSERT
  8
FeatureAttribs
  2
FEATURE
  41
1
  42
1
  43
1
  50
0
  10
346508.014
  20
4665302.572
 66
1
  0
ATTRIB
  8
FeatureAttribs
 70
0
  1
PNOA-H_AMS_1956-57_33k_ES_PAN_2
  2
NAME
  10
346508.014
  20
4665302.572
 40
33.93466
  0
SEQEND
  0
POLYLINE
  8
Unknown_Area_Type
  70
1
  66
1
  0
VERTEX
  8
Unknown_Area_Type
  10
346689.067
  20
4662949.923
  0
VERTEX
  8
Unknown_Area_Type
  10
346690.270
  20
4663005.372
  0
VERTEX
  8
Unknown_Area_Type
  10
346740.490
  20
4665318.643
  0
VERTEX
  8
Unknown_Area_Type
  10
346789.899
  20
4667593.612
  0
VERTEX
  8
Unknown_Area_Type
  10
346644.500
  20
4667608.000
  0
VERTEX
  8
Unknown_Area_Type
  10
346292.500
  20
4667438.000
  0
VERTEX
  8
Unknown_Area_Type
  10
346249.500
  20
4662987.500
  0
VERTEX
  8
Unknown_Area_Type
  10
346689.067
  20
4662949.923
  0
SEQEND
  8
Unknown_Area_Type
  0
INSERT
  8
FeatureAttribs
  2
FEATURE
  41
1
  42
1
  43
1
  50
0
  10
333671.491
  20
4665478.144
 66
1
  0
ATTRIB
  8
FeatureAttribs
 70
0
  1
PNOA-H_AMS_1956-57_33k_ES_PAN_2
  2
NAME
  10
333671.491
  20
4665478.144
 40
33.93466
  0
SEQEND
  0
POLYLINE
  8
Unknown_Area_Type
  70
1
  66
1
  0
VERTEX
  8
Unknown_Area_Type
  10
333458.000
  20
4667901.500
  0
VERTEX
  8
Unknown_Area_Type
  10
335090.000
  20
4667664.500
  0
VERTEX
  8
Unknown_Area_Type
  10
335046.500
  20
4663168.500
  0
VERTEX
  8
Unknown_Area_Type
  10
335045.500
  20
4663153.500
  0
VERTEX
  8
Unknown_Area_Type
  10
335002.500
  20
4663126.500
  0
VERTEX
  8
Unknown_Area_Type
  10
332328.500
  20
4663152.500
  0
VERTEX
  8
Unknown_Area_Type
  10
332242.000
  20
4663211.500
  0
VERTEX
  8
Unknown_Area_Type
  10
332344.500
  20
4667753.000
  0
VERTEX
  8
Unknown_Area_Type
  10
332926.500
  20
4667978.500
  0
VERTEX
  8
Unknown_Area_Type
  10
333455.500
  20
4667901.500
  0
VERTEX
  8
Unknown_Area_Type
  10
333458.000
  20
4667901.500
  0
SEQEND
  8
Unknown_Area_Type
  0
INSERT
  8
FeatureAttribs
  2
FEATURE
  41
1
  42
1
  43
1
  50
0
  10
333671.491
  20
4665478.144
 66
1
  0
ATTRIB
  8
FeatureAttribs
 70
0
  1
PNOA-H_AMS_1956-57_33k_ES_PAN_2
  2
NAME
  10
333671.491
  20
4665478.144
 40
33.93466
  0
SEQEND
  0
POLYLINE
  8
Unknown_Area_Type
  70
1
  66
1
  0
VERTEX
  8
Unknown_Area_Type
  10
333458.000
  20
4667901.500
  0
VERTEX
  8
Unknown_Area_Type
  10
333455.500
  20
4667901.500
  0
VERTEX
  8
Unknown_Area_Type
  10
332926.500
  20
4667978.500
  0
VERTEX
  8
Unknown_Area_Type
  10
332344.500
  20
4667753.000
  0
VERTEX
  8
Unknown_Area_Type
  10
332242.000
  20
4663211.500
  0
VERTEX
  8
Unknown_Area_Type
  10
332328.500
  20
4663152.500
  0
VERTEX
  8
Unknown_Area_Type
  10
335002.500
  20
4663126.500
  0
VERTEX
  8
Unknown_Area_Type
  10
335045.500
  20
4663153.500
  0
VERTEX
  8
Unknown_Area_Type
  10
335046.500
  20
4663168.500
  0
VERTEX
  8
Unknown_Area_Type
  10
335090.000
  20
4667664.500
  0
VERTEX
  8
Unknown_Area_Type
  10
333458.000
  20
4667901.500
  0
SEQEND
  8
Unknown_Area_Type
  0
INSERT
  8
FeatureAttribs
  2
FEATURE
  41
1
  42
1
  43
1
  50
0
  10
328027.023
  20
4665677.895
 66
1
  0
ATTRIB
  8
FeatureAttribs
 70
0
  1
PNOA-H_AMS_1956-57_33k_ES_PAN_2
  2
NAME
  10
328027.023
  20
4665677.895
 40
33.93466
  0
SEQEND
  0
POLYLINE
  8
Unknown_Area_Type
  70
1
  66
1
  0
VERTEX
  8
Unknown_Area_Type
  10
327313.000
  20
4668147.500
  0
VERTEX
  8
Unknown_Area_Type
  10
327389.000
  20
4668174.000
  0
VERTEX
  8
Unknown_Area_Type
  10
329574.000
  20
4667827.000
  0
VERTEX
  8
Unknown_Area_Type
  10
329366.000
  20
4663319.000
  0
VERTEX
  8
Unknown_Area_Type
  10
326674.500
  20
4663319.500
  0
VERTEX
  8
Unknown_Area_Type
  10
326534.500
  20
4663414.500
  0
VERTEX
  8
Unknown_Area_Type
  10
326669.000
  20
4667916.000
  0
VERTEX
  8
Unknown_Area_Type
  10
327311.500
  20
4668147.000
  0
VERTEX
  8
Unknown_Area_Type
  10
327313.000
  20
4668147.500
  0
SEQEND
  8
Unknown_Area_Type
  0
INSERT
  8
FeatureAttribs
  2
FEATURE
  41
1
  42
1
  43
1
  50
0
  10
328027.023
  20
4665677.895
 66
1
  0
ATTRIB
  8
FeatureAttribs
 70
0
  1
PNOA-H_AMS_1956-57_33k_ES_PAN_2
  2
NAME
  10
328027.023
  20
4665677.895
 40
33.93466
  0
SEQEND
  0
POLYLINE
  8
Unknown_Area_Type
  70
1
  66
1
  0
VERTEX
  8
Unknown_Area_Type
  10
327313.000
  20
4668147.500
  0
VERTEX
  8
Unknown_Area_Type
  10
327311.500
  20
4668147.000
  0
VERTEX
  8
Unknown_Area_Type
  10
326669.000
  20
4667916.000
  0
VERTEX
  8
Unknown_Area_Type
  10
326534.500
  20
4663414.500
  0
VERTEX
  8
Unknown_Area_Type
  10
326674.500
  20
4663319.500
  0
VERTEX
  8
Unknown_Area_Type
  10
329366.000
  20
4663319.000
  0
VERTEX
  8
Unknown_Area_Type
  10
329574.000
  20
4667827.000
  0
VERTEX
  8
Unknown_Area_Type
  10
327389.000
  20
4668174.000
  0
VERTEX
  8
Unknown_Area_Type
  10
327313.000
  20
4668147.500
  0
SEQEND
  8
Unknown_Area_Type
  0
INSERT
  8
FeatureAttribs
  2
FEATURE
  41
1
  42
1
  43
1
  50
0
  10
336459.895
  20
4665433.039
 66
1
  0
ATTRIB
  8
FeatureAttribs
 70
0
  1
PNOA-H_AMS_1956-57_33k_ES_PAN_2
  2
NAME
  10
336459.895
  20
4665433.039
 40
33.93466
  0
SEQEND
  0
POLYLINE
  8
Unknown_Area_Type
  70
1
  66
1
  0
VERTEX
  8
Unknown_Area_Type
  10
335504.500
  20
4667825.000
  0
VERTEX
  8
Unknown_Area_Type
  10
335698.500
  20
4667900.000
  0
VERTEX
  8
Unknown_Area_Type
  10
335704.500
  20
4667901.000
  0
VERTEX
  8
Unknown_Area_Type
  10
337870.500
  20
4667621.000
  0
VERTEX
  8
Unknown_Area_Type
  10
337849.500
  20
4663130.500
  0
VERTEX
  8
Unknown_Area_Type
  10
337848.500
  20
4663121.000
  0
VERTEX
  8
Unknown_Area_Type
  10
337750.000
  20
4663059.500
  0
VERTEX
  8
Unknown_Area_Type
  10
337748.000
  20
4663058.500
  0
VERTEX
  8
Unknown_Area_Type
  10
337741.000
  20
4663058.500
  0
VERTEX
  8
Unknown_Area_Type
  10
335046.000
  20
4663154.000
  0
VERTEX
  8
Unknown_Area_Type
  10
335090.000
  20
4667664.500
  0
VERTEX
  8
Unknown_Area_Type
  10
335503.500
  20
4667824.500
  0
VERTEX
  8
Unknown_Area_Type
  10
335504.500
  20
4667825.000
  0
SEQEND
  8
Unknown_Area_Type
  0
INSERT
  8
FeatureAttribs
  2
FEATURE
  41
1
  42
1
  43
1
  50
0
  10
336459.895
  20
4665433.039
 66
1
  0
ATTRIB
  8
FeatureAttribs
 70
0
  1
PNOA-H_AMS_1956-57_33k_ES_PAN_2
  2
NAME
  10
336459.895
  20
4665433.039
 40
33.93466
  0
SEQEND
  0
POLYLINE
  8
Unknown_Area_Type
  70
1
  66
1
  0
VERTEX
  8
Unknown_Area_Type
  10
335504.500
  20
4667825.000
  0
VERTEX
  8
Unknown_Area_Type
  10
335503.500
  20
4667824.500
  0
VERTEX
  8
Unknown_Area_Type
  10
335090.000
  20
4667664.500
  0
VERTEX
  8
Unknown_Area_Type
  10
335046.000
  20
4663154.000
  0
VERTEX
  8
Unknown_Area_Type
  10
337741.000
  20
4663058.500
  0
VERTEX
  8
Unknown_Area_Type
  10
337748.000
  20
4663058.500
  0
VERTEX
  8
Unknown_Area_Type
  10
337750.000
  20
4663059.500
  0
VERTEX
  8
Unknown_Area_Type
  10
337848.500
  20
4663121.000
  0
VERTEX
  8
Unknown_Area_Type
  10
337849.500
  20
4663130.500
  0
VERTEX
  8
Unknown_Area_Type
  10
337870.500
  20
4667621.000
  0
VERTEX
  8
Unknown_Area_Type
  10
335704.500
  20
4667901.000
  0
VERTEX
  8
Unknown_Area_Type
  10
335698.500
  20
4667900.000
  0
VERTEX
  8
Unknown_Area_Type
  10
335504.500
  20
4667825.000
  0
SEQEND
  8
Unknown_Area_Type
  0
INSERT
  8
FeatureAttribs
  2
FEATURE
  41
1
  42
1
  43
1
  50
0
  10
344860.548
  20
4665261.209
 66
1
  0
ATTRIB
  8
FeatureAttribs
 70
0
  1
PNOA-H_AMS_1956-57_33k_ES_PAN_2
  2
NAME
  10
344860.548
  20
4665261.209
 40
33.93466
  0
SEQEND
  0
POLYLINE
  8
Unknown_Area_Type
  70
1
  66
1
  0
VERTEX
  8
Unknown_Area_Type
  10
343695.500
  20
4667616.000
  0
VERTEX
  8
Unknown_Area_Type
  10
343696.500
  20
4667616.500
  0
VERTEX
  8
Unknown_Area_Type
  10
343809.500
  20
4667669.500
  0
VERTEX
  8
Unknown_Area_Type
  10
343815.000
  20
4667670.500
  0
VERTEX
  8
Unknown_Area_Type
  10
346292.500
  20
4667438.000
  0
VERTEX
  8
Unknown_Area_Type
  10
346249.500
  20
4662987.500
  0
VERTEX
  8
Unknown_Area_Type
  10
345993.500
  20
4662847.500
  0
VERTEX
  8
Unknown_Area_Type
  10
345991.500
  20
4662846.500
  0
VERTEX
  8
Unknown_Area_Type
  10
345979.500
  20
4662847.000
  0
VERTEX
  8
Unknown_Area_Type
  10
343469.500
  20
4663043.500
  0
VERTEX
  8
Unknown_Area_Type
  10
343435.000
  20
4667493.500
  0
VERTEX
  8
Unknown_Area_Type
  10
343695.500
  20
4667616.000
  0
SEQEND
  8
Unknown_Area_Type
  0
INSERT
  8
FeatureAttribs
  2
FEATURE
  41
1
  42
1
  43
1
  50
0
  10
344860.548
  20
4665261.209
 66
1
  0
ATTRIB
  8
FeatureAttribs
 70
0
  1
PNOA-H_AMS_1956-57_33k_ES_PAN_2
  2
NAME
  10
344860.548
  20
4665261.209
 40
33.93466
  0
SEQEND
  0
POLYLINE
  8
Unknown_Area_Type
  70
1
  66
1
  0
VERTEX
  8
Unknown_Area_Type
  10
343695.500
  20
4667616.000
  0
VERTEX
  8
Unknown_Area_Type
  10
343435.000
  20
4667493.500
  0
VERTEX
  8
Unknown_Area_Type
  10
343469.500
  20
4663043.500
  0
VERTEX
  8
Unknown_Area_Type
  10
345979.500
  20
4662847.000
  0
VERTEX
  8
Unknown_Area_Type
  10
345991.500
  20
4662846.500
  0
VERTEX
  8
Unknown_Area_Type
  10
345993.500
  20
4662847.500
  0
VERTEX
  8
Unknown_Area_Type
  10
346249.500
  20
4662987.500
  0
VERTEX
  8
Unknown_Area_Type
  10
346292.500
  20
4667438.000
  0
VERTEX
  8
Unknown_Area_Type
  10
343815.000
  20
4667670.500
  0
VERTEX
  8
Unknown_Area_Type
  10
343809.500
  20
4667669.500
  0
VERTEX
  8
Unknown_Area_Type
  10
343696.500
  20
4667616.500
  0
VERTEX
  8
Unknown_Area_Type
  10
343695.500
  20
4667616.000
  0
SEQEND
  8
Unknown_Area_Type
  0
INSERT
  8
FeatureAttribs
  2
FEATURE
  41
1
  42
1
  43
1
  50
0
  10
346738.408
  20
4660495.111
 66
1
  0
ATTRIB
  8
FeatureAttribs
 70
0
  1
PNOA-H_AMS_1956-57_33k_ES_PAN_2
  2
NAME
  10
346738.408
  20
4660495.111
 40
33.93466
  0
SEQEND
  0
POLYLINE
  8
Unknown_Area_Type
  70
1
  66
1
  0
VERTEX
  8
Unknown_Area_Type
  10
346841.020
  20
4662936.891
  0
VERTEX
  8
Unknown_Area_Type
  10
346841.020
  20
4658040.342
  0
VERTEX
  8
Unknown_Area_Type
  10
346582.868
  20
4658054.990
  0
VERTEX
  8
Unknown_Area_Type
  10
346589.891
  20
4658378.852
  0
VERTEX
  8
Unknown_Area_Type
  10
346640.070
  20
4660692.108
  0
VERTEX
  8
Unknown_Area_Type
  10
346689.066
  20
4662949.881
  0
VERTEX
  8
Unknown_Area_Type
  10
346841.020
  20
4662936.891
  0
SEQEND
  8
Unknown_Area_Type
  0
INSERT
  8
FeatureAttribs
  2
FEATURE
  41
1
  42
1
  43
1
  50
0
  10
346339.384
  20
4661009.826
 66
1
  0
ATTRIB
  8
FeatureAttribs
 70
0
  1
PNOA-H_AMS_1956-57_33k_ES_PAN_2
  2
NAME
  10
346339.384
  20
4661009.826
 40
33.93466
  0
SEQEND
  0
POLYLINE
  8
Unknown_Area_Type
  70
1
  66
1
  0
VERTEX
  8
Unknown_Area_Type
  10
346689.066
  20
4662949.881
  0
VERTEX
  8
Unknown_Area_Type
  10
346640.070
  20
4660692.108
  0
VERTEX
  8
Unknown_Area_Type
  10
346589.891
  20
4658378.852
  0
VERTEX
  8
Unknown_Area_Type
  10
346582.868
  20
4658054.990
  0
VERTEX
  8
Unknown_Area_Type
  10
346521.000
  20
4658058.500
  0
VERTEX
  8
Unknown_Area_Type
  10
346512.500
  20
4658059.000
  0
VERTEX
  8
Unknown_Area_Type
  10
346511.000
  20
4658060.000
  0
VERTEX
  8
Unknown_Area_Type
  10
345915.000
  20
4660830.000
  0
VERTEX
  8
Unknown_Area_Type
  10
345990.500
  20
4662846.000
  0
VERTEX
  8
Unknown_Area_Type
  10
346248.000
  20
4662987.000
  0
VERTEX
  8
Unknown_Area_Type
  10
346249.000
  20
4662987.500
  0
VERTEX
  8
Unknown_Area_Type
  10
346689.066
  20
4662949.881
  0
SEQEND
  8
Unknown_Area_Type
  0
INSERT
  8
FeatureAttribs
  2
FEATURE
  41
1
  42
1
  43
1
  50
0
  10
346339.384
  20
4661009.826
 66
1
  0
ATTRIB
  8
FeatureAttribs
 70
0
  1
PNOA-H_AMS_1956-57_33k_ES_PAN_2
  2
NAME
  10
346339.384
  20
4661009.826
 40
33.93466
  0
SEQEND
  0
POLYLINE
  8
Unknown_Area_Type
  70
1
  66
1
  0
VERTEX
  8
Unknown_Area_Type
  10
346689.066
  20
4662949.881
  0
VERTEX
  8
Unknown_Area_Type
  10
346249.000
  20
4662987.500
  0
VERTEX
  8
Unknown_Area_Type
  10
346248.000
  20
4662987.000
  0
VERTEX
  8
Unknown_Area_Type
  10
345990.500
  20
4662846.000
  0
VERTEX
  8
Unknown_Area_Type
  10
345915.000
  20
4660830.000
  0
VERTEX
  8
Unknown_Area_Type
  10
346511.000
  20
4658060.000
  0
VERTEX
  8
Unknown_Area_Type
  10
346512.500
  20
4658059.000
  0
VERTEX
  8
Unknown_Area_Type
  10
346521.000
  20
4658058.500
  0
VERTEX
  8
Unknown_Area_Type
  10
346582.868
  20
4658054.990
  0
VERTEX
  8
Unknown_Area_Type
  10
346589.891
  20
4658378.852
  0
VERTEX
  8
Unknown_Area_Type
  10
346640.070
  20
4660692.108
  0
VERTEX
  8
Unknown_Area_Type
  10
346689.066
  20
4662949.881
  0
SEQEND
  8
Unknown_Area_Type
  0
INSERT
  8
FeatureAttribs
  2
FEATURE
  41
1
  42
1
  43
1
  50
0
  10
340577.481
  20
4655835.772
 66
1
  0
ATTRIB
  8
FeatureAttribs
 70
0
  1
PNOA-H_AMS_1956-57_33k_ES_PAN_2
  2
NAME
  10
340577.481
  20
4655835.772
 40
33.93466
  0
SEQEND
  0
POLYLINE
  8
Unknown_Area_Type
  70
1
  66
1
  0
VERTEX
  8
Unknown_Area_Type
  10
341650.000
  20
4657742.500
  0
VERTEX
  8
Unknown_Area_Type
  10
341882.000
  20
4657700.000
  0
VERTEX
  8
Unknown_Area_Type
  10
341884.500
  20
4657699.500
  0
VERTEX
  8
Unknown_Area_Type
  10
341884.500
  20
4657698.500
  0
VERTEX
  8
Unknown_Area_Type
  10
340795.500
  20
4653390.500
  0
VERTEX
  8
Unknown_Area_Type
  10
340794.000
  20
4653388.500
  0
VERTEX
  8
Unknown_Area_Type
  10
340180.500
  20
4653281.500
  0
VERTEX
  8
Unknown_Area_Type
  10
339708.000
  20
4653602.000
  0
VERTEX
  8
Unknown_Area_Type
  10
339758.000
  20
4657623.000
  0
VERTEX
  8
Unknown_Area_Type
  10
340579.000
  20
4657941.500
  0
VERTEX
  8
Unknown_Area_Type
  10
341647.000
  20
4657743.000
  0
VERTEX
  8
Unknown_Area_Type
  10
341650.000
  20
4657742.500
  0
SEQEND
  8
Unknown_Area_Type
  0
INSERT
  8
FeatureAttribs
  2
FEATURE
  41
1
  42
1
  43
1
  50
0
  10
340577.481
  20
4655835.772
 66
1
  0
ATTRIB
  8
FeatureAttribs
 70
0
  1
PNOA-H_AMS_1956-57_33k_ES_PAN_2
  2
NAME
  10
340577.481
  20
4655835.772
 40
33.93466
  0
SEQEND
  0
POLYLINE
  8
Unknown_Area_Type
  70
1
  66
1
  0
VERTEX
  8
Unknown_Area_Type
  10
341650.000
  20
4657742.500
  0
VERTEX
  8
Unknown_Area_Type
  10
341647.000
  20
4657743.000
  0
VERTEX
  8
Unknown_Area_Type
  10
340579.000
  20
4657941.500
  0
VERTEX
  8
Unknown_Area_Type
  10
339758.000
  20
4657623.000
  0
VERTEX
  8
Unknown_Area_Type
  10
339708.000
  20
4653602.000
  0
VERTEX
  8
Unknown_Area_Type
  10
340180.500
  20
4653281.500
  0
VERTEX
  8
Unknown_Area_Type
  10
340794.000
  20
4653388.500
  0
VERTEX
  8
Unknown_Area_Type
  10
340795.500
  20
4653390.500
  0
VERTEX
  8
Unknown_Area_Type
  10
341884.500
  20
4657698.500
  0
VERTEX
  8
Unknown_Area_Type
  10
341884.500
  20
4657699.500
  0
VERTEX
  8
Unknown_Area_Type
  10
341882.000
  20
4657700.000
  0
VERTEX
  8
Unknown_Area_Type
  10
341650.000
  20
4657742.500
  0
SEQEND
  8
Unknown_Area_Type
  0
INSERT
  8
FeatureAttribs
  2
FEATURE
  41
1
  42
1
  43
1
  50
0
  10
321299.173
  20
4656121.408
 66
1
  0
ATTRIB
  8
FeatureAttribs
 70
0
  1
PNOA-H_AMS_1956-57_33k_ES_PAN_2
  2
NAME
  10
321299.173
  20
4656121.408
 40
33.93466
  0
SEQEND
  0
POLYLINE
  8
Unknown_Area_Type
  70
1
  66
1
  0
VERTEX
  8
Unknown_Area_Type
  10
319879.000
  20
4658136.500
  0
VERTEX
  8
Unknown_Area_Type
  10
320970.000
  20
4658491.000
  0
VERTEX
  8
Unknown_Area_Type
  10
320971.500
  20
4658491.500
  0
VERTEX
  8
Unknown_Area_Type
  10
322691.000
  20
4658083.000
  0
VERTEX
  8
Unknown_Area_Type
  10
322734.000
  20
4654114.500
  0
VERTEX
  8
Unknown_Area_Type
  10
322125.500
  20
4653747.500
  0
VERTEX
  8
Unknown_Area_Type
  10
319854.000
  20
4654200.000
  0
VERTEX
  8
Unknown_Area_Type
  10
319879.000
  20
4658136.500
  0
SEQEND
  8
Unknown_Area_Type
  0
INSERT
  8
FeatureAttribs
  2
FEATURE
  41
1
  42
1
  43
1
  50
0
  10
321299.173
  20
4656121.408
 66
1
  0
ATTRIB
  8
FeatureAttribs
 70
0
  1
PNOA-H_AMS_1956-57_33k_ES_PAN_2
  2
NAME
  10
321299.173
  20
4656121.408
 40
33.93466
  0
SEQEND
  0
POLYLINE
  8
Unknown_Area_Type
  70
1
  66
1
  0
VERTEX
  8
Unknown_Area_Type
  10
319879.000
  20
4658136.500
  0
VERTEX
  8
Unknown_Area_Type
  10
319854.000
  20
4654200.000
  0
VERTEX
  8
Unknown_Area_Type
  10
322125.500
  20
4653747.500
  0
VERTEX
  8
Unknown_Area_Type
  10
322734.000
  20
4654114.500
  0
VERTEX
  8
Unknown_Area_Type
  10
322691.000
  20
4658083.000
  0
VERTEX
  8
Unknown_Area_Type
  10
320971.500
  20
4658491.500
  0
VERTEX
  8
Unknown_Area_Type
  10
320970.000
  20
4658491.000
  0
VERTEX
  8
Unknown_Area_Type
  10
319879.000
  20
4658136.500
  0
SEQEND
  8
Unknown_Area_Type
  0
INSERT
  8
FeatureAttribs
  2
FEATURE
  41
1
  42
1
  43
1
  50
0
  10
343482.814
  20
4654744.233
 66
1
  0
ATTRIB
  8
FeatureAttribs
 70
0
  1
PNOA-H_AMS_1956-57_33k_ES_PAN_2
  2
NAME
  10
343482.814
  20
4654744.233
 40
33.93466
  0
SEQEND
  0
POLYLINE
  8
Unknown_Area_Type
  70
1
  66
1
  0
VERTEX
  8
Unknown_Area_Type
  10
344574.000
  20
4654344.000
  0
VERTEX
  8
Unknown_Area_Type
  10
345014.500
  20
4653578.500
  0
VERTEX
  8
Unknown_Area_Type
  10
345023.000
  20
4653563.500
  0
VERTEX
  8
Unknown_Area_Type
  10
345022.500
  20
4653562.000
  0
VERTEX
  8
Unknown_Area_Type
  10
343230.500
  20
4653168.500
  0
VERTEX
  8
Unknown_Area_Type
  10
343226.000
  20
4653169.500
  0
VERTEX
  8
Unknown_Area_Type
  10
342628.500
  20
4653535.500
  0
VERTEX
  8
Unknown_Area_Type
  10
342755.500
  20
4657508.500
  0
VERTEX
  8
Unknown_Area_Type
  10
344574.000
  20
4654345.000
  0
VERTEX
  8
Unknown_Area_Type
  10
344574.000
  20
4654344.000
  0
SEQEND
  8
Unknown_Area_Type
  0
INSERT
  8
FeatureAttribs
  2
FEATURE
  41
1
  42
1
  43
1
  50
0
  10
343482.814
  20
4654744.233
 66
1
  0
ATTRIB
  8
FeatureAttribs
 70
0
  1
PNOA-H_AMS_1956-57_33k_ES_PAN_2
  2
NAME
  10
343482.814
  20
4654744.233
 40
33.93466
  0
SEQEND
  0
POLYLINE
  8
Unknown_Area_Type
  70
1
  66
1
  0
VERTEX
  8
Unknown_Area_Type
  10
344574.000
  20
4654344.000
  0
VERTEX
  8
Unknown_Area_Type
  10
344574.000
  20
4654345.000
  0
VERTEX
  8
Unknown_Area_Type
  10
342755.500
  20
4657508.500
  0
VERTEX
  8
Unknown_Area_Type
  10
342628.500
  20
4653535.500
  0
VERTEX
  8
Unknown_Area_Type
  10
343226.000
  20
4653169.500
  0
VERTEX
  8
Unknown_Area_Type
  10
343230.500
  20
4653168.500
  0
VERTEX
  8
Unknown_Area_Type
  10
345022.500
  20
4653562.000
  0
VERTEX
  8
Unknown_Area_Type
  10
345023.000
  20
4653563.500
  0
VERTEX
  8
Unknown_Area_Type
  10
345014.500
  20
4653578.500
  0
VERTEX
  8
Unknown_Area_Type
  10
344574.000
  20
4654344.000
  0
SEQEND
  8
Unknown_Area_Type
  0
INSERT
  8
FeatureAttribs
  2
FEATURE
  41
1
  42
1
  43
1
  50
0
  10
346672.031
  20
4654372.843
 66
1
  0
ATTRIB
  8
FeatureAttribs
 70
0
  1
PNOA-H_AMS_1956-57_33k_ES_PAN_2
  2
NAME
  10
346672.031
  20
4654372.843
 40
33.93466
  0
SEQEND
  0
POLYLINE
  8
Unknown_Area_Type
  70
1
  66
1
  0
VERTEX
  8
Unknown_Area_Type
  10
346841.020
  20
4653265.261
  0
VERTEX
  8
Unknown_Area_Type
  10
346477.075
  20
4653174.616
  0
VERTEX
  8
Unknown_Area_Type
  10
346489.593
  20
4653752.362
  0
VERTEX
  8
Unknown_Area_Type
  10
346529.013
  20
4655571.070
  0
VERTEX
  8
Unknown_Area_Type
  10
346841.020
  20
4655280.602
  0
VERTEX
  8
Unknown_Area_Type
  10
346841.020
  20
4653265.261
  0
SEQEND
  8
Unknown_Area_Type
  0
INSERT
  8
FeatureAttribs
  2
FEATURE
  41
1
  42
1
  43
1
  50
0
  10
345959.824
  20
4654628.725
 66
1
  0
ATTRIB
  8
FeatureAttribs
 70
0
  1
PNOA-H_AMS_1956-57_33k_ES_PAN_2
  2
NAME
  10
345959.824
  20
4654628.725
 40
33.93466
  0
SEQEND
  0
POLYLINE
  8
Unknown_Area_Type
  70
1
  66
1
  0
VERTEX
  8
Unknown_Area_Type
  10
346477.075
  20
4653174.616
  0
VERTEX
  8
Unknown_Area_Type
  10
346179.500
  20
4653100.500
  0
VERTEX
  8
Unknown_Area_Type
  10
345331.000
  20
4653603.500
  0
VERTEX
  8
Unknown_Area_Type
  10
345579.000
  20
4656455.500
  0
VERTEX
  8
Unknown_Area_Type
  10
346529.013
  20
4655571.070
  0
VERTEX
  8
Unknown_Area_Type
  10
346489.593
  20
4653752.362
  0
VERTEX
  8
Unknown_Area_Type
  10
346477.075
  20
4653174.616
  0
SEQEND
  8
Unknown_Area_Type
  0
INSERT
  8
FeatureAttribs
  2
FEATURE
  41
1
  42
1
  43
1
  50
0
  10
345959.824
  20
4654628.725
 66
1
  0
ATTRIB
  8
FeatureAttribs
 70
0
  1
PNOA-H_AMS_1956-57_33k_ES_PAN_2
  2
NAME
  10
345959.824
  20
4654628.725
 40
33.93466
  0
SEQEND
  0
POLYLINE
  8
Unknown_Area_Type
  70
1
  66
1
  0
VERTEX
  8
Unknown_Area_Type
  10
346477.075
  20
4653174.616
  0
VERTEX
  8
Unknown_Area_Type
  10
346489.593
  20
4653752.362
  0
VERTEX
  8
Unknown_Area_Type
  10
346529.013
  20
4655571.070
  0
VERTEX
  8
Unknown_Area_Type
  10
345579.000
  20
4656455.500
  0
VERTEX
  8
Unknown_Area_Type
  10
345331.000
  20
4653603.500
  0
VERTEX
  8
Unknown_Area_Type
  10
346179.500
  20
4653100.500
  0
VERTEX
  8
Unknown_Area_Type
  10
346477.075
  20
4653174.616
  0
SEQEND
  8
Unknown_Area_Type
  0
INSERT
  8
FeatureAttribs
  2
FEATURE
  41
1
  42
1
  43
1
  50
0
  10
318883.045
  20
4656102.724
 66
1
  0
ATTRIB
  8
FeatureAttribs
 70
0
  1
PNOA-H_AMS_1956-57_33k_ES_PAN_2
  2
NAME
  10
318883.045
  20
4656102.724
 40
33.93466
  0
SEQEND
  0
POLYLINE
  8
Unknown_Area_Type
  70
1
  66
1
  0
VERTEX
  8
Unknown_Area_Type
  10
318991.789
  20
4658348.103
  0
VERTEX
  8
Unknown_Area_Type
  10
318950.071
  20
4656717.529
  0
VERTEX
  8
Unknown_Area_Type
  10
318890.909
  20
4654404.238
  0
VERTEX
  8
Unknown_Area_Type
  10
318875.952
  20
4653819.174
  0
VERTEX
  8
Unknown_Area_Type
  10
318831.743
  20
4653831.151
  0
VERTEX
  8
Unknown_Area_Type
  10
318831.743
  20
4658386.274
  0
VERTEX
  8
Unknown_Area_Type
  10
318991.789
  20
4658348.103
  0
SEQEND
  8
Unknown_Area_Type
  0
INSERT
  8
FeatureAttribs
  2
FEATURE
  41
1
  42
1
  43
1
  50
0
  10
319386.887
  20
4656057.514
 66
1
  0
ATTRIB
  8
FeatureAttribs
 70
0
  1
PNOA-H_AMS_1956-57_33k_ES_PAN_2
  2
NAME
  10
319386.887
  20
4656057.514
 40
33.93466
  0
SEQEND
  0
POLYLINE
  8
Unknown_Area_Type
  70
1
  66
1
  0
VERTEX
  8
Unknown_Area_Type
  10
318991.789
  20
4658348.103
  0
VERTEX
  8
Unknown_Area_Type
  10
319879.000
  20
4658136.500
  0
VERTEX
  8
Unknown_Area_Type
  10
319855.000
  20
4654399.500
  0
VERTEX
  8
Unknown_Area_Type
  10
319855.000
  20
4654344.000
  0
VERTEX
  8
Unknown_Area_Type
  10
319854.000
  20
4654200.000
  0
VERTEX
  8
Unknown_Area_Type
  10
319087.000
  20
4653762.000
  0
VERTEX
  8
Unknown_Area_Type
  10
318875.952
  20
4653819.174
  0
VERTEX
  8
Unknown_Area_Type
  10
318890.909
  20
4654404.238
  0
VERTEX
  8
Unknown_Area_Type
  10
318950.071
  20
4656717.529
  0
VERTEX
  8
Unknown_Area_Type
  10
318991.789
  20
4658348.103
  0
SEQEND
  8
Unknown_Area_Type
  0
INSERT
  8
FeatureAttribs
  2
FEATURE
  41
1
  42
1
  43
1
  50
0
  10
319386.887
  20
4656057.514
 66
1
  0
ATTRIB
  8
FeatureAttribs
 70
0
  1
PNOA-H_AMS_1956-57_33k_ES_PAN_2
  2
NAME
  10
319386.887
  20
4656057.514
 40
33.93466
  0
SEQEND
  0
POLYLINE
  8
Unknown_Area_Type
  70
1
  66
1
  0
VERTEX
  8
Unknown_Area_Type
  10
318991.789
  20
4658348.103
  0
VERTEX
  8
Unknown_Area_Type
  10
318950.071
  20
4656717.529
  0
VERTEX
  8
Unknown_Area_Type
  10
318890.909
  20
4654404.238
  0
VERTEX
  8
Unknown_Area_Type
  10
318875.952
  20
4653819.174
  0
VERTEX
  8
Unknown_Area_Type
  10
319087.000
  20
4653762.000
  0
VERTEX
  8
Unknown_Area_Type
  10
319854.000
  20
4654200.000
  0
VERTEX
  8
Unknown_Area_Type
  10
319855.000
  20
4654344.000
  0
VERTEX
  8
Unknown_Area_Type
  10
319855.000
  20
4654399.500
  0
VERTEX
  8
Unknown_Area_Type
  10
319879.000
  20
4658136.500
  0
VERTEX
  8
Unknown_Area_Type
  10
318991.789
  20
4658348.103
  0
SEQEND
  8
Unknown_Area_Type
  0
INSERT
  8
FeatureAttribs
  2
FEATURE
  41
1
  42
1
  43
1
  50
0
  10
329842.232
  20
4655908.968
 66
1
  0
ATTRIB
  8
FeatureAttribs
 70
0
  1
PNOA-H_AMS_1956-57_33k_ES_PAN_2
  2
NAME
  10
329842.232
  20
4655908.968
 40
33.93466
  0
SEQEND
  0
POLYLINE
  8
Unknown_Area_Type
  70
1
  66
1
  0
VERTEX
  8
Unknown_Area_Type
  10
329362.000
  20
4658242.000
  0
VERTEX
  8
Unknown_Area_Type
  10
331268.000
  20
4657880.000
  0
VERTEX
  8
Unknown_Area_Type
  10
331184.000
  20
4653698.500
  0
VERTEX
  8
Unknown_Area_Type
  10
331183.500
  20
4653688.000
  0
VERTEX
  8
Unknown_Area_Type
  10
331084.500
  20
4653619.000
  0
VERTEX
  8
Unknown_Area_Type
  10
328398.500
  20
4653876.500
  0
VERTEX
  8
Unknown_Area_Type
  10
328504.000
  20
4657953.000
  0
VERTEX
  8
Unknown_Area_Type
  10
329281.500
  20
4658257.000
  0
VERTEX
  8
Unknown_Area_Type
  10
329360.000
  20
4658242.000
  0
VERTEX
  8
Unknown_Area_Type
  10
329362.000
  20
4658242.000
  0
SEQEND
  8
Unknown_Area_Type
  0
INSERT
  8
FeatureAttribs
  2
FEATURE
  41
1
  42
1
  43
1
  50
0
  10
329842.232
  20
4655908.968
 66
1
  0
ATTRIB
  8
FeatureAttribs
 70
0
  1
PNOA-H_AMS_1956-57_33k_ES_PAN_2
  2
NAME
  10
329842.232
  20
4655908.968
 40
33.93466
  0
SEQEND
  0
POLYLINE
  8
Unknown_Area_Type
  70
1
  66
1
  0
VERTEX
  8
Unknown_Area_Type
  10
329362.000
  20
4658242.000
  0
VERTEX
  8
Unknown_Area_Type
  10
329360.000
  20
4658242.000
  0
VERTEX
  8
Unknown_Area_Type
  10
329281.500
  20
4658257.000
  0
VERTEX
  8
Unknown_Area_Type
  10
328504.000
  20
4657953.000
  0
VERTEX
  8
Unknown_Area_Type
  10
328398.500
  20
4653876.500
  0
VERTEX
  8
Unknown_Area_Type
  10
331084.500
  20
4653619.000
  0
VERTEX
  8
Unknown_Area_Type
  10
331183.500
  20
4653688.000
  0
VERTEX
  8
Unknown_Area_Type
  10
331184.000
  20
4653698.500
  0
VERTEX
  8
Unknown_Area_Type
  10
331268.000
  20
4657880.000
  0
VERTEX
  8
Unknown_Area_Type
  10
329362.000
  20
4658242.000
  0
SEQEND
  8
Unknown_Area_Type
  0
INSERT
  8
FeatureAttribs
  2
FEATURE
  41
1
  42
1
  43
1
  50
0
  10
327029.876
  20
4655986.734
 66
1
  0
ATTRIB
  8
FeatureAttribs
 70
0
  1
PNOA-H_AMS_1956-57_33k_ES_PAN_2
  2
NAME
  10
327029.876
  20
4655986.734
 40
33.93466
  0
SEQEND
  0
POLYLINE
  8
Unknown_Area_Type
  70
1
  66
1
  0
VERTEX
  8
Unknown_Area_Type
  10
327314.000
  20
4658181.000
  0
VERTEX
  8
Unknown_Area_Type
  10
328504.000
  20
4657953.000
  0
VERTEX
  8
Unknown_Area_Type
  10
328398.500
  20
4653876.500
  0
VERTEX
  8
Unknown_Area_Type
  10
328090.500
  20
4653682.000
  0
VERTEX
  8
Unknown_Area_Type
  10
325527.500
  20
4653985.500
  0
VERTEX
  8
Unknown_Area_Type
  10
325673.000
  20
4658028.000
  0
VERTEX
  8
Unknown_Area_Type
  10
326501.500
  20
4658336.500
  0
VERTEX
  8
Unknown_Area_Type
  10
327312.500
  20
4658181.000
  0
VERTEX
  8
Unknown_Area_Type
  10
327314.000
  20
4658181.000
  0
SEQEND
  8
Unknown_Area_Type
  0
INSERT
  8
FeatureAttribs
  2
FEATURE
  41
1
  42
1
  43
1
  50
0
  10
327029.876
  20
4655986.734
 66
1
  0
ATTRIB
  8
FeatureAttribs
 70
0
  1
PNOA-H_AMS_1956-57_33k_ES_PAN_2
  2
NAME
  10
327029.876
  20
4655986.734
 40
33.93466
  0
SEQEND
  0
POLYLINE
  8
Unknown_Area_Type
  70
1
  66
1
  0
VERTEX
  8
Unknown_Area_Type
  10
327314.000
  20
4658181.000
  0
VERTEX
  8
Unknown_Area_Type
  10
327312.500
  20
4658181.000
  0
VERTEX
  8
Unknown_Area_Type
  10
326501.500
  20
4658336.500
  0
VERTEX
  8
Unknown_Area_Type
  10
325673.000
  20
4658028.000
  0
VERTEX
  8
Unknown_Area_Type
  10
325527.500
  20
4653985.500
  0
VERTEX
  8
Unknown_Area_Type
  10
328090.500
  20
4653682.000
  0
VERTEX
  8
Unknown_Area_Type
  10
328398.500
  20
4653876.500
  0
VERTEX
  8
Unknown_Area_Type
  10
328504.000
  20
4657953.000
  0
VERTEX
  8
Unknown_Area_Type
  10
327314.000
  20
4658181.000
  0
SEQEND
  8
Unknown_Area_Type
  0
INSERT
  8
FeatureAttribs
  2
FEATURE
  41
1
  42
1
  43
1
  50
0
  10
335395.604
  20
4655763.538
 66
1
  0
ATTRIB
  8
FeatureAttribs
 70
0
  1
PNOA-H_AMS_1956-57_33k_ES_PAN_2
  2
NAME
  10
335395.604
  20
4655763.538
 40
33.93466
  0
SEQEND
  0
POLYLINE
  8
Unknown_Area_Type
  70
1
  66
1
  0
VERTEX
  8
Unknown_Area_Type
  10
335506.000
  20
4657979.000
  0
VERTEX
  8
Unknown_Area_Type
  10
336955.000
  20
4657660.500
  0
VERTEX
  8
Unknown_Area_Type
  10
336772.000
  20
4653699.500
  0
VERTEX
  8
Unknown_Area_Type
  10
334134.000
  20
4653521.500
  0
VERTEX
  8
Unknown_Area_Type
  10
334126.000
  20
4653521.500
  0
VERTEX
  8
Unknown_Area_Type
  10
334124.500
  20
4653522.500
  0
VERTEX
  8
Unknown_Area_Type
  10
333901.000
  20
4653687.000
  0
VERTEX
  8
Unknown_Area_Type
  10
334039.500
  20
4657785.500
  0
VERTEX
  8
Unknown_Area_Type
  10
334934.500
  20
4658104.500
  0
VERTEX
  8
Unknown_Area_Type
  10
335505.000
  20
4657979.000
  0
VERTEX
  8
Unknown_Area_Type
  10
335506.000
  20
4657979.000
  0
SEQEND
  8
Unknown_Area_Type
  0
INSERT
  8
FeatureAttribs
  2
FEATURE
  41
1
  42
1
  43
1
  50
0
  10
335395.604
  20
4655763.538
 66
1
  0
ATTRIB
  8
FeatureAttribs
 70
0
  1
PNOA-H_AMS_1956-57_33k_ES_PAN_2
  2
NAME
  10
335395.604
  20
4655763.538
 40
33.93466
  0
SEQEND
  0
POLYLINE
  8
Unknown_Area_Type
  70
1
  66
1
  0
VERTEX
  8
Unknown_Area_Type
  10
335506.000
  20
4657979.000
  0
VERTEX
  8
Unknown_Area_Type
  10
335505.000
  20
4657979.000
  0
VERTEX
  8
Unknown_Area_Type
  10
334934.500
  20
4658104.500
  0
VERTEX
  8
Unknown_Area_Type
  10
334039.500
  20
4657785.500
  0
VERTEX
  8
Unknown_Area_Type
  10
333901.000
  20
4653687.000
  0
VERTEX
  8
Unknown_Area_Type
  10
334124.500
  20
4653522.500
  0
VERTEX
  8
Unknown_Area_Type
  10
334126.000
  20
4653521.500
  0
VERTEX
  8
Unknown_Area_Type
  10
334134.000
  20
4653521.500
  0
VERTEX
  8
Unknown_Area_Type
  10
336772.000
  20
4653699.500
  0
VERTEX
  8
Unknown_Area_Type
  10
336955.000
  20
4657660.500
  0
VERTEX
  8
Unknown_Area_Type
  10
335506.000
  20
4657979.000
  0
SEQEND
  8
Unknown_Area_Type
  0
INSERT
  8
FeatureAttribs
  2
FEATURE
  41
1
  42
1
  43
1
  50
0
  10
332588.279
  20
4655857.416
 66
1
  0
ATTRIB
  8
FeatureAttribs
 70
0
  1
PNOA-H_AMS_1956-57_33k_ES_PAN_2
  2
NAME
  10
332588.279
  20
4655857.416
 40
33.93466
  0
SEQEND
  0
POLYLINE
  8
Unknown_Area_Type
  70
1
  66
1
  0
VERTEX
  8
Unknown_Area_Type
  10
331408.500
  20
4657933.000
  0
VERTEX
  8
Unknown_Area_Type
  10
332127.500
  20
4658202.500
  0
VERTEX
  8
Unknown_Area_Type
  10
334039.500
  20
4657785.500
  0
VERTEX
  8
Unknown_Area_Type
  10
333901.000
  20
4653687.000
  0
VERTEX
  8
Unknown_Area_Type
  10
331183.500
  20
4653688.500
  0
VERTEX
  8
Unknown_Area_Type
  10
331267.500
  20
4657878.000
  0
VERTEX
  8
Unknown_Area_Type
  10
331268.000
  20
4657880.000
  0
VERTEX
  8
Unknown_Area_Type
  10
331270.000
  20
4657881.000
  0
VERTEX
  8
Unknown_Area_Type
  10
331407.500
  20
4657932.500
  0
VERTEX
  8
Unknown_Area_Type
  10
331408.500
  20
4657933.000
  0
SEQEND
  8
Unknown_Area_Type
  0
INSERT
  8
FeatureAttribs
  2
FEATURE
  41
1
  42
1
  43
1
  50
0
  10
332588.279
  20
4655857.416
 66
1
  0
ATTRIB
  8
FeatureAttribs
 70
0
  1
PNOA-H_AMS_1956-57_33k_ES_PAN_2
  2
NAME
  10
332588.279
  20
4655857.416
 40
33.93466
  0
SEQEND
  0
POLYLINE
  8
Unknown_Area_Type
  70
1
  66
1
  0
VERTEX
  8
Unknown_Area_Type
  10
331408.500
  20
4657933.000
  0
VERTEX
  8
Unknown_Area_Type
  10
331407.500
  20
4657932.500
  0
VERTEX
  8
Unknown_Area_Type
  10
331270.000
  20
4657881.000
  0
VERTEX
  8
Unknown_Area_Type
  10
331268.000
  20
4657880.000
  0
VERTEX
  8
Unknown_Area_Type
  10
331267.500
  20
4657878.000
  0
VERTEX
  8
Unknown_Area_Type
  10
331183.500
  20
4653688.500
  0
VERTEX
  8
Unknown_Area_Type
  10
333901.000
  20
4653687.000
  0
VERTEX
  8
Unknown_Area_Type
  10
334039.500
  20
4657785.500
  0
VERTEX
  8
Unknown_Area_Type
  10
332127.500
  20
4658202.500
  0
VERTEX
  8
Unknown_Area_Type
  10
331408.500
  20
4657933.000
  0
SEQEND
  8
Unknown_Area_Type
  0
INSERT
  8
FeatureAttribs
  2
FEATURE
  41
1
  42
1
  43
1
  50
0
  10
338282.589
  20
4655648.891
 66
1
  0
ATTRIB
  8
FeatureAttribs
 70
0
  1
PNOA-H_AMS_1956-57_33k_ES_PAN_2
  2
NAME
  10
338282.589
  20
4655648.891
 40
33.93466
  0
SEQEND
  0
POLYLINE
  8
Unknown_Area_Type
  70
1
  66
1
  0
VERTEX
  8
Unknown_Area_Type
  10
337553.000
  20
4657901.500
  0
VERTEX
  8
Unknown_Area_Type
  10
337743.000
  20
4657978.000
  0
VERTEX
  8
Unknown_Area_Type
  10
337748.500
  20
4657978.500
  0
VERTEX
  8
Unknown_Area_Type
  10
339758.000
  20
4657623.000
  0
VERTEX
  8
Unknown_Area_Type
  10
339708.000
  20
4653602.500
  0
VERTEX
  8
Unknown_Area_Type
  10
337121.500
  20
4653437.000
  0
VERTEX
  8
Unknown_Area_Type
  10
336772.000
  20
4653699.000
  0
VERTEX
  8
Unknown_Area_Type
  10
336955.000
  20
4657660.500
  0
VERTEX
  8
Unknown_Area_Type
  10
337552.000
  20
4657901.000
  0
VERTEX
  8
Unknown_Area_Type
  10
337553.000
  20
4657901.500
  0
SEQEND
  8
Unknown_Area_Type
  0
INSERT
  8
FeatureAttribs
  2
FEATURE
  41
1
  42
1
  43
1
  50
0
  10
338282.589
  20
4655648.891
 66
1
  0
ATTRIB
  8
FeatureAttribs
 70
0
  1
PNOA-H_AMS_1956-57_33k_ES_PAN_2
  2
NAME
  10
338282.589
  20
4655648.891
 40
33.93466
  0
SEQEND
  0
POLYLINE
  8
Unknown_Area_Type
  70
1
  66
1
  0
VERTEX
  8
Unknown_Area_Type
  10
337553.000
  20
4657901.500
  0
VERTEX
  8
Unknown_Area_Type
  10
337552.000
  20
4657901.000
  0
VERTEX
  8
Unknown_Area_Type
  10
336955.000
  20
4657660.500
  0
VERTEX
  8
Unknown_Area_Type
  10
336772.000
  20
4653699.000
  0
VERTEX
  8
Unknown_Area_Type
  10
337121.500
  20
4653437.000
  0
VERTEX
  8
Unknown_Area_Type
  10
339708.000
  20
4653602.500
  0
VERTEX
  8
Unknown_Area_Type
  10
339758.000
  20
4657623.000
  0
VERTEX
  8
Unknown_Area_Type
  10
337748.500
  20
4657978.500
  0
VERTEX
  8
Unknown_Area_Type
  10
337743.000
  20
4657978.000
  0
VERTEX
  8
Unknown_Area_Type
  10
337553.000
  20
4657901.500
  0
SEQEND
  8
Unknown_Area_Type
  0
INSERT
  8
FeatureAttribs
  2
FEATURE
  41
1
  42
1
  43
1
  50
0
  10
324164.491
  20
4656109.444
 66
1
  0
ATTRIB
  8
FeatureAttribs
 70
0
  1
PNOA-H_AMS_1956-57_33k_ES_PAN_2
  2
NAME
  10
324164.491
  20
4656109.444
 40
33.93466
  0
SEQEND
  0
POLYLINE
  8
Unknown_Area_Type
  70
1
  66
1
  0
VERTEX
  8
Unknown_Area_Type
  10
325540.500
  20
4654344.000
  0
VERTEX
  8
Unknown_Area_Type
  10
325527.500
  20
4653985.500
  0
VERTEX
  8
Unknown_Area_Type
  10
325131.000
  20
4653740.000
  0
VERTEX
  8
Unknown_Area_Type
  10
322734.000
  20
4654115.000
  0
VERTEX
  8
Unknown_Area_Type
  10
322691.000
  20
4658037.500
  0
VERTEX
  8
Unknown_Area_Type
  10
322691.000
  20
4658083.000
  0
VERTEX
  8
Unknown_Area_Type
  10
322694.500
  20
4658084.500
  0
VERTEX
  8
Unknown_Area_Type
  10
323740.000
  20
4658449.000
  0
VERTEX
  8
Unknown_Area_Type
  10
323748.500
  20
4658450.500
  0
VERTEX
  8
Unknown_Area_Type
  10
325673.000
  20
4658028.500
  0
VERTEX
  8
Unknown_Area_Type
  10
325540.500
  20
4654353.500
  0
VERTEX
  8
Unknown_Area_Type
  10
325540.500
  20
4654344.000
  0
SEQEND
  8
Unknown_Area_Type
  0
INSERT
  8
FeatureAttribs
  2
FEATURE
  41
1
  42
1
  43
1
  50
0
  10
324164.491
  20
4656109.444
 66
1
  0
ATTRIB
  8
FeatureAttribs
 70
0
  1
PNOA-H_AMS_1956-57_33k_ES_PAN_2
  2
NAME
  10
324164.491
  20
4656109.444
 40
33.93466
  0
SEQEND
  0
POLYLINE
  8
Unknown_Area_Type
  70
1
  66
1
  0
VERTEX
  8
Unknown_Area_Type
  10
325540.500
  20
4654344.000
  0
VERTEX
  8
Unknown_Area_Type
  10
325540.500
  20
4654353.500
  0
VERTEX
  8
Unknown_Area_Type
  10
325673.000
  20
4658028.500
  0
VERTEX
  8
Unknown_Area_Type
  10
323748.500
  20
4658450.500
  0
VERTEX
  8
Unknown_Area_Type
  10
323740.000
  20
4658449.000
  0
VERTEX
  8
Unknown_Area_Type
  10
322694.500
  20
4658084.500
  0
VERTEX
  8
Unknown_Area_Type
  10
322691.000
  20
4658083.000
  0
VERTEX
  8
Unknown_Area_Type
  10
322691.000
  20
4658037.500
  0
VERTEX
  8
Unknown_Area_Type
  10
322734.000
  20
4654115.000
  0
VERTEX
  8
Unknown_Area_Type
  10
325131.000
  20
4653740.000
  0
VERTEX
  8
Unknown_Area_Type
  10
325527.500
  20
4653985.500
  0
VERTEX
  8
Unknown_Area_Type
  10
325540.500
  20
4654344.000
  0
SEQEND
  8
Unknown_Area_Type
  0
INSERT
  8
FeatureAttribs
  2
FEATURE
  41
1
  42
1
  43
1
  50
0
  10
328826.021
  20
4669170.430
 66
1
  0
ATTRIB
  8
FeatureAttribs
 70
0
  1
PNOA-H_AMS_1956-57_33k_ES_PAN_2
  2
NAME
  10
328826.021
  20
4669170.430
 40
33.93466
  0
SEQEND
  0
POLYLINE
  8
Unknown_Area_Type
  70
1
  66
1
  0
VERTEX
  8
Unknown_Area_Type
  10
330222.734
  20
4670326.074
  0
VERTEX
  8
Unknown_Area_Type
  10
330155.500
  20
4668051.000
  0
VERTEX
  8
Unknown_Area_Type
  10
329573.500
  20
4667827.000
  0
VERTEX
  8
Unknown_Area_Type
  10
327389.000
  20
4668173.500
  0
VERTEX
  8
Unknown_Area_Type
  10
327387.500
  20
4668174.000
  0
VERTEX
  8
Unknown_Area_Type
  10
327387.500
  20
4668181.000
  0
VERTEX
  8
Unknown_Area_Type
  10
327468.817
  20
4670393.035
  0
VERTEX
  8
Unknown_Area_Type
  10
329631.406
  20
4670340.225
  0
VERTEX
  8
Unknown_Area_Type
  10
330222.734
  20
4670326.074
  0
SEQEND
  8
Unknown_Area_Type
  0
INSERT
  8
FeatureAttribs
  2
FEATURE
  41
1
  42
1
  43
1
  50
0
  10
328826.021
  20
4669170.430
 66
1
  0
ATTRIB
  8
FeatureAttribs
 70
0
  1
PNOA-H_AMS_1956-57_33k_ES_PAN_2
  2
NAME
  10
328826.021
  20
4669170.430
 40
33.93466
  0
SEQEND
  0
POLYLINE
  8
Unknown_Area_Type
  70
1
  66
1
  0
VERTEX
  8
Unknown_Area_Type
  10
330222.734
  20
4670326.074
  0
VERTEX
  8
Unknown_Area_Type
  10
329631.406
  20
4670340.225
  0
VERTEX
  8
Unknown_Area_Type
  10
327468.817
  20
4670393.035
  0
VERTEX
  8
Unknown_Area_Type
  10
327387.500
  20
4668181.000
  0
VERTEX
  8
Unknown_Area_Type
  10
327387.500
  20
4668174.000
  0
VERTEX
  8
Unknown_Area_Type
  10
327389.000
  20
4668173.500
  0
VERTEX
  8
Unknown_Area_Type
  10
329573.500
  20
4667827.000
  0
VERTEX
  8
Unknown_Area_Type
  10
330155.500
  20
4668051.000
  0
VERTEX
  8
Unknown_Area_Type
  10
330222.734
  20
4670326.074
  0
SEQEND
  8
Unknown_Area_Type
  0
INSERT
  8
FeatureAttribs
  2
FEATURE
  41
1
  42
1
  43
1
  50
0
  10
331592.478
  20
4669093.772
 66
1
  0
ATTRIB
  8
FeatureAttribs
 70
0
  1
PNOA-H_AMS_1956-57_33k_ES_PAN_2
  2
NAME
  10
331592.478
  20
4669093.772
 40
33.93466
  0
SEQEND
  0
POLYLINE
  8
Unknown_Area_Type
  70
1
  66
1
  0
VERTEX
  8
Unknown_Area_Type
  10
333015.811
  20
4670259.234
  0
VERTEX
  8
Unknown_Area_Type
  10
332927.500
  20
4667978.500
  0
VERTEX
  8
Unknown_Area_Type
  10
332345.500
  20
4667753.000
  0
VERTEX
  8
Unknown_Area_Type
  10
330155.500
  20
4668051.000
  0
VERTEX
  8
Unknown_Area_Type
  10
330222.734
  20
4670326.074
  0
VERTEX
  8
Unknown_Area_Type
  10
333015.811
  20
4670259.234
  0
SEQEND
  8
Unknown_Area_Type
  0
INSERT
  8
FeatureAttribs
  2
FEATURE
  41
1
  42
1
  43
1
  50
0
  10
331592.478
  20
4669093.772
 66
1
  0
ATTRIB
  8
FeatureAttribs
 70
0
  1
PNOA-H_AMS_1956-57_33k_ES_PAN_2
  2
NAME
  10
331592.478
  20
4669093.772
 40
33.93466
  0
SEQEND
  0
POLYLINE
  8
Unknown_Area_Type
  70
1
  66
1
  0
VERTEX
  8
Unknown_Area_Type
  10
333015.811
  20
4670259.234
  0
VERTEX
  8
Unknown_Area_Type
  10
330222.734
  20
4670326.074
  0
VERTEX
  8
Unknown_Area_Type
  10
330155.500
  20
4668051.000
  0
VERTEX
  8
Unknown_Area_Type
  10
332345.500
  20
4667753.000
  0
VERTEX
  8
Unknown_Area_Type
  10
332927.500
  20
4667978.500
  0
VERTEX
  8
Unknown_Area_Type
  10
333015.811
  20
4670259.234
  0
SEQEND
  8
Unknown_Area_Type
  0
INSERT
  8
FeatureAttribs
  2
FEATURE
  41
1
  42
1
  43
1
  50
0
  10
326054.109
  20
4669255.664
 66
1
  0
ATTRIB
  8
FeatureAttribs
 70
0
  1
PNOA-H_AMS_1956-57_33k_ES_PAN_2
  2
NAME
  10
326054.109
  20
4669255.664
 40
33.93466
  0
SEQEND
  0
POLYLINE
  8
Unknown_Area_Type
  70
1
  66
1
  0
VERTEX
  8
Unknown_Area_Type
  10
327468.802
  20
4670393.035
  0
VERTEX
  8
Unknown_Area_Type
  10
327406.000
  20
4668685.000
  0
VERTEX
  8
Unknown_Area_Type
  10
327406.000
  20
4668680.000
  0
VERTEX
  8
Unknown_Area_Type
  10
327387.500
  20
4668174.000
  0
VERTEX
  8
Unknown_Area_Type
  10
326669.500
  20
4667916.000
  0
VERTEX
  8
Unknown_Area_Type
  10
324614.000
  20
4668286.500
  0
VERTEX
  8
Unknown_Area_Type
  10
324683.480
  20
4670461.788
  0
VERTEX
  8
Unknown_Area_Type
  10
326189.462
  20
4670424.276
  0
VERTEX
  8
Unknown_Area_Type
  10
327468.802
  20
4670393.035
  0
SEQEND
  8
Unknown_Area_Type
  0
INSERT
  8
FeatureAttribs
  2
FEATURE
  41
1
  42
1
  43
1
  50
0
  10
326054.109
  20
4669255.664
 66
1
  0
ATTRIB
  8
FeatureAttribs
 70
0
  1
PNOA-H_AMS_1956-57_33k_ES_PAN_2
  2
NAME
  10
326054.109
  20
4669255.664
 40
33.93466
  0
SEQEND
  0
POLYLINE
  8
Unknown_Area_Type
  70
1
  66
1
  0
VERTEX
  8
Unknown_Area_Type
  10
327468.802
  20
4670393.035
  0
VERTEX
  8
Unknown_Area_Type
  10
326189.462
  20
4670424.276
  0
VERTEX
  8
Unknown_Area_Type
  10
324683.480
  20
4670461.788
  0
VERTEX
  8
Unknown_Area_Type
  10
324614.000
  20
4668286.500
  0
VERTEX
  8
Unknown_Area_Type
  10
326669.500
  20
4667916.000
  0
VERTEX
  8
Unknown_Area_Type
  10
327387.500
  20
4668174.000
  0
VERTEX
  8
Unknown_Area_Type
  10
327406.000
  20
4668680.000
  0
VERTEX
  8
Unknown_Area_Type
  10
327406.000
  20
4668685.000
  0
VERTEX
  8
Unknown_Area_Type
  10
327468.802
  20
4670393.035
  0
SEQEND
  8
Unknown_Area_Type
  0
INSERT
  8
FeatureAttribs
  2
FEATURE
  41
1
  42
1
  43
1
  50
0
  10
319218.043
  20
4669522.676
 66
1
  0
ATTRIB
  8
FeatureAttribs
 70
0
  1
PNOA-H_AMS_1956-57_33k_ES_PAN_2
  2
NAME
  10
319218.043
  20
4669522.676
 40
33.93466
  0
SEQEND
  0
POLYLINE
  8
Unknown_Area_Type
  70
1
  66
1
  0
VERTEX
  8
Unknown_Area_Type
  10
319250.441
  20
4668447.906
  0
VERTEX
  8
Unknown_Area_Type
  10
319140.500
  20
4668470.000
  0
VERTEX
  8
Unknown_Area_Type
  10
319176.054
  20
4670597.446
  0
VERTEX
  8
Unknown_Area_Type
  10
319304.807
  20
4670597.446
  0
VERTEX
  8
Unknown_Area_Type
  10
319305.547
  20
4670597.426
  0
VERTEX
  8
Unknown_Area_Type
  10
319250.441
  20
4668447.906
  0
SEQEND
  8
Unknown_Area_Type
  0
INSERT
  8
FeatureAttribs
  2
FEATURE
  41
1
  42
1
  43
1
  50
0
  10
320588.344
  20
4669410.331
 66
1
  0
ATTRIB
  8
FeatureAttribs
 70
0
  1
PNOA-H_AMS_1956-57_33k_ES_PAN_2
  2
NAME
  10
320588.344
  20
4669410.331
 40
33.93466
  0
SEQEND
  0
POLYLINE
  8
Unknown_Area_Type
  70
1
  66
1
  0
VERTEX
  8
Unknown_Area_Type
  10
321916.650
  20
4670531.111
  0
VERTEX
  8
Unknown_Area_Type
  10
321853.000
  20
4668686.000
  0
VERTEX
  8
Unknown_Area_Type
  10
321853.000
  20
4668680.000
  0
VERTEX
  8
Unknown_Area_Type
  10
321842.000
  20
4668363.500
  0
VERTEX
  8
Unknown_Area_Type
  10
321014.000
  20
4668093.500
  0
VERTEX
  8
Unknown_Area_Type
  10
319250.441
  20
4668447.906
  0
VERTEX
  8
Unknown_Area_Type
  10
319305.547
  20
4670597.426
  0
VERTEX
  8
Unknown_Area_Type
  10
321916.650
  20
4670531.111
  0
SEQEND
  8
Unknown_Area_Type
  0
INSERT
  8
FeatureAttribs
  2
FEATURE
  41
1
  42
1
  43
1
  50
0
  10
320588.344
  20
4669410.331
 66
1
  0
ATTRIB
  8
FeatureAttribs
 70
0
  1
PNOA-H_AMS_1956-57_33k_ES_PAN_2
  2
NAME
  10
320588.344
  20
4669410.331
 40
33.93466
  0
SEQEND
  0
POLYLINE
  8
Unknown_Area_Type
  70
1
  66
1
  0
VERTEX
  8
Unknown_Area_Type
  10
321916.650
  20
4670531.111
  0
VERTEX
  8
Unknown_Area_Type
  10
319305.547
  20
4670597.426
  0
VERTEX
  8
Unknown_Area_Type
  10
319250.441
  20
4668447.906
  0
VERTEX
  8
Unknown_Area_Type
  10
321014.000
  20
4668093.500
  0
VERTEX
  8
Unknown_Area_Type
  10
321842.000
  20
4668363.500
  0
VERTEX
  8
Unknown_Area_Type
  10
321853.000
  20
4668680.000
  0
VERTEX
  8
Unknown_Area_Type
  10
321853.000
  20
4668686.000
  0
VERTEX
  8
Unknown_Area_Type
  10
321916.650
  20
4670531.111
  0
SEQEND
  8
Unknown_Area_Type
  0
INSERT
  8
FeatureAttribs
  2
FEATURE
  41
1
  42
1
  43
1
  50
0
  10
323275.270
  20
4669331.504
 66
1
  0
ATTRIB
  8
FeatureAttribs
 70
0
  1
PNOA-H_AMS_1956-57_33k_ES_PAN_2
  2
NAME
  10
323275.270
  20
4669331.504
 40
33.93466
  0
SEQEND
  0
POLYLINE
  8
Unknown_Area_Type
  70
1
  66
1
  0
VERTEX
  8
Unknown_Area_Type
  10
324683.252
  20
4670461.793
  0
VERTEX
  8
Unknown_Area_Type
  10
324613.500
  20
4668286.000
  0
VERTEX
  8
Unknown_Area_Type
  10
323822.500
  20
4668003.000
  0
VERTEX
  8
Unknown_Area_Type
  10
323817.000
  20
4668002.000
  0
VERTEX
  8
Unknown_Area_Type
  10
321842.000
  20
4668363.500
  0
VERTEX
  8
Unknown_Area_Type
  10
321916.709
  20
4670531.110
  0
VERTEX
  8
Unknown_Area_Type
  10
322747.509
  20
4670510.010
  0
VERTEX
  8
Unknown_Area_Type
  10
324683.252
  20
4670461.793
  0
SEQEND
  8
Unknown_Area_Type
  0
INSERT
  8
FeatureAttribs
  2
FEATURE
  41
1
  42
1
  43
1
  50
0
  10
323275.270
  20
4669331.504
 66
1
  0
ATTRIB
  8
FeatureAttribs
 70
0
  1
PNOA-H_AMS_1956-57_33k_ES_PAN_2
  2
NAME
  10
323275.270
  20
4669331.504
 40
33.93466
  0
SEQEND
  0
POLYLINE
  8
Unknown_Area_Type
  70
1
  66
1
  0
VERTEX
  8
Unknown_Area_Type
  10
324683.252
  20
4670461.793
  0
VERTEX
  8
Unknown_Area_Type
  10
322747.509
  20
4670510.010
  0
VERTEX
  8
Unknown_Area_Type
  10
321916.709
  20
4670531.110
  0
VERTEX
  8
Unknown_Area_Type
  10
321842.000
  20
4668363.500
  0
VERTEX
  8
Unknown_Area_Type
  10
323817.000
  20
4668002.000
  0
VERTEX
  8
Unknown_Area_Type
  10
323822.500
  20
4668003.000
  0
VERTEX
  8
Unknown_Area_Type
  10
324613.500
  20
4668286.000
  0
VERTEX
  8
Unknown_Area_Type
  10
324683.252
  20
4670461.793
  0
SEQEND
  8
Unknown_Area_Type
  0
INSERT
  8
FeatureAttribs
  2
FEATURE
  41
1
  42
1
  43
1
  50
0
  10
337105.868
  20
4668959.515
 66
1
  0
ATTRIB
  8
FeatureAttribs
 70
0
  1
PNOA-H_AMS_1956-57_33k_ES_PAN_2
  2
NAME
  10
337105.868
  20
4668959.515
 40
33.93466
  0
SEQEND
  0
POLYLINE
  8
Unknown_Area_Type
  70
1
  66
1
  0
VERTEX
  8
Unknown_Area_Type
  10
338499.142
  20
4670131.635
  0
VERTEX
  8
Unknown_Area_Type
  10
338407.000
  20
4667842.500
  0
VERTEX
  8
Unknown_Area_Type
  10
337878.000
  20
4667623.500
  0
VERTEX
  8
Unknown_Area_Type
  10
337871.500
  20
4667621.000
  0
VERTEX
  8
Unknown_Area_Type
  10
337866.500
  20
4667621.000
  0
VERTEX
  8
Unknown_Area_Type
  10
335702.000
  20
4667901.000
  0
VERTEX
  8
Unknown_Area_Type
  10
335771.847
  20
4670194.599
  0
VERTEX
  8
Unknown_Area_Type
  10
336515.266
  20
4670177.171
  0
VERTEX
  8
Unknown_Area_Type
  10
338499.142
  20
4670131.635
  0
SEQEND
  8
Unknown_Area_Type
  0
INSERT
  8
FeatureAttribs
  2
FEATURE
  41
1
  42
1
  43
1
  50
0
  10
337105.868
  20
4668959.515
 66
1
  0
ATTRIB
  8
FeatureAttribs
 70
0
  1
PNOA-H_AMS_1956-57_33k_ES_PAN_2
  2
NAME
  10
337105.868
  20
4668959.515
 40
33.93466
  0
SEQEND
  0
POLYLINE
  8
Unknown_Area_Type
  70
1
  66
1
  0
VERTEX
  8
Unknown_Area_Type
  10
338499.142
  20
4670131.635
  0
VERTEX
  8
Unknown_Area_Type
  10
336515.266
  20
4670177.171
  0
VERTEX
  8
Unknown_Area_Type
  10
335771.847
  20
4670194.599
  0
VERTEX
  8
Unknown_Area_Type
  10
335702.000
  20
4667901.000
  0
VERTEX
  8
Unknown_Area_Type
  10
337866.500
  20
4667621.000
  0
VERTEX
  8
Unknown_Area_Type
  10
337871.500
  20
4667621.000
  0
VERTEX
  8
Unknown_Area_Type
  10
337878.000
  20
4667623.500
  0
VERTEX
  8
Unknown_Area_Type
  10
338407.000
  20
4667842.500
  0
VERTEX
  8
Unknown_Area_Type
  10
338499.142
  20
4670131.635
  0
SEQEND
  8
Unknown_Area_Type
  0
INSERT
  8
FeatureAttribs
  2
FEATURE
  41
1
  42
1
  43
1
  50
0
  10
339817.651
  20
4668895.474
 66
1
  0
ATTRIB
  8
FeatureAttribs
 70
0
  1
PNOA-H_AMS_1956-57_33k_ES_PAN_2
  2
NAME
  10
339817.651
  20
4668895.474
 40
33.93466
  0
SEQEND
  0
POLYLINE
  8
Unknown_Area_Type
  70
1
  66
1
  0
VERTEX
  8
Unknown_Area_Type
  10
341203.063
  20
4670070.180
  0
VERTEX
  8
Unknown_Area_Type
  10
341098.000
  20
4667719.500
  0
VERTEX
  8
Unknown_Area_Type
  10
340715.000
  20
4667558.500
  0
VERTEX
  8
Unknown_Area_Type
  10
340709.000
  20
4667557.500
  0
VERTEX
  8
Unknown_Area_Type
  10
338408.000
  20
4667842.500
  0
VERTEX
  8
Unknown_Area_Type
  10
338407.000
  20
4667844.000
  0
VERTEX
  8
Unknown_Area_Type
  10
338410.000
  20
4667919.000
  0
VERTEX
  8
Unknown_Area_Type
  10
338499.107
  20
4670131.636
  0
VERTEX
  8
Unknown_Area_Type
  10
339957.183
  20
4670098.168
  0
VERTEX
  8
Unknown_Area_Type
  10
341203.063
  20
4670070.180
  0
SEQEND
  8
Unknown_Area_Type
  0
INSERT
  8
FeatureAttribs
  2
FEATURE
  41
1
  42
1
  43
1
  50
0
  10
339817.651
  20
4668895.474
 66
1
  0
ATTRIB
  8
FeatureAttribs
 70
0
  1
PNOA-H_AMS_1956-57_33k_ES_PAN_2
  2
NAME
  10
339817.651
  20
4668895.474
 40
33.93466
  0
SEQEND
  0
POLYLINE
  8
Unknown_Area_Type
  70
1
  66
1
  0
VERTEX
  8
Unknown_Area_Type
  10
341203.063
  20
4670070.180
  0
VERTEX
  8
Unknown_Area_Type
  10
339957.183
  20
4670098.168
  0
VERTEX
  8
Unknown_Area_Type
  10
338499.107
  20
4670131.636
  0
VERTEX
  8
Unknown_Area_Type
  10
338410.000
  20
4667919.000
  0
VERTEX
  8
Unknown_Area_Type
  10
338407.000
  20
4667844.000
  0
VERTEX
  8
Unknown_Area_Type
  10
338408.000
  20
4667842.500
  0
VERTEX
  8
Unknown_Area_Type
  10
340709.000
  20
4667557.500
  0
VERTEX
  8
Unknown_Area_Type
  10
340715.000
  20
4667558.500
  0
VERTEX
  8
Unknown_Area_Type
  10
341098.000
  20
4667719.500
  0
VERTEX
  8
Unknown_Area_Type
  10
341203.063
  20
4670070.180
  0
SEQEND
  8
Unknown_Area_Type
  0
INSERT
  8
FeatureAttribs
  2
FEATURE
  41
1
  42
1
  43
1
  50
0
  10
318994.582
  20
4669482.068
 66
1
  0
ATTRIB
  8
FeatureAttribs
 70
0
  1
PNOA-H_AMS_1956-57_33k_ES_PAN_2
  2
NAME
  10
318994.582
  20
4669482.068
 40
33.93466
  0
SEQEND
  0
POLYLINE
  8
Unknown_Area_Type
  70
1
  66
1
  0
VERTEX
  8
Unknown_Area_Type
  10
319176.058
  20
4670597.446
  0
VERTEX
  8
Unknown_Area_Type
  10
319140.500
  20
4668469.500
  0
VERTEX
  8
Unknown_Area_Type
  10
318831.743
  20
4668366.690
  0
VERTEX
  8
Unknown_Area_Type
  10
318831.743
  20
4670597.446
  0
VERTEX
  8
Unknown_Area_Type
  10
319176.058
  20
4670597.446
  0
SEQEND
  8
Unknown_Area_Type
  0
INSERT
  8
FeatureAttribs
  2
FEATURE
  41
1
  42
1
  43
1
  50
0
  10
345290.049
  20
4668762.126
 66
1
  0
ATTRIB
  8
FeatureAttribs
 70
0
  1
PNOA-H_AMS_1956-57_33k_ES_PAN_2
  2
NAME
  10
345290.049
  20
4668762.126
 40
33.93466
  0
SEQEND
  0
POLYLINE
  8
Unknown_Area_Type
  70
1
  66
1
  0
VERTEX
  8
Unknown_Area_Type
  10
346735.269
  20
4669947.532
  0
VERTEX
  8
Unknown_Area_Type
  10
346646.000
  20
4667611.000
  0
VERTEX
  8
Unknown_Area_Type
  10
346645.500
  20
4667608.000
  0
VERTEX
  8
Unknown_Area_Type
  10
346635.500
  20
4667603.000
  0
VERTEX
  8
Unknown_Area_Type
  10
346293.000
  20
4667438.000
  0
VERTEX
  8
Unknown_Area_Type
  10
343812.500
  20
4667670.500
  0
VERTEX
  8
Unknown_Area_Type
  10
343921.919
  20
4670009.358
  0
VERTEX
  8
Unknown_Area_Type
  10
346735.269
  20
4669947.532
  0
SEQEND
  8
Unknown_Area_Type
  0
INSERT
  8
FeatureAttribs
  2
FEATURE
  41
1
  42
1
  43
1
  50
0
  10
345290.049
  20
4668762.126
 66
1
  0
ATTRIB
  8
FeatureAttribs
 70
0
  1
PNOA-H_AMS_1956-57_33k_ES_PAN_2
  2
NAME
  10
345290.049
  20
4668762.126
 40
33.93466
  0
SEQEND
  0
POLYLINE
  8
Unknown_Area_Type
  70
1
  66
1
  0
VERTEX
  8
Unknown_Area_Type
  10
346735.269
  20
4669947.532
  0
VERTEX
  8
Unknown_Area_Type
  10
343921.919
  20
4670009.358
  0
VERTEX
  8
Unknown_Area_Type
  10
343812.500
  20
4667670.500
  0
VERTEX
  8
Unknown_Area_Type
  10
346293.000
  20
4667438.000
  0
VERTEX
  8
Unknown_Area_Type
  10
346635.500
  20
4667603.000
  0
VERTEX
  8
Unknown_Area_Type
  10
346645.500
  20
4667608.000
  0
VERTEX
  8
Unknown_Area_Type
  10
346646.000
  20
4667611.000
  0
VERTEX
  8
Unknown_Area_Type
  10
346735.269
  20
4669947.532
  0
SEQEND
  8
Unknown_Area_Type
  0
INSERT
  8
FeatureAttribs
  2
FEATURE
  41
1
  42
1
  43
1
  50
0
  10
334367.110
  20
4669016.919
 66
1
  0
ATTRIB
  8
FeatureAttribs
 70
0
  1
PNOA-H_AMS_1956-57_33k_ES_PAN_2
  2
NAME
  10
334367.110
  20
4669016.919
 40
33.93466
  0
SEQEND
  0
POLYLINE
  8
Unknown_Area_Type
  70
1
  66
1
  0
VERTEX
  8
Unknown_Area_Type
  10
335772.018
  20
4670194.595
  0
VERTEX
  8
Unknown_Area_Type
  10
335702.500
  20
4667905.500
  0
VERTEX
  8
Unknown_Area_Type
  10
335701.500
  20
4667900.500
  0
VERTEX
  8
Unknown_Area_Type
  10
335093.500
  20
4667665.500
  0
VERTEX
  8
Unknown_Area_Type
  10
335088.000
  20
4667664.500
  0
VERTEX
  8
Unknown_Area_Type
  10
332927.500
  20
4667978.500
  0
VERTEX
  8
Unknown_Area_Type
  10
333015.811
  20
4670259.234
  0
VERTEX
  8
Unknown_Area_Type
  10
333073.340
  20
4670257.857
  0
VERTEX
  8
Unknown_Area_Type
  10
335772.018
  20
4670194.595
  0
SEQEND
  8
Unknown_Area_Type
  0
INSERT
  8
FeatureAttribs
  2
FEATURE
  41
1
  42
1
  43
1
  50
0
  10
334367.110
  20
4669016.919
 66
1
  0
ATTRIB
  8
FeatureAttribs
 70
0
  1
PNOA-H_AMS_1956-57_33k_ES_PAN_2
  2
NAME
  10
334367.110
  20
4669016.919
 40
33.93466
  0
SEQEND
  0
POLYLINE
  8
Unknown_Area_Type
  70
1
  66
1
  0
VERTEX
  8
Unknown_Area_Type
  10
335772.018
  20
4670194.595
  0
VERTEX
  8
Unknown_Area_Type
  10
333073.340
  20
4670257.857
  0
VERTEX
  8
Unknown_Area_Type
  10
333015.811
  20
4670259.234
  0
VERTEX
  8
Unknown_Area_Type
  10
332927.500
  20
4667978.500
  0
VERTEX
  8
Unknown_Area_Type
  10
335088.000
  20
4667664.500
  0
VERTEX
  8
Unknown_Area_Type
  10
335093.500
  20
4667665.500
  0
VERTEX
  8
Unknown_Area_Type
  10
335701.500
  20
4667900.500
  0
VERTEX
  8
Unknown_Area_Type
  10
335702.500
  20
4667905.500
  0
VERTEX
  8
Unknown_Area_Type
  10
335772.018
  20
4670194.595
  0
SEQEND
  8
Unknown_Area_Type
  0
INSERT
  8
FeatureAttribs
  2
FEATURE
  41
1
  42
1
  43
1
  50
0
  10
346828.206
  20
4668766.941
 66
1
  0
ATTRIB
  8
FeatureAttribs
 70
0
  1
PNOA-H_AMS_1956-57_33k_ES_PAN_2
  2
NAME
  10
346828.206
  20
4668766.941
 40
33.93466
  0
SEQEND
  0
POLYLINE
  8
Unknown_Area_Type
  70
1
  66
1
  0
VERTEX
  8
Unknown_Area_Type
  10
346841.020
  20
4667588.674
  0
VERTEX
  8
Unknown_Area_Type
  10
346789.901
  20
4667593.727
  0
VERTEX
  8
Unknown_Area_Type
  10
346790.731
  20
4667631.922
  0
VERTEX
  8
Unknown_Area_Type
  10
346840.992
  20
4669945.209
  0
VERTEX
  8
Unknown_Area_Type
  10
346841.020
  20
4669945.208
  0
VERTEX
  8
Unknown_Area_Type
  10
346841.020
  20
4667588.674
  0
SEQEND
  8
Unknown_Area_Type
  0
INSERT
  8
FeatureAttribs
  2
FEATURE
  41
1
  42
1
  43
1
  50
0
  10
346751.101
  20
4668712.997
 66
1
  0
ATTRIB
  8
FeatureAttribs
 70
0
  1
PNOA-H_AMS_1956-57_33k_ES_PAN_2
  2
NAME
  10
346751.101
  20
4668712.997
 40
33.93466
  0
SEQEND
  0
POLYLINE
  8
Unknown_Area_Type
  70
1
  66
1
  0
VERTEX
  8
Unknown_Area_Type
  10
346789.901
  20
4667593.727
  0
VERTEX
  8
Unknown_Area_Type
  10
346645.500
  20
4667608.000
  0
VERTEX
  8
Unknown_Area_Type
  10
346735.119
  20
4669947.536
  0
VERTEX
  8
Unknown_Area_Type
  10
346840.992
  20
4669945.209
  0
VERTEX
  8
Unknown_Area_Type
  10
346790.731
  20
4667631.922
  0
VERTEX
  8
Unknown_Area_Type
  10
346789.901
  20
4667593.727
  0
SEQEND
  8
Unknown_Area_Type
  0
INSERT
  8
FeatureAttribs
  2
FEATURE
  41
1
  42
1
  43
1
  50
0
  10
346751.101
  20
4668712.997
 66
1
  0
ATTRIB
  8
FeatureAttribs
 70
0
  1
PNOA-H_AMS_1956-57_33k_ES_PAN_2
  2
NAME
  10
346751.101
  20
4668712.997
 40
33.93466
  0
SEQEND
  0
POLYLINE
  8
Unknown_Area_Type
  70
1
  66
1
  0
VERTEX
  8
Unknown_Area_Type
  10
346789.901
  20
4667593.727
  0
VERTEX
  8
Unknown_Area_Type
  10
346790.731
  20
4667631.922
  0
VERTEX
  8
Unknown_Area_Type
  10
346840.992
  20
4669945.209
  0
VERTEX
  8
Unknown_Area_Type
  10
346735.119
  20
4669947.536
  0
VERTEX
  8
Unknown_Area_Type
  10
346645.500
  20
4667608.000
  0
VERTEX
  8
Unknown_Area_Type
  10
346789.901
  20
4667593.727
  0
SEQEND
  8
Unknown_Area_Type
  0
INSERT
  8
FeatureAttribs
  2
FEATURE
  41
1
  42
1
  43
1
  50
0
  10
342518.116
  20
4668821.123
 66
1
  0
ATTRIB
  8
FeatureAttribs
 70
0
  1
PNOA-H_AMS_1956-57_33k_ES_PAN_2
  2
NAME
  10
342518.116
  20
4668821.123
 40
33.93466
  0
SEQEND
  0
POLYLINE
  8
Unknown_Area_Type
  70
1
  66
1
  0
VERTEX
  8
Unknown_Area_Type
  10
343921.919
  20
4670009.358
  0
VERTEX
  8
Unknown_Area_Type
  10
343812.500
  20
4667670.500
  0
VERTEX
  8
Unknown_Area_Type
  10
343435.500
  20
4667493.500
  0
VERTEX
  8
Unknown_Area_Type
  10
341098.000
  20
4667720.000
  0
VERTEX
  8
Unknown_Area_Type
  10
341203.054
  20
4670070.180
  0
VERTEX
  8
Unknown_Area_Type
  10
343399.092
  20
4670020.847
  0
VERTEX
  8
Unknown_Area_Type
  10
343921.919
  20
4670009.358
  0
SEQEND
  8
Unknown_Area_Type
  0
INSERT
  8
FeatureAttribs
  2
FEATURE
  41
1
  42
1
  43
1
  50
0
  10
342518.116
  20
4668821.123
 66
1
  0
ATTRIB
  8
FeatureAttribs
 70
0
  1
PNOA-H_AMS_1956-57_33k_ES_PAN_2
  2
NAME
  10
342518.116
  20
4668821.123
 40
33.93466
  0
SEQEND
  0
POLYLINE
  8
Unknown_Area_Type
  70
1
  66
1
  0
VERTEX
  8
Unknown_Area_Type
  10
343921.919
  20
4670009.358
  0
VERTEX
  8
Unknown_Area_Type
  10
343399.092
  20
4670020.847
  0
VERTEX
  8
Unknown_Area_Type
  10
341203.054
  20
4670070.180
  0
VERTEX
  8
Unknown_Area_Type
  10
341098.000
  20
4667720.000
  0
VERTEX
  8
Unknown_Area_Type
  10
343435.500
  20
4667493.500
  0
VERTEX
  8
Unknown_Area_Type
  10
343812.500
  20
4667670.500
  0
VERTEX
  8
Unknown_Area_Type
  10
343921.919
  20
4670009.358
  0
SEQEND
  8
Unknown_Area_Type
  0
INSERT
  8
FeatureAttribs
  2
FEATURE
  41
1
  42
1
  43
1
  50
0
  10
318929.996
  20
4659772.812
 66
1
  0
ATTRIB
  8
FeatureAttribs
 70
0
  1
PNOA-H_AMS_1956-57_33k_ES_PAN_2
  2
NAME
  10
318929.996
  20
4659772.812
 40
33.93466
  0
SEQEND
  0
POLYLINE
  8
Unknown_Area_Type
  70
1
  66
1
  0
VERTEX
  8
Unknown_Area_Type
  10
318991.788
  20
4658348.039
  0
VERTEX
  8
Unknown_Area_Type
  10
318831.743
  20
4658386.156
  0
VERTEX
  8
Unknown_Area_Type
  10
318831.743
  20
4661197.585
  0
VERTEX
  8
Unknown_Area_Type
  10
319064.348
  20
4661183.195
  0
VERTEX
  8
Unknown_Area_Type
  10
319009.257
  20
4659030.827
  0
VERTEX
  8
Unknown_Area_Type
  10
318991.788
  20
4658348.039
  0
SEQEND
  8
Unknown_Area_Type
  0
INSERT
  8
FeatureAttribs
  2
FEATURE
  41
1
  42
1
  43
1
  50
0
  10
320001.420
  20
4659702.439
 66
1
  0
ATTRIB
  8
FeatureAttribs
 70
0
  1
PNOA-H_AMS_1956-57_33k_ES_PAN_2
  2
NAME
  10
320001.420
  20
4659702.439
 40
33.93466
  0
SEQEND
  0
POLYLINE
  8
Unknown_Area_Type
  70
1
  66
1
  0
VERTEX
  8
Unknown_Area_Type
  10
319064.348
  20
4661183.195
  0
VERTEX
  8
Unknown_Area_Type
  10
319116.000
  20
4661180.000
  0
VERTEX
  8
Unknown_Area_Type
  10
319122.000
  20
4661180.000
  0
VERTEX
  8
Unknown_Area_Type
  10
321024.500
  20
4661063.000
  0
VERTEX
  8
Unknown_Area_Type
  10
321025.500
  20
4661061.000
  0
VERTEX
  8
Unknown_Area_Type
  10
321051.000
  20
4660931.500
  0
VERTEX
  8
Unknown_Area_Type
  10
320971.500
  20
4658491.000
  0
VERTEX
  8
Unknown_Area_Type
  10
319880.000
  20
4658136.500
  0
VERTEX
  8
Unknown_Area_Type
  10
318991.788
  20
4658348.039
  0
VERTEX
  8
Unknown_Area_Type
  10
319009.257
  20
4659030.827
  0
VERTEX
  8
Unknown_Area_Type
  10
319064.348
  20
4661183.195
  0
SEQEND
  8
Unknown_Area_Type
  0
INSERT
  8
FeatureAttribs
  2
FEATURE
  41
1
  42
1
  43
1
  50
0
  10
320001.420
  20
4659702.439
 66
1
  0
ATTRIB
  8
FeatureAttribs
 70
0
  1
PNOA-H_AMS_1956-57_33k_ES_PAN_2
  2
NAME
  10
320001.420
  20
4659702.439
 40
33.93466
  0
SEQEND
  0
POLYLINE
  8
Unknown_Area_Type
  70
1
  66
1
  0
VERTEX
  8
Unknown_Area_Type
  10
319064.348
  20
4661183.195
  0
VERTEX
  8
Unknown_Area_Type
  10
319009.257
  20
4659030.827
  0
VERTEX
  8
Unknown_Area_Type
  10
318991.788
  20
4658348.039
  0
VERTEX
  8
Unknown_Area_Type
  10
319880.000
  20
4658136.500
  0
VERTEX
  8
Unknown_Area_Type
  10
320971.500
  20
4658491.000
  0
VERTEX
  8
Unknown_Area_Type
  10
321051.000
  20
4660931.500
  0
VERTEX
  8
Unknown_Area_Type
  10
321025.500
  20
4661061.000
  0
VERTEX
  8
Unknown_Area_Type
  10
321024.500
  20
4661063.000
  0
VERTEX
  8
Unknown_Area_Type
  10
319122.000
  20
4661180.000
  0
VERTEX
  8
Unknown_Area_Type
  10
319116.000
  20
4661180.000
  0
VERTEX
  8
Unknown_Area_Type
  10
319064.348
  20
4661183.195
  0
SEQEND
  8
Unknown_Area_Type
  0
INSERT
  8
FeatureAttribs
  2
FEATURE
  41
1
  42
1
  43
1
  50
0
  10
325179.231
  20
4659595.050
 66
1
  0
ATTRIB
  8
FeatureAttribs
 70
0
  1
PNOA-H_AMS_1956-57_33k_ES_PAN_2
  2
NAME
  10
325179.231
  20
4659595.050
 40
33.93466
  0
SEQEND
  0
POLYLINE
  8
Unknown_Area_Type
  70
1
  66
1
  0
VERTEX
  8
Unknown_Area_Type
  10
325266.000
  20
4660971.500
  0
VERTEX
  8
Unknown_Area_Type
  10
326591.000
  20
4660922.500
  0
VERTEX
  8
Unknown_Area_Type
  10
326502.500
  20
4658336.500
  0
VERTEX
  8
Unknown_Area_Type
  10
325673.500
  20
4658028.000
  0
VERTEX
  8
Unknown_Area_Type
  10
323746.000
  20
4658450.500
  0
VERTEX
  8
Unknown_Area_Type
  10
323839.000
  20
4661024.000
  0
VERTEX
  8
Unknown_Area_Type
  10
325254.500
  20
4660971.500
  0
VERTEX
  8
Unknown_Area_Type
  10
325266.000
  20
4660971.500
  0
SEQEND
  8
Unknown_Area_Type
  0
INSERT
  8
FeatureAttribs
  2
FEATURE
  41
1
  42
1
  43
1
  50
0
  10
325179.231
  20
4659595.050
 66
1
  0
ATTRIB
  8
FeatureAttribs
 70
0
  1
PNOA-H_AMS_1956-57_33k_ES_PAN_2
  2
NAME
  10
325179.231
  20
4659595.050
 40
33.93466
  0
SEQEND
  0
POLYLINE
  8
Unknown_Area_Type
  70
1
  66
1
  0
VERTEX
  8
Unknown_Area_Type
  10
325266.000
  20
4660971.500
  0
VERTEX
  8
Unknown_Area_Type
  10
325254.500
  20
4660971.500
  0
VERTEX
  8
Unknown_Area_Type
  10
323839.000
  20
4661024.000
  0
VERTEX
  8
Unknown_Area_Type
  10
323746.000
  20
4658450.500
  0
VERTEX
  8
Unknown_Area_Type
  10
325673.500
  20
4658028.000
  0
VERTEX
  8
Unknown_Area_Type
  10
326502.500
  20
4658336.500
  0
VERTEX
  8
Unknown_Area_Type
  10
326591.000
  20
4660922.500
  0
VERTEX
  8
Unknown_Area_Type
  10
325266.000
  20
4660971.500
  0
SEQEND
  8
Unknown_Area_Type
  0
INSERT
  8
FeatureAttribs
  2
FEATURE
  41
1
  42
1
  43
1
  50
0
  10
322433.237
  20
4659673.399
 66
1
  0
ATTRIB
  8
FeatureAttribs
 70
0
  1
PNOA-H_AMS_1956-57_33k_ES_PAN_2
  2
NAME
  10
322433.237
  20
4659673.399
 40
33.93466
  0
SEQEND
  0
POLYLINE
  8
Unknown_Area_Type
  70
1
  66
1
  0
VERTEX
  8
Unknown_Area_Type
  10
321167.500
  20
4660945.500
  0
VERTEX
  8
Unknown_Area_Type
  10
323804.000
  20
4661200.500
  0
VERTEX
  8
Unknown_Area_Type
  10
323839.000
  20
4661025.000
  0
VERTEX
  8
Unknown_Area_Type
  10
323839.000
  20
4661016.500
  0
VERTEX
  8
Unknown_Area_Type
  10
323746.000
  20
4658450.500
  0
VERTEX
  8
Unknown_Area_Type
  10
322692.000
  20
4658083.000
  0
VERTEX
  8
Unknown_Area_Type
  10
320971.500
  20
4658491.500
  0
VERTEX
  8
Unknown_Area_Type
  10
321050.500
  20
4660931.500
  0
VERTEX
  8
Unknown_Area_Type
  10
321051.000
  20
4660934.000
  0
VERTEX
  8
Unknown_Area_Type
  10
321054.000
  20
4660934.500
  0
VERTEX
  8
Unknown_Area_Type
  10
321162.000
  20
4660945.000
  0
VERTEX
  8
Unknown_Area_Type
  10
321167.500
  20
4660945.500
  0
SEQEND
  8
Unknown_Area_Type
  0
INSERT
  8
FeatureAttribs
  2
FEATURE
  41
1
  42
1
  43
1
  50
0
  10
322433.237
  20
4659673.399
 66
1
  0
ATTRIB
  8
FeatureAttribs
 70
0
  1
PNOA-H_AMS_1956-57_33k_ES_PAN_2
  2
NAME
  10
322433.237
  20
4659673.399
 40
33.93466
  0
SEQEND
  0
POLYLINE
  8
Unknown_Area_Type
  70
1
  66
1
  0
VERTEX
  8
Unknown_Area_Type
  10
321167.500
  20
4660945.500
  0
VERTEX
  8
Unknown_Area_Type
  10
321162.000
  20
4660945.000
  0
VERTEX
  8
Unknown_Area_Type
  10
321054.000
  20
4660934.500
  0
VERTEX
  8
Unknown_Area_Type
  10
321051.000
  20
4660934.000
  0
VERTEX
  8
Unknown_Area_Type
  10
321050.500
  20
4660931.500
  0
VERTEX
  8
Unknown_Area_Type
  10
320971.500
  20
4658491.500
  0
VERTEX
  8
Unknown_Area_Type
  10
322692.000
  20
4658083.000
  0
VERTEX
  8
Unknown_Area_Type
  10
323746.000
  20
4658450.500
  0
VERTEX
  8
Unknown_Area_Type
  10
323839.000
  20
4661016.500
  0
VERTEX
  8
Unknown_Area_Type
  10
323839.000
  20
4661025.000
  0
VERTEX
  8
Unknown_Area_Type
  10
323804.000
  20
4661200.500
  0
VERTEX
  8
Unknown_Area_Type
  10
321167.500
  20
4660945.500
  0
SEQEND
  8
Unknown_Area_Type
  0
INSERT
  8
FeatureAttribs
  2
FEATURE
  41
1
  42
1
  43
1
  50
0
  10
327931.700
  20
4659511.887
 66
1
  0
ATTRIB
  8
FeatureAttribs
 70
0
  1
PNOA-H_AMS_1956-57_33k_ES_PAN_2
  2
NAME
  10
327931.700
  20
4659511.887
 40
33.93466
  0
SEQEND
  0
POLYLINE
  8
Unknown_Area_Type
  70
1
  66
1
  0
VERTEX
  8
Unknown_Area_Type
  10
329362.000
  20
4660762.000
  0
VERTEX
  8
Unknown_Area_Type
  10
329370.000
  20
4660761.500
  0
VERTEX
  8
Unknown_Area_Type
  10
329370.000
  20
4660748.000
  0
VERTEX
  8
Unknown_Area_Type
  10
329282.500
  20
4658257.000
  0
VERTEX
  8
Unknown_Area_Type
  10
328505.500
  20
4657953.000
  0
VERTEX
  8
Unknown_Area_Type
  10
328501.000
  20
4657953.000
  0
VERTEX
  8
Unknown_Area_Type
  10
326502.500
  20
4658336.500
  0
VERTEX
  8
Unknown_Area_Type
  10
326590.500
  20
4660913.000
  0
VERTEX
  8
Unknown_Area_Type
  10
326592.000
  20
4660927.000
  0
VERTEX
  8
Unknown_Area_Type
  10
326617.500
  20
4661019.500
  0
VERTEX
  8
Unknown_Area_Type
  10
326618.000
  20
4661021.000
  0
VERTEX
  8
Unknown_Area_Type
  10
326622.000
  20
4661021.000
  0
VERTEX
  8
Unknown_Area_Type
  10
329360.500
  20
4660762.000
  0
VERTEX
  8
Unknown_Area_Type
  10
329362.000
  20
4660762.000
  0
SEQEND
  8
Unknown_Area_Type
  0
INSERT
  8
FeatureAttribs
  2
FEATURE
  41
1
  42
1
  43
1
  50
0
  10
327931.700
  20
4659511.887
 66
1
  0
ATTRIB
  8
FeatureAttribs
 70
0
  1
PNOA-H_AMS_1956-57_33k_ES_PAN_2
  2
NAME
  10
327931.700
  20
4659511.887
 40
33.93466
  0
SEQEND
  0
POLYLINE
  8
Unknown_Area_Type
  70
1
  66
1
  0
VERTEX
  8
Unknown_Area_Type
  10
329362.000
  20
4660762.000
  0
VERTEX
  8
Unknown_Area_Type
  10
329360.500
  20
4660762.000
  0
VERTEX
  8
Unknown_Area_Type
  10
326622.000
  20
4661021.000
  0
VERTEX
  8
Unknown_Area_Type
  10
326618.000
  20
4661021.000
  0
VERTEX
  8
Unknown_Area_Type
  10
326617.500
  20
4661019.500
  0
VERTEX
  8
Unknown_Area_Type
  10
326592.000
  20
4660927.000
  0
VERTEX
  8
Unknown_Area_Type
  10
326590.500
  20
4660913.000
  0
VERTEX
  8
Unknown_Area_Type
  10
326502.500
  20
4658336.500
  0
VERTEX
  8
Unknown_Area_Type
  10
328501.000
  20
4657953.000
  0
VERTEX
  8
Unknown_Area_Type
  10
328505.500
  20
4657953.000
  0
VERTEX
  8
Unknown_Area_Type
  10
329282.500
  20
4658257.000
  0
VERTEX
  8
Unknown_Area_Type
  10
329370.000
  20
4660748.000
  0
VERTEX
  8
Unknown_Area_Type
  10
329370.000
  20
4660761.500
  0
VERTEX
  8
Unknown_Area_Type
  10
329362.000
  20
4660762.000
  0
SEQEND
  8
Unknown_Area_Type
  0
INSERT
  8
FeatureAttribs
  2
FEATURE
  41
1
  42
1
  43
1
  50
0
  10
333582.792
  20
4659344.029
 66
1
  0
ATTRIB
  8
FeatureAttribs
 70
0
  1
PNOA-H_AMS_1956-57_33k_ES_PAN_2
  2
NAME
  10
333582.792
  20
4659344.029
 40
33.93466
  0
SEQEND
  0
POLYLINE
  8
Unknown_Area_Type
  70
1
  66
1
  0
VERTEX
  8
Unknown_Area_Type
  10
333458.000
  20
4660721.000
  0
VERTEX
  8
Unknown_Area_Type
  10
334967.000
  20
4660688.000
  0
VERTEX
  8
Unknown_Area_Type
  10
335011.000
  20
4660512.000
  0
VERTEX
  8
Unknown_Area_Type
  10
334935.500
  20
4658104.500
  0
VERTEX
  8
Unknown_Area_Type
  10
334040.000
  20
4657785.500
  0
VERTEX
  8
Unknown_Area_Type
  10
332127.000
  20
4658202.500
  0
VERTEX
  8
Unknown_Area_Type
  10
332198.000
  20
4660522.000
  0
VERTEX
  8
Unknown_Area_Type
  10
332263.000
  20
4660747.000
  0
VERTEX
  8
Unknown_Area_Type
  10
333440.500
  20
4660721.000
  0
VERTEX
  8
Unknown_Area_Type
  10
333458.000
  20
4660721.000
  0
SEQEND
  8
Unknown_Area_Type
  0
INSERT
  8
FeatureAttribs
  2
FEATURE
  41
1
  42
1
  43
1
  50
0
  10
333582.792
  20
4659344.029
 66
1
  0
ATTRIB
  8
FeatureAttribs
 70
0
  1
PNOA-H_AMS_1956-57_33k_ES_PAN_2
  2
NAME
  10
333582.792
  20
4659344.029
 40
33.93466
  0
SEQEND
  0
POLYLINE
  8
Unknown_Area_Type
  70
1
  66
1
  0
VERTEX
  8
Unknown_Area_Type
  10
333458.000
  20
4660721.000
  0
VERTEX
  8
Unknown_Area_Type
  10
333440.500
  20
4660721.000
  0
VERTEX
  8
Unknown_Area_Type
  10
332263.000
  20
4660747.000
  0
VERTEX
  8
Unknown_Area_Type
  10
332198.000
  20
4660522.000
  0
VERTEX
  8
Unknown_Area_Type
  10
332127.000
  20
4658202.500
  0
VERTEX
  8
Unknown_Area_Type
  10
334040.000
  20
4657785.500
  0
VERTEX
  8
Unknown_Area_Type
  10
334935.500
  20
4658104.500
  0
VERTEX
  8
Unknown_Area_Type
  10
335011.000
  20
4660512.000
  0
VERTEX
  8
Unknown_Area_Type
  10
334967.000
  20
4660688.000
  0
VERTEX
  8
Unknown_Area_Type
  10
333458.000
  20
4660721.000
  0
SEQEND
  8
Unknown_Area_Type
  0
INSERT
  8
FeatureAttribs
  2
FEATURE
  41
1
  42
1
  43
1
  50
0
  10
330713.987
  20
4659433.813
 66
1
  0
ATTRIB
  8
FeatureAttribs
 70
0
  1
PNOA-H_AMS_1956-57_33k_ES_PAN_2
  2
NAME
  10
330713.987
  20
4659433.813
 40
33.93466
  0
SEQEND
  0
POLYLINE
  8
Unknown_Area_Type
  70
1
  66
1
  0
VERTEX
  8
Unknown_Area_Type
  10
329361.500
  20
4660519.500
  0
VERTEX
  8
Unknown_Area_Type
  10
329370.000
  20
4660761.500
  0
VERTEX
  8
Unknown_Area_Type
  10
329460.500
  20
4661079.000
  0
VERTEX
  8
Unknown_Area_Type
  10
332198.000
  20
4660522.000
  0
VERTEX
  8
Unknown_Area_Type
  10
332127.000
  20
4658202.000
  0
VERTEX
  8
Unknown_Area_Type
  10
331269.000
  20
4657880.000
  0
VERTEX
  8
Unknown_Area_Type
  10
329282.500
  20
4658257.000
  0
VERTEX
  8
Unknown_Area_Type
  10
329361.500
  20
4660505.500
  0
VERTEX
  8
Unknown_Area_Type
  10
329361.500
  20
4660519.500
  0
SEQEND
  8
Unknown_Area_Type
  0
INSERT
  8
FeatureAttribs
  2
FEATURE
  41
1
  42
1
  43
1
  50
0
  10
330713.987
  20
4659433.813
 66
1
  0
ATTRIB
  8
FeatureAttribs
 70
0
  1
PNOA-H_AMS_1956-57_33k_ES_PAN_2
  2
NAME
  10
330713.987
  20
4659433.813
 40
33.93466
  0
SEQEND
  0
POLYLINE
  8
Unknown_Area_Type
  70
1
  66
1
  0
VERTEX
  8
Unknown_Area_Type
  10
329361.500
  20
4660519.500
  0
VERTEX
  8
Unknown_Area_Type
  10
329361.500
  20
4660505.500
  0
VERTEX
  8
Unknown_Area_Type
  10
329282.500
  20
4658257.000
  0
VERTEX
  8
Unknown_Area_Type
  10
331269.000
  20
4657880.000
  0
VERTEX
  8
Unknown_Area_Type
  10
332127.000
  20
4658202.000
  0
VERTEX
  8
Unknown_Area_Type
  10
332198.000
  20
4660522.000
  0
VERTEX
  8
Unknown_Area_Type
  10
329460.500
  20
4661079.000
  0
VERTEX
  8
Unknown_Area_Type
  10
329370.000
  20
4660761.500
  0
VERTEX
  8
Unknown_Area_Type
  10
329361.500
  20
4660519.500
  0
SEQEND
  8
Unknown_Area_Type
  0
INSERT
  8
FeatureAttribs
  2
FEATURE
  41
1
  42
1
  43
1
  50
0
  10
342028.821
  20
4659139.417
 66
1
  0
ATTRIB
  8
FeatureAttribs
 70
0
  1
PNOA-H_AMS_1956-57_33k_ES_PAN_2
  2
NAME
  10
342028.821
  20
4659139.417
 40
33.93466
  0
SEQEND
  0
POLYLINE
  8
Unknown_Area_Type
  70
1
  66
1
  0
VERTEX
  8
Unknown_Area_Type
  10
343168.000
  20
4660855.000
  0
VERTEX
  8
Unknown_Area_Type
  10
343170.000
  20
4660854.000
  0
VERTEX
  8
Unknown_Area_Type
  10
343356.500
  20
4660063.000
  0
VERTEX
  8
Unknown_Area_Type
  10
343307.000
  20
4657857.000
  0
VERTEX
  8
Unknown_Area_Type
  10
342753.500
  20
4657605.000
  0
VERTEX
  8
Unknown_Area_Type
  10
341884.500
  20
4657699.000
  0
VERTEX
  8
Unknown_Area_Type
  10
340579.000
  20
4657941.500
  0
VERTEX
  8
Unknown_Area_Type
  10
340604.000
  20
4660182.000
  0
VERTEX
  8
Unknown_Area_Type
  10
343166.000
  20
4660854.500
  0
VERTEX
  8
Unknown_Area_Type
  10
343168.000
  20
4660855.000
  0
SEQEND
  8
Unknown_Area_Type
  0
INSERT
  8
FeatureAttribs
  2
FEATURE
  41
1
  42
1
  43
1
  50
0
  10
342028.821
  20
4659139.417
 66
1
  0
ATTRIB
  8
FeatureAttribs
 70
0
  1
PNOA-H_AMS_1956-57_33k_ES_PAN_2
  2
NAME
  10
342028.821
  20
4659139.417
 40
33.93466
  0
SEQEND
  0
POLYLINE
  8
Unknown_Area_Type
  70
1
  66
1
  0
VERTEX
  8
Unknown_Area_Type
  10
343168.000
  20
4660855.000
  0
VERTEX
  8
Unknown_Area_Type
  10
343166.000
  20
4660854.500
  0
VERTEX
  8
Unknown_Area_Type
  10
340604.000
  20
4660182.000
  0
VERTEX
  8
Unknown_Area_Type
  10
340579.000
  20
4657941.500
  0
VERTEX
  8
Unknown_Area_Type
  10
341884.500
  20
4657699.000
  0
VERTEX
  8
Unknown_Area_Type
  10
342753.500
  20
4657605.000
  0
VERTEX
  8
Unknown_Area_Type
  10
343307.000
  20
4657857.000
  0
VERTEX
  8
Unknown_Area_Type
  10
343356.500
  20
4660063.000
  0
VERTEX
  8
Unknown_Area_Type
  10
343170.000
  20
4660854.000
  0
VERTEX
  8
Unknown_Area_Type
  10
343168.000
  20
4660855.000
  0
SEQEND
  8
Unknown_Area_Type
  0
INSERT
  8
FeatureAttribs
  2
FEATURE
  41
1
  42
1
  43
1
  50
0
  10
339229.338
  20
4659184.118
 66
1
  0
ATTRIB
  8
FeatureAttribs
 70
0
  1
PNOA-H_AMS_1956-57_33k_ES_PAN_2
  2
NAME
  10
339229.338
  20
4659184.118
 40
33.93466
  0
SEQEND
  0
POLYLINE
  8
Unknown_Area_Type
  70
1
  66
1
  0
VERTEX
  8
Unknown_Area_Type
  10
340445.000
  20
4660802.500
  0
VERTEX
  8
Unknown_Area_Type
  10
340446.000
  20
4660802.000
  0
VERTEX
  8
Unknown_Area_Type
  10
340449.500
  20
4660788.500
  0
VERTEX
  8
Unknown_Area_Type
  10
340604.000
  20
4660182.500
  0
VERTEX
  8
Unknown_Area_Type
  10
340579.000
  20
4657941.000
  0
VERTEX
  8
Unknown_Area_Type
  10
339758.500
  20
4657623.000
  0
VERTEX
  8
Unknown_Area_Type
  10
337745.500
  20
4657978.500
  0
VERTEX
  8
Unknown_Area_Type
  10
337805.000
  20
4660360.500
  0
VERTEX
  8
Unknown_Area_Type
  10
340442.000
  20
4660802.000
  0
VERTEX
  8
Unknown_Area_Type
  10
340445.000
  20
4660802.500
  0
SEQEND
  8
Unknown_Area_Type
  0
INSERT
  8
FeatureAttribs
  2
FEATURE
  41
1
  42
1
  43
1
  50
0
  10
339229.338
  20
4659184.118
 66
1
  0
ATTRIB
  8
FeatureAttribs
 70
0
  1
PNOA-H_AMS_1956-57_33k_ES_PAN_2
  2
NAME
  10
339229.338
  20
4659184.118
 40
33.93466
  0
SEQEND
  0
POLYLINE
  8
Unknown_Area_Type
  70
1
  66
1
  0
VERTEX
  8
Unknown_Area_Type
  10
340445.000
  20
4660802.500
  0
VERTEX
  8
Unknown_Area_Type
  10
340442.000
  20
4660802.000
  0
VERTEX
  8
Unknown_Area_Type
  10
337805.000
  20
4660360.500
  0
VERTEX
  8
Unknown_Area_Type
  10
337745.500
  20
4657978.500
  0
VERTEX
  8
Unknown_Area_Type
  10
339758.500
  20
4657623.000
  0
VERTEX
  8
Unknown_Area_Type
  10
340579.000
  20
4657941.000
  0
VERTEX
  8
Unknown_Area_Type
  10
340604.000
  20
4660182.500
  0
VERTEX
  8
Unknown_Area_Type
  10
340449.500
  20
4660788.500
  0
VERTEX
  8
Unknown_Area_Type
  10
340446.000
  20
4660802.000
  0
VERTEX
  8
Unknown_Area_Type
  10
340445.000
  20
4660802.500
  0
SEQEND
  8
Unknown_Area_Type
  0
INSERT
  8
FeatureAttribs
  2
FEATURE
  41
1
  42
1
  43
1
  50
0
  10
336418.766
  20
4659255.485
 66
1
  0
ATTRIB
  8
FeatureAttribs
 70
0
  1
PNOA-H_AMS_1956-57_33k_ES_PAN_2
  2
NAME
  10
336418.766
  20
4659255.485
 40
33.93466
  0
SEQEND
  0
POLYLINE
  8
Unknown_Area_Type
  70
1
  66
1
  0
VERTEX
  8
Unknown_Area_Type
  10
335503.500
  20
4660563.500
  0
VERTEX
  8
Unknown_Area_Type
  10
337688.500
  20
4660798.500
  0
VERTEX
  8
Unknown_Area_Type
  10
337694.000
  20
4660798.000
  0
VERTEX
  8
Unknown_Area_Type
  10
337805.000
  20
4660362.000
  0
VERTEX
  8
Unknown_Area_Type
  10
337745.500
  20
4657978.500
  0
VERTEX
  8
Unknown_Area_Type
  10
336955.500
  20
4657660.500
  0
VERTEX
  8
Unknown_Area_Type
  10
334935.500
  20
4658104.500
  0
VERTEX
  8
Unknown_Area_Type
  10
335011.000
  20
4660510.500
  0
VERTEX
  8
Unknown_Area_Type
  10
335498.500
  20
4660563.000
  0
VERTEX
  8
Unknown_Area_Type
  10
335503.500
  20
4660563.500
  0
SEQEND
  8
Unknown_Area_Type
  0
INSERT
  8
FeatureAttribs
  2
FEATURE
  41
1
  42
1
  43
1
  50
0
  10
336418.766
  20
4659255.485
 66
1
  0
ATTRIB
  8
FeatureAttribs
 70
0
  1
PNOA-H_AMS_1956-57_33k_ES_PAN_2
  2
NAME
  10
336418.766
  20
4659255.485
 40
33.93466
  0
SEQEND
  0
POLYLINE
  8
Unknown_Area_Type
  70
1
  66
1
  0
VERTEX
  8
Unknown_Area_Type
  10
335503.500
  20
4660563.500
  0
VERTEX
  8
Unknown_Area_Type
  10
335498.500
  20
4660563.000
  0
VERTEX
  8
Unknown_Area_Type
  10
335011.000
  20
4660510.500
  0
VERTEX
  8
Unknown_Area_Type
  10
334935.500
  20
4658104.500
  0
VERTEX
  8
Unknown_Area_Type
  10
336955.500
  20
4657660.500
  0
VERTEX
  8
Unknown_Area_Type
  10
337745.500
  20
4657978.500
  0
VERTEX
  8
Unknown_Area_Type
  10
337805.000
  20
4660362.000
  0
VERTEX
  8
Unknown_Area_Type
  10
337694.000
  20
4660798.000
  0
VERTEX
  8
Unknown_Area_Type
  10
337688.500
  20
4660798.500
  0
VERTEX
  8
Unknown_Area_Type
  10
335503.500
  20
4660563.500
  0
SEQEND
  8
Unknown_Area_Type
  0
INSERT
  8
FeatureAttribs
  2
FEATURE
  41
1
  42
1
  43
1
  50
0
  10
344863.784
  20
4659066.069
 66
1
  0
ATTRIB
  8
FeatureAttribs
 70
0
  1
PNOA-H_AMS_1956-57_33k_ES_PAN_2
  2
NAME
  10
344863.784
  20
4659066.069
 40
33.93466
  0
SEQEND
  0
POLYLINE
  8
Unknown_Area_Type
  70
1
  66
1
  0
VERTEX
  8
Unknown_Area_Type
  10
343356.500
  20
4660062.500
  0
VERTEX
  8
Unknown_Area_Type
  10
343694.500
  20
4660164.500
  0
VERTEX
  8
Unknown_Area_Type
  10
343696.500
  20
4660165.000
  0
VERTEX
  8
Unknown_Area_Type
  10
345915.000
  20
4660832.500
  0
VERTEX
  8
Unknown_Area_Type
  10
346511.500
  20
4658059.000
  0
VERTEX
  8
Unknown_Area_Type
  10
345564.500
  20
4657604.500
  0
VERTEX
  8
Unknown_Area_Type
  10
343306.500
  20
4657856.500
  0
VERTEX
  8
Unknown_Area_Type
  10
343356.500
  20
4660062.500
  0
SEQEND
  8
Unknown_Area_Type
  0
INSERT
  8
FeatureAttribs
  2
FEATURE
  41
1
  42
1
  43
1
  50
0
  10
344863.784
  20
4659066.069
 66
1
  0
ATTRIB
  8
FeatureAttribs
 70
0
  1
PNOA-H_AMS_1956-57_33k_ES_PAN_2
  2
NAME
  10
344863.784
  20
4659066.069
 40
33.93466
  0
SEQEND
  0
POLYLINE
  8
Unknown_Area_Type
  70
1
  66
1
  0
VERTEX
  8
Unknown_Area_Type
  10
343356.500
  20
4660062.500
  0
VERTEX
  8
Unknown_Area_Type
  10
343306.500
  20
4657856.500
  0
VERTEX
  8
Unknown_Area_Type
  10
345564.500
  20
4657604.500
  0
VERTEX
  8
Unknown_Area_Type
  10
346511.500
  20
4658059.000
  0
VERTEX
  8
Unknown_Area_Type
  10
345915.000
  20
4660832.500
  0
VERTEX
  8
Unknown_Area_Type
  10
343696.500
  20
4660165.000
  0
VERTEX
  8
Unknown_Area_Type
  10
343694.500
  20
4660164.500
  0
VERTEX
  8
Unknown_Area_Type
  10
343356.500
  20
4660062.500
  0
SEQEND
  8
Unknown_Area_Type
  0
INSERT
  8
FeatureAttribs
  2
FEATURE
  41
1
  42
1
  43
1
  50
0
  10
333643.417
  20
4661925.907
 66
1
  0
ATTRIB
  8
FeatureAttribs
 70
0
  1
PNOA-H_AMS_1956-57_33k_ES_PAN_2
  2
NAME
  10
333643.417
  20
4661925.907
 40
33.93466
  0
SEQEND
  0
POLYLINE
  8
Unknown_Area_Type
  70
1
  66
1
  0
VERTEX
  8
Unknown_Area_Type
  10
332329.000
  20
4663152.500
  0
VERTEX
  8
Unknown_Area_Type
  10
335002.000
  20
4663126.500
  0
VERTEX
  8
Unknown_Area_Type
  10
334967.500
  20
4660693.000
  0
VERTEX
  8
Unknown_Area_Type
  10
334967.000
  20
4660688.000
  0
VERTEX
  8
Unknown_Area_Type
  10
334946.500
  20
4660688.000
  0
VERTEX
  8
Unknown_Area_Type
  10
332263.000
  20
4660747.000
  0
VERTEX
  8
Unknown_Area_Type
  10
332329.000
  20
4663143.000
  0
VERTEX
  8
Unknown_Area_Type
  10
332329.000
  20
4663152.500
  0
SEQEND
  8
Unknown_Area_Type
  0
INSERT
  8
FeatureAttribs
  2
FEATURE
  41
1
  42
1
  43
1
  50
0
  10
333643.417
  20
4661925.907
 66
1
  0
ATTRIB
  8
FeatureAttribs
 70
0
  1
PNOA-H_AMS_1956-57_33k_ES_PAN_2
  2
NAME
  10
333643.417
  20
4661925.907
 40
33.93466
  0
SEQEND
  0
POLYLINE
  8
Unknown_Area_Type
  70
1
  66
1
  0
VERTEX
  8
Unknown_Area_Type
  10
332329.000
  20
4663152.500
  0
VERTEX
  8
Unknown_Area_Type
  10
332329.000
  20
4663143.000
  0
VERTEX
  8
Unknown_Area_Type
  10
332263.000
  20
4660747.000
  0
VERTEX
  8
Unknown_Area_Type
  10
334946.500
  20
4660688.000
  0
VERTEX
  8
Unknown_Area_Type
  10
334967.000
  20
4660688.000
  0
VERTEX
  8
Unknown_Area_Type
  10
334967.500
  20
4660693.000
  0
VERTEX
  8
Unknown_Area_Type
  10
335002.000
  20
4663126.500
  0
VERTEX
  8
Unknown_Area_Type
  10
332329.000
  20
4663152.500
  0
SEQEND
  8
Unknown_Area_Type
  0
INSERT
  8
FeatureAttribs
  2
FEATURE
  41
1
  42
1
  43
1
  50
0
  10
339052.446
  20
4661823.084
 66
1
  0
ATTRIB
  8
FeatureAttribs
 70
0
  1
PNOA-H_AMS_1956-57_33k_ES_PAN_2
  2
NAME
  10
339052.446
  20
4661823.084
 40
33.93466
  0
SEQEND
  0
POLYLINE
  8
Unknown_Area_Type
  70
1
  66
1
  0
VERTEX
  8
Unknown_Area_Type
  10
338566.000
  20
4660488.000
  0
VERTEX
  8
Unknown_Area_Type
  10
337807.500
  20
4660360.500
  0
VERTEX
  8
Unknown_Area_Type
  10
337805.000
  20
4660360.500
  0
VERTEX
  8
Unknown_Area_Type
  10
337804.500
  20
4660362.000
  0
VERTEX
  8
Unknown_Area_Type
  10
337695.000
  20
4660792.000
  0
VERTEX
  8
Unknown_Area_Type
  10
337693.500
  20
4660798.000
  0
VERTEX
  8
Unknown_Area_Type
  10
337693.500
  20
4660805.500
  0
VERTEX
  8
Unknown_Area_Type
  10
337747.500
  20
4663054.500
  0
VERTEX
  8
Unknown_Area_Type
  10
337748.000
  20
4663059.000
  0
VERTEX
  8
Unknown_Area_Type
  10
337848.500
  20
4663121.500
  0
VERTEX
  8
Unknown_Area_Type
  10
340522.500
  20
4663011.000
  0
VERTEX
  8
Unknown_Area_Type
  10
340445.500
  20
4660802.500
  0
VERTEX
  8
Unknown_Area_Type
  10
338569.000
  20
4660488.000
  0
VERTEX
  8
Unknown_Area_Type
  10
338566.000
  20
4660488.000
  0
SEQEND
  8
Unknown_Area_Type
  0
INSERT
  8
FeatureAttribs
  2
FEATURE
  41
1
  42
1
  43
1
  50
0
  10
339052.446
  20
4661823.084
 66
1
  0
ATTRIB
  8
FeatureAttribs
 70
0
  1
PNOA-H_AMS_1956-57_33k_ES_PAN_2
  2
NAME
  10
339052.446
  20
4661823.084
 40
33.93466
  0
SEQEND
  0
POLYLINE
  8
Unknown_Area_Type
  70
1
  66
1
  0
VERTEX
  8
Unknown_Area_Type
  10
338566.000
  20
4660488.000
  0
VERTEX
  8
Unknown_Area_Type
  10
338569.000
  20
4660488.000
  0
VERTEX
  8
Unknown_Area_Type
  10
340445.500
  20
4660802.500
  0
VERTEX
  8
Unknown_Area_Type
  10
340522.500
  20
4663011.000
  0
VERTEX
  8
Unknown_Area_Type
  10
337848.500
  20
4663121.500
  0
VERTEX
  8
Unknown_Area_Type
  10
337748.000
  20
4663059.000
  0
VERTEX
  8
Unknown_Area_Type
  10
337747.500
  20
4663054.500
  0
VERTEX
  8
Unknown_Area_Type
  10
337693.500
  20
4660805.500
  0
VERTEX
  8
Unknown_Area_Type
  10
337693.500
  20
4660798.000
  0
VERTEX
  8
Unknown_Area_Type
  10
337695.000
  20
4660792.000
  0
VERTEX
  8
Unknown_Area_Type
  10
337804.500
  20
4660362.000
  0
VERTEX
  8
Unknown_Area_Type
  10
337805.000
  20
4660360.500
  0
VERTEX
  8
Unknown_Area_Type
  10
337807.500
  20
4660360.500
  0
VERTEX
  8
Unknown_Area_Type
  10
338566.000
  20
4660488.000
  0
SEQEND
  8
Unknown_Area_Type
  0
INSERT
  8
FeatureAttribs
  2
FEATURE
  41
1
  42
1
  43
1
  50
0
  10
330947.072
  20
4661996.392
 66
1
  0
ATTRIB
  8
FeatureAttribs
 70
0
  1
PNOA-H_AMS_1956-57_33k_ES_PAN_2
  2
NAME
  10
330947.072
  20
4661996.392
 40
33.93466
  0
SEQEND
  0
POLYLINE
  8
Unknown_Area_Type
  70
1
  66
1
  0
VERTEX
  8
Unknown_Area_Type
  10
331267.000
  20
4663209.500
  0
VERTEX
  8
Unknown_Area_Type
  10
332242.500
  20
4663211.500
  0
VERTEX
  8
Unknown_Area_Type
  10
332329.000
  20
4663152.500
  0
VERTEX
  8
Unknown_Area_Type
  10
332263.500
  20
4660756.000
  0
VERTEX
  8
Unknown_Area_Type
  10
332263.000
  20
4660746.000
  0
VERTEX
  8
Unknown_Area_Type
  10
332198.500
  20
4660522.000
  0
VERTEX
  8
Unknown_Area_Type
  10
329460.500
  20
4661079.000
  0
VERTEX
  8
Unknown_Area_Type
  10
329525.500
  20
4663205.000
  0
VERTEX
  8
Unknown_Area_Type
  10
331070.500
  20
4663209.000
  0
VERTEX
  8
Unknown_Area_Type
  10
331267.000
  20
4663209.500
  0
SEQEND
  8
Unknown_Area_Type
  0
INSERT
  8
FeatureAttribs
  2
FEATURE
  41
1
  42
1
  43
1
  50
0
  10
330947.072
  20
4661996.392
 66
1
  0
ATTRIB
  8
FeatureAttribs
 70
0
  1
PNOA-H_AMS_1956-57_33k_ES_PAN_2
  2
NAME
  10
330947.072
  20
4661996.392
 40
33.93466
  0
SEQEND
  0
POLYLINE
  8
Unknown_Area_Type
  70
1
  66
1
  0
VERTEX
  8
Unknown_Area_Type
  10
331267.000
  20
4663209.500
  0
VERTEX
  8
Unknown_Area_Type
  10
331070.500
  20
4663209.000
  0
VERTEX
  8
Unknown_Area_Type
  10
329525.500
  20
4663205.000
  0
VERTEX
  8
Unknown_Area_Type
  10
329460.500
  20
4661079.000
  0
VERTEX
  8
Unknown_Area_Type
  10
332198.500
  20
4660522.000
  0
VERTEX
  8
Unknown_Area_Type
  10
332263.000
  20
4660746.000
  0
VERTEX
  8
Unknown_Area_Type
  10
332263.500
  20
4660756.000
  0
VERTEX
  8
Unknown_Area_Type
  10
332329.000
  20
4663152.500
  0
VERTEX
  8
Unknown_Area_Type
  10
332242.500
  20
4663211.500
  0
VERTEX
  8
Unknown_Area_Type
  10
331267.000
  20
4663209.500
  0
SEQEND
  8
Unknown_Area_Type
  0
INSERT
  8
FeatureAttribs
  2
FEATURE
  41
1
  42
1
  43
1
  50
0
  10
344497.597
  20
4661689.098
 66
1
  0
ATTRIB
  8
FeatureAttribs
 70
0
  1
PNOA-H_AMS_1956-57_33k_ES_PAN_2
  2
NAME
  10
344497.597
  20
4661689.098
 40
33.93466
  0
SEQEND
  0
POLYLINE
  8
Unknown_Area_Type
  70
1
  66
1
  0
VERTEX
  8
Unknown_Area_Type
  10
343242.000
  20
4662904.000
  0
VERTEX
  8
Unknown_Area_Type
  10
343243.000
  20
4662914.000
  0
VERTEX
  8
Unknown_Area_Type
  10
343468.000
  20
4663043.000
  0
VERTEX
  8
Unknown_Area_Type
  10
343469.000
  20
4663043.500
  0
VERTEX
  8
Unknown_Area_Type
  10
345991.000
  20
4662846.500
  0
VERTEX
  8
Unknown_Area_Type
  10
345914.500
  20
4660832.000
  0
VERTEX
  8
Unknown_Area_Type
  10
343356.500
  20
4660062.500
  0
VERTEX
  8
Unknown_Area_Type
  10
343169.500
  20
4660854.000
  0
VERTEX
  8
Unknown_Area_Type
  10
343242.000
  20
4662904.000
  0
SEQEND
  8
Unknown_Area_Type
  0
INSERT
  8
FeatureAttribs
  2
FEATURE
  41
1
  42
1
  43
1
  50
0
  10
344497.597
  20
4661689.098
 66
1
  0
ATTRIB
  8
FeatureAttribs
 70
0
  1
PNOA-H_AMS_1956-57_33k_ES_PAN_2
  2
NAME
  10
344497.597
  20
4661689.098
 40
33.93466
  0
SEQEND
  0
POLYLINE
  8
Unknown_Area_Type
  70
1
  66
1
  0
VERTEX
  8
Unknown_Area_Type
  10
343242.000
  20
4662904.000
  0
VERTEX
  8
Unknown_Area_Type
  10
343169.500
  20
4660854.000
  0
VERTEX
  8
Unknown_Area_Type
  10
343356.500
  20
4660062.500
  0
VERTEX
  8
Unknown_Area_Type
  10
345914.500
  20
4660832.000
  0
VERTEX
  8
Unknown_Area_Type
  10
345991.000
  20
4662846.500
  0
VERTEX
  8
Unknown_Area_Type
  10
343469.000
  20
4663043.500
  0
VERTEX
  8
Unknown_Area_Type
  10
343468.000
  20
4663043.000
  0
VERTEX
  8
Unknown_Area_Type
  10
343243.000
  20
4662914.000
  0
VERTEX
  8
Unknown_Area_Type
  10
343242.000
  20
4662904.000
  0
SEQEND
  8
Unknown_Area_Type
  0
INSERT
  8
FeatureAttribs
  2
FEATURE
  41
1
  42
1
  43
1
  50
0
  10
325253.209
  20
4662183.573
 66
1
  0
ATTRIB
  8
FeatureAttribs
 70
0
  1
PNOA-H_AMS_1956-57_33k_ES_PAN_2
  2
NAME
  10
325253.209
  20
4662183.573
 40
33.93466
  0
SEQEND
  0
POLYLINE
  8
Unknown_Area_Type
  70
1
  66
1
  0
VERTEX
  8
Unknown_Area_Type
  10
325238.000
  20
4663396.500
  0
VERTEX
  8
Unknown_Area_Type
  10
326535.000
  20
4663414.500
  0
VERTEX
  8
Unknown_Area_Type
  10
326674.500
  20
4663320.000
  0
VERTEX
  8
Unknown_Area_Type
  10
326618.500
  20
4661021.500
  0
VERTEX
  8
Unknown_Area_Type
  10
326591.000
  20
4660922.500
  0
VERTEX
  8
Unknown_Area_Type
  10
323839.000
  20
4661024.000
  0
VERTEX
  8
Unknown_Area_Type
  10
323803.500
  20
4661203.000
  0
VERTEX
  8
Unknown_Area_Type
  10
323870.000
  20
4663377.000
  0
VERTEX
  8
Unknown_Area_Type
  10
325202.500
  20
4663396.000
  0
VERTEX
  8
Unknown_Area_Type
  10
325238.000
  20
4663396.500
  0
SEQEND
  8
Unknown_Area_Type
  0
INSERT
  8
FeatureAttribs
  2
FEATURE
  41
1
  42
1
  43
1
  50
0
  10
325253.209
  20
4662183.573
 66
1
  0
ATTRIB
  8
FeatureAttribs
 70
0
  1
PNOA-H_AMS_1956-57_33k_ES_PAN_2
  2
NAME
  10
325253.209
  20
4662183.573
 40
33.93466
  0
SEQEND
  0
POLYLINE
  8
Unknown_Area_Type
  70
1
  66
1
  0
VERTEX
  8
Unknown_Area_Type
  10
325238.000
  20
4663396.500
  0
VERTEX
  8
Unknown_Area_Type
  10
325202.500
  20
4663396.000
  0
VERTEX
  8
Unknown_Area_Type
  10
323870.000
  20
4663377.000
  0
VERTEX
  8
Unknown_Area_Type
  10
323803.500
  20
4661203.000
  0
VERTEX
  8
Unknown_Area_Type
  10
323839.000
  20
4661024.000
  0
VERTEX
  8
Unknown_Area_Type
  10
326591.000
  20
4660922.500
  0
VERTEX
  8
Unknown_Area_Type
  10
326618.500
  20
4661021.500
  0
VERTEX
  8
Unknown_Area_Type
  10
326674.500
  20
4663320.000
  0
VERTEX
  8
Unknown_Area_Type
  10
326535.000
  20
4663414.500
  0
VERTEX
  8
Unknown_Area_Type
  10
325238.000
  20
4663396.500
  0
SEQEND
  8
Unknown_Area_Type
  0
INSERT
  8
FeatureAttribs
  2
FEATURE
  41
1
  42
1
  43
1
  50
0
  10
341771.900
  20
4661744.476
 66
1
  0
ATTRIB
  8
FeatureAttribs
 70
0
  1
PNOA-H_AMS_1956-57_33k_ES_PAN_2
  2
NAME
  10
341771.900
  20
4661744.476
 40
33.93466
  0
SEQEND
  0
POLYLINE
  8
Unknown_Area_Type
  70
1
  66
1
  0
VERTEX
  8
Unknown_Area_Type
  10
341650.000
  20
4663000.000
  0
VERTEX
  8
Unknown_Area_Type
  10
343242.500
  20
4662913.500
  0
VERTEX
  8
Unknown_Area_Type
  10
343169.500
  20
4660855.000
  0
VERTEX
  8
Unknown_Area_Type
  10
340605.500
  20
4660182.000
  0
VERTEX
  8
Unknown_Area_Type
  10
340603.500
  20
4660182.500
  0
VERTEX
  8
Unknown_Area_Type
  10
340601.000
  20
4660192.000
  0
VERTEX
  8
Unknown_Area_Type
  10
340445.500
  20
4660802.000
  0
VERTEX
  8
Unknown_Area_Type
  10
340522.500
  20
4663011.000
  0
VERTEX
  8
Unknown_Area_Type
  10
340599.500
  20
4663057.000
  0
VERTEX
  8
Unknown_Area_Type
  10
340608.500
  20
4663057.000
  0
VERTEX
  8
Unknown_Area_Type
  10
341647.500
  20
4663000.000
  0
VERTEX
  8
Unknown_Area_Type
  10
341650.000
  20
4663000.000
  0
SEQEND
  8
Unknown_Area_Type
  0
INSERT
  8
FeatureAttribs
  2
FEATURE
  41
1
  42
1
  43
1
  50
0
  10
341771.900
  20
4661744.476
 66
1
  0
ATTRIB
  8
FeatureAttribs
 70
0
  1
PNOA-H_AMS_1956-57_33k_ES_PAN_2
  2
NAME
  10
341771.900
  20
4661744.476
 40
33.93466
  0
SEQEND
  0
POLYLINE
  8
Unknown_Area_Type
  70
1
  66
1
  0
VERTEX
  8
Unknown_Area_Type
  10
341650.000
  20
4663000.000
  0
VERTEX
  8
Unknown_Area_Type
  10
341647.500
  20
4663000.000
  0
VERTEX
  8
Unknown_Area_Type
  10
340608.500
  20
4663057.000
  0
VERTEX
  8
Unknown_Area_Type
  10
340599.500
  20
4663057.000
  0
VERTEX
  8
Unknown_Area_Type
  10
340522.500
  20
4663011.000
  0
VERTEX
  8
Unknown_Area_Type
  10
340445.500
  20
4660802.000
  0
VERTEX
  8
Unknown_Area_Type
  10
340601.000
  20
4660192.000
  0
VERTEX
  8
Unknown_Area_Type
  10
340603.500
  20
4660182.500
  0
VERTEX
  8
Unknown_Area_Type
  10
340605.500
  20
4660182.000
  0
VERTEX
  8
Unknown_Area_Type
  10
343169.500
  20
4660855.000
  0
VERTEX
  8
Unknown_Area_Type
  10
343242.500
  20
4662913.500
  0
VERTEX
  8
Unknown_Area_Type
  10
341650.000
  20
4663000.000
  0
SEQEND
  8
Unknown_Area_Type
  0
INSERT
  8
FeatureAttribs
  2
FEATURE
  41
1
  42
1
  43
1
  50
0
  10
336316.670
  20
4661880.630
 66
1
  0
ATTRIB
  8
FeatureAttribs
 70
0
  1
PNOA-H_AMS_1956-57_33k_ES_PAN_2
  2
NAME
  10
336316.670
  20
4661880.630
 40
33.93466
  0
SEQEND
  0
POLYLINE
  8
Unknown_Area_Type
  70
1
  66
1
  0
VERTEX
  8
Unknown_Area_Type
  10
337554.000
  20
4663065.500
  0
VERTEX
  8
Unknown_Area_Type
  10
337748.000
  20
4663058.500
  0
VERTEX
  8
Unknown_Area_Type
  10
337693.500
  20
4660798.500
  0
VERTEX
  8
Unknown_Area_Type
  10
335015.000
  20
4660510.500
  0
VERTEX
  8
Unknown_Area_Type
  10
335011.000
  20
4660510.500
  0
VERTEX
  8
Unknown_Area_Type
  10
335010.500
  20
4660512.000
  0
VERTEX
  8
Unknown_Area_Type
  10
334967.000
  20
4660687.500
  0
VERTEX
  8
Unknown_Area_Type
  10
335002.000
  20
4663126.500
  0
VERTEX
  8
Unknown_Area_Type
  10
335044.500
  20
4663153.500
  0
VERTEX
  8
Unknown_Area_Type
  10
335057.000
  20
4663154.000
  0
VERTEX
  8
Unknown_Area_Type
  10
337543.500
  20
4663065.500
  0
VERTEX
  8
Unknown_Area_Type
  10
337554.000
  20
4663065.500
  0
SEQEND
  8
Unknown_Area_Type
  0
INSERT
  8
FeatureAttribs
  2
FEATURE
  41
1
  42
1
  43
1
  50
0
  10
336316.670
  20
4661880.630
 66
1
  0
ATTRIB
  8
FeatureAttribs
 70
0
  1
PNOA-H_AMS_1956-57_33k_ES_PAN_2
  2
NAME
  10
336316.670
  20
4661880.630
 40
33.93466
  0
SEQEND
  0
POLYLINE
  8
Unknown_Area_Type
  70
1
  66
1
  0
VERTEX
  8
Unknown_Area_Type
  10
337554.000
  20
4663065.500
  0
VERTEX
  8
Unknown_Area_Type
  10
337543.500
  20
4663065.500
  0
VERTEX
  8
Unknown_Area_Type
  10
335057.000
  20
4663154.000
  0
VERTEX
  8
Unknown_Area_Type
  10
335044.500
  20
4663153.500
  0
VERTEX
  8
Unknown_Area_Type
  10
335002.000
  20
4663126.500
  0
VERTEX
  8
Unknown_Area_Type
  10
334967.000
  20
4660687.500
  0
VERTEX
  8
Unknown_Area_Type
  10
335010.500
  20
4660512.000
  0
VERTEX
  8
Unknown_Area_Type
  10
335011.000
  20
4660510.500
  0
VERTEX
  8
Unknown_Area_Type
  10
335015.000
  20
4660510.500
  0
VERTEX
  8
Unknown_Area_Type
  10
337693.500
  20
4660798.500
  0
VERTEX
  8
Unknown_Area_Type
  10
337748.000
  20
4663058.500
  0
VERTEX
  8
Unknown_Area_Type
  10
337554.000
  20
4663065.500
  0
SEQEND
  8
Unknown_Area_Type
  0
INSERT
  8
FeatureAttribs
  2
FEATURE
  41
1
  42
1
  43
1
  50
0
  10
328089.709
  20
4662103.877
 66
1
  0
ATTRIB
  8
FeatureAttribs
 70
0
  1
PNOA-H_AMS_1956-57_33k_ES_PAN_2
  2
NAME
  10
328089.709
  20
4662103.877
 40
33.93466
  0
SEQEND
  0
POLYLINE
  8
Unknown_Area_Type
  70
1
  66
1
  0
VERTEX
  8
Unknown_Area_Type
  10
329362.000
  20
4663319.000
  0
VERTEX
  8
Unknown_Area_Type
  10
329367.000
  20
4663318.500
  0
VERTEX
  8
Unknown_Area_Type
  10
329525.500
  20
4663205.000
  0
VERTEX
  8
Unknown_Area_Type
  10
329460.500
  20
4661078.500
  0
VERTEX
  8
Unknown_Area_Type
  10
329370.500
  20
4660761.500
  0
VERTEX
  8
Unknown_Area_Type
  10
326618.000
  20
4661021.000
  0
VERTEX
  8
Unknown_Area_Type
  10
326674.500
  20
4663319.500
  0
VERTEX
  8
Unknown_Area_Type
  10
328405.000
  20
4663319.000
  0
VERTEX
  8
Unknown_Area_Type
  10
329362.000
  20
4663319.000
  0
SEQEND
  8
Unknown_Area_Type
  0
INSERT
  8
FeatureAttribs
  2
FEATURE
  41
1
  42
1
  43
1
  50
0
  10
328089.709
  20
4662103.877
 66
1
  0
ATTRIB
  8
FeatureAttribs
 70
0
  1
PNOA-H_AMS_1956-57_33k_ES_PAN_2
  2
NAME
  10
328089.709
  20
4662103.877
 40
33.93466
  0
SEQEND
  0
POLYLINE
  8
Unknown_Area_Type
  70
1
  66
1
  0
VERTEX
  8
Unknown_Area_Type
  10
329362.000
  20
4663319.000
  0
VERTEX
  8
Unknown_Area_Type
  10
328405.000
  20
4663319.000
  0
VERTEX
  8
Unknown_Area_Type
  10
326674.500
  20
4663319.500
  0
VERTEX
  8
Unknown_Area_Type
  10
326618.000
  20
4661021.000
  0
VERTEX
  8
Unknown_Area_Type
  10
329370.500
  20
4660761.500
  0
VERTEX
  8
Unknown_Area_Type
  10
329460.500
  20
4661078.500
  0
VERTEX
  8
Unknown_Area_Type
  10
329525.500
  20
4663205.000
  0
VERTEX
  8
Unknown_Area_Type
  10
329367.000
  20
4663318.500
  0
VERTEX
  8
Unknown_Area_Type
  10
329362.000
  20
4663319.000
  0
SEQEND
  8
Unknown_Area_Type
  0
INSERT
  8
FeatureAttribs
  2
FEATURE
  41
1
  42
1
  43
1
  50
0
  10
318961.314
  20
4662219.645
 66
1
  0
ATTRIB
  8
FeatureAttribs
 70
0
  1
PNOA-H_AMS_1956-57_33k_ES_PAN_2
  2
NAME
  10
318961.314
  20
4662219.645
 40
33.93466
  0
SEQEND
  0
POLYLINE
  8
Unknown_Area_Type
  70
1
  66
1
  0
VERTEX
  8
Unknown_Area_Type
  10
319064.352
  20
4661183.371
  0
VERTEX
  8
Unknown_Area_Type
  10
318831.743
  20
4661197.712
  0
VERTEX
  8
Unknown_Area_Type
  10
318831.743
  20
4663176.128
  0
VERTEX
  8
Unknown_Area_Type
  10
319117.420
  20
4663255.919
  0
VERTEX
  8
Unknown_Area_Type
  10
319068.467
  20
4661344.133
  0
VERTEX
  8
Unknown_Area_Type
  10
319064.352
  20
4661183.371
  0
SEQEND
  8
Unknown_Area_Type
  0
INSERT
  8
FeatureAttribs
  2
FEATURE
  41
1
  42
1
  43
1
  50
0
  10
320059.924
  20
4662221.490
 66
1
  0
ATTRIB
  8
FeatureAttribs
 70
0
  1
PNOA-H_AMS_1956-57_33k_ES_PAN_2
  2
NAME
  10
320059.924
  20
4662221.490
 40
33.93466
  0
SEQEND
  0
POLYLINE
  8
Unknown_Area_Type
  70
1
  66
1
  0
VERTEX
  8
Unknown_Area_Type
  10
319117.420
  20
4663255.919
  0
VERTEX
  8
Unknown_Area_Type
  10
319119.500
  20
4663256.500
  0
VERTEX
  8
Unknown_Area_Type
  10
319121.500
  20
4663257.000
  0
VERTEX
  8
Unknown_Area_Type
  10
320031.000
  20
4663510.500
  0
VERTEX
  8
Unknown_Area_Type
  10
321074.500
  20
4662991.000
  0
VERTEX
  8
Unknown_Area_Type
  10
321025.000
  20
4661062.500
  0
VERTEX
  8
Unknown_Area_Type
  10
319064.352
  20
4661183.371
  0
VERTEX
  8
Unknown_Area_Type
  10
319068.467
  20
4661344.133
  0
VERTEX
  8
Unknown_Area_Type
  10
319117.420
  20
4663255.919
  0
SEQEND
  8
Unknown_Area_Type
  0
INSERT
  8
FeatureAttribs
  2
FEATURE
  41
1
  42
1
  43
1
  50
0
  10
320059.924
  20
4662221.490
 66
1
  0
ATTRIB
  8
FeatureAttribs
 70
0
  1
PNOA-H_AMS_1956-57_33k_ES_PAN_2
  2
NAME
  10
320059.924
  20
4662221.490
 40
33.93466
  0
SEQEND
  0
POLYLINE
  8
Unknown_Area_Type
  70
1
  66
1
  0
VERTEX
  8
Unknown_Area_Type
  10
319117.420
  20
4663255.919
  0
VERTEX
  8
Unknown_Area_Type
  10
319068.467
  20
4661344.133
  0
VERTEX
  8
Unknown_Area_Type
  10
319064.352
  20
4661183.371
  0
VERTEX
  8
Unknown_Area_Type
  10
321025.000
  20
4661062.500
  0
VERTEX
  8
Unknown_Area_Type
  10
321074.500
  20
4662991.000
  0
VERTEX
  8
Unknown_Area_Type
  10
320031.000
  20
4663510.500
  0
VERTEX
  8
Unknown_Area_Type
  10
319121.500
  20
4663257.000
  0
VERTEX
  8
Unknown_Area_Type
  10
319119.500
  20
4663256.500
  0
VERTEX
  8
Unknown_Area_Type
  10
319117.420
  20
4663255.919
  0
SEQEND
  8
Unknown_Area_Type
  0
INSERT
  8
FeatureAttribs
  2
FEATURE
  41
1
  42
1
  43
1
  50
0
  10
322473.314
  20
4662195.816
 66
1
  0
ATTRIB
  8
FeatureAttribs
 70
0
  1
PNOA-H_AMS_1956-57_33k_ES_PAN_2
  2
NAME
  10
322473.314
  20
4662195.816
 40
33.93466
  0
SEQEND
  0
POLYLINE
  8
Unknown_Area_Type
  70
1
  66
1
  0
VERTEX
  8
Unknown_Area_Type
  10
323667.500
  20
4663504.000
  0
VERTEX
  8
Unknown_Area_Type
  10
323683.500
  20
4663504.000
  0
VERTEX
  8
Unknown_Area_Type
  10
323870.000
  20
4663377.000
  0
VERTEX
  8
Unknown_Area_Type
  10
323803.500
  20
4661200.500
  0
VERTEX
  8
Unknown_Area_Type
  10
321054.000
  20
4660934.000
  0
VERTEX
  8
Unknown_Area_Type
  10
321050.500
  20
4660934.500
  0
VERTEX
  8
Unknown_Area_Type
  10
321046.500
  20
4660954.000
  0
VERTEX
  8
Unknown_Area_Type
  10
321025.000
  20
4661061.000
  0
VERTEX
  8
Unknown_Area_Type
  10
321025.000
  20
4661076.500
  0
VERTEX
  8
Unknown_Area_Type
  10
321074.500
  20
4662991.000
  0
VERTEX
  8
Unknown_Area_Type
  10
323048.000
  20
4663493.500
  0
VERTEX
  8
Unknown_Area_Type
  10
323637.000
  20
4663503.500
  0
VERTEX
  8
Unknown_Area_Type
  10
323667.500
  20
4663504.000
  0
SEQEND
  8
Unknown_Area_Type
  0
INSERT
  8
FeatureAttribs
  2
FEATURE
  41
1
  42
1
  43
1
  50
0
  10
322473.314
  20
4662195.816
 66
1
  0
ATTRIB
  8
FeatureAttribs
 70
0
  1
PNOA-H_AMS_1956-57_33k_ES_PAN_2
  2
NAME
  10
322473.314
  20
4662195.816
 40
33.93466
  0
SEQEND
  0
POLYLINE
  8
Unknown_Area_Type
  70
1
  66
1
  0
VERTEX
  8
Unknown_Area_Type
  10
323667.500
  20
4663504.000
  0
VERTEX
  8
Unknown_Area_Type
  10
323637.000
  20
4663503.500
  0
VERTEX
  8
Unknown_Area_Type
  10
323048.000
  20
4663493.500
  0
VERTEX
  8
Unknown_Area_Type
  10
321074.500
  20
4662991.000
  0
VERTEX
  8
Unknown_Area_Type
  10
321025.000
  20
4661076.500
  0
VERTEX
  8
Unknown_Area_Type
  10
321025.000
  20
4661061.000
  0
VERTEX
  8
Unknown_Area_Type
  10
321046.500
  20
4660954.000
  0
VERTEX
  8
Unknown_Area_Type
  10
321050.500
  20
4660934.500
  0
VERTEX
  8
Unknown_Area_Type
  10
321054.000
  20
4660934.000
  0
VERTEX
  8
Unknown_Area_Type
  10
323803.500
  20
4661200.500
  0
VERTEX
  8
Unknown_Area_Type
  10
323870.000
  20
4663377.000
  0
VERTEX
  8
Unknown_Area_Type
  10
323683.500
  20
4663504.000
  0
VERTEX
  8
Unknown_Area_Type
  10
323667.500
  20
4663504.000
  0
SEQEND
  8
Unknown_Area_Type
  0
INSERT
  8
FeatureAttribs
  2
FEATURE
  41
1
  42
1
  43
1
  50
0
  10
318990.221
  20
4664477.131
 66
1
  0
ATTRIB
  8
FeatureAttribs
 70
0
  1
PNOA-H_AMS_1956-57_33k_ES_PAN_2
  2
NAME
  10
318990.221
  20
4664477.131
 40
33.93466
  0
SEQEND
  0
POLYLINE
  8
Unknown_Area_Type
  70
1
  66
1
  0
VERTEX
  8
Unknown_Area_Type
  10
319117.405
  20
4663255.337
  0
VERTEX
  8
Unknown_Area_Type
  10
318831.743
  20
4663175.623
  0
VERTEX
  8
Unknown_Area_Type
  10
318831.743
  20
4665778.638
  0
VERTEX
  8
Unknown_Area_Type
  10
319169.350
  20
4665283.332
  0
VERTEX
  8
Unknown_Area_Type
  10
319127.701
  20
4663657.445
  0
VERTEX
  8
Unknown_Area_Type
  10
319117.405
  20
4663255.337
  0
SEQEND
  8
Unknown_Area_Type
  0
INSERT
  8
FeatureAttribs
  2
FEATURE
  41
1
  42
1
  43
1
  50
0
  10
319499.054
  20
4664064.773
 66
1
  0
ATTRIB
  8
FeatureAttribs
 70
0
  1
PNOA-H_AMS_1956-57_33k_ES_PAN_2
  2
NAME
  10
319499.054
  20
4664064.773
 40
33.93466
  0
SEQEND
  0
POLYLINE
  8
Unknown_Area_Type
  70
1
  66
1
  0
VERTEX
  8
Unknown_Area_Type
  10
319169.350
  20
4665283.332
  0
VERTEX
  8
Unknown_Area_Type
  10
319645.000
  20
4664585.500
  0
VERTEX
  8
Unknown_Area_Type
  10
319645.500
  20
4664584.000
  0
VERTEX
  8
Unknown_Area_Type
  10
320041.500
  20
4664003.500
  0
VERTEX
  8
Unknown_Area_Type
  10
320031.000
  20
4663516.000
  0
VERTEX
  8
Unknown_Area_Type
  10
320030.000
  20
4663510.000
  0
VERTEX
  8
Unknown_Area_Type
  10
319117.405
  20
4663255.337
  0
VERTEX
  8
Unknown_Area_Type
  10
319127.701
  20
4663657.445
  0
VERTEX
  8
Unknown_Area_Type
  10
319169.350
  20
4665283.332
  0
SEQEND
  8
Unknown_Area_Type
  0
INSERT
  8
FeatureAttribs
  2
FEATURE
  41
1
  42
1
  43
1
  50
0
  10
319499.054
  20
4664064.773
 66
1
  0
ATTRIB
  8
FeatureAttribs
 70
0
  1
PNOA-H_AMS_1956-57_33k_ES_PAN_2
  2
NAME
  10
319499.054
  20
4664064.773
 40
33.93466
  0
SEQEND
  0
POLYLINE
  8
Unknown_Area_Type
  70
1
  66
1
  0
VERTEX
  8
Unknown_Area_Type
  10
319169.350
  20
4665283.332
  0
VERTEX
  8
Unknown_Area_Type
  10
319127.701
  20
4663657.445
  0
VERTEX
  8
Unknown_Area_Type
  10
319117.405
  20
4663255.337
  0
VERTEX
  8
Unknown_Area_Type
  10
320030.000
  20
4663510.000
  0
VERTEX
  8
Unknown_Area_Type
  10
320031.000
  20
4663516.000
  0
VERTEX
  8
Unknown_Area_Type
  10
320041.500
  20
4664003.500
  0
VERTEX
  8
Unknown_Area_Type
  10
319645.500
  20
4664584.000
  0
VERTEX
  8
Unknown_Area_Type
  10
319645.000
  20
4664585.500
  0
VERTEX
  8
Unknown_Area_Type
  10
319169.350
  20
4665283.332
  0
SEQEND
  8
Unknown_Area_Type
  0
INSERT
  8
FeatureAttribs
  2
FEATURE
  41
1
  42
1
  43
1
  50
0
  10
321316.642
  20
4664421.762
 66
1
  0
ATTRIB
  8
FeatureAttribs
 70
0
  1
PNOA-H_AMS_1956-57_33k_ES_PAN_2
  2
NAME
  10
321316.642
  20
4664421.762
 40
33.93466
  0
SEQEND
  0
POLYLINE
  8
Unknown_Area_Type
  70
1
  66
1
  0
VERTEX
  8
Unknown_Area_Type
  10
320041.500
  20
4664004.000
  0
VERTEX
  8
Unknown_Area_Type
  10
320964.000
  20
4666737.000
  0
VERTEX
  8
Unknown_Area_Type
  10
320968.500
  20
4666731.500
  0
VERTEX
  8
Unknown_Area_Type
  10
322348.000
  20
4664585.000
  0
VERTEX
  8
Unknown_Area_Type
  10
322348.500
  20
4664584.000
  0
VERTEX
  8
Unknown_Area_Type
  10
323048.500
  20
4663495.500
  0
VERTEX
  8
Unknown_Area_Type
  10
323049.000
  20
4663493.500
  0
VERTEX
  8
Unknown_Area_Type
  10
323048.000
  20
4663493.000
  0
VERTEX
  8
Unknown_Area_Type
  10
321074.000
  20
4662991.000
  0
VERTEX
  8
Unknown_Area_Type
  10
320030.500
  20
4663510.500
  0
VERTEX
  8
Unknown_Area_Type
  10
320041.500
  20
4664004.000
  0
SEQEND
  8
Unknown_Area_Type
  0
INSERT
  8
FeatureAttribs
  2
FEATURE
  41
1
  42
1
  43
1
  50
0
  10
321316.642
  20
4664421.762
 66
1
  0
ATTRIB
  8
FeatureAttribs
 70
0
  1
PNOA-H_AMS_1956-57_33k_ES_PAN_2
  2
NAME
  10
321316.642
  20
4664421.762
 40
33.93466
  0
SEQEND
  0
POLYLINE
  8
Unknown_Area_Type
  70
1
  66
1
  0
VERTEX
  8
Unknown_Area_Type
  10
320041.500
  20
4664004.000
  0
VERTEX
  8
Unknown_Area_Type
  10
320030.500
  20
4663510.500
  0
VERTEX
  8
Unknown_Area_Type
  10
321074.000
  20
4662991.000
  0
VERTEX
  8
Unknown_Area_Type
  10
323048.000
  20
4663493.000
  0
VERTEX
  8
Unknown_Area_Type
  10
323049.000
  20
4663493.500
  0
VERTEX
  8
Unknown_Area_Type
  10
323048.500
  20
4663495.500
  0
VERTEX
  8
Unknown_Area_Type
  10
322348.500
  20
4664584.000
  0
VERTEX
  8
Unknown_Area_Type
  10
322348.000
  20
4664585.000
  0
VERTEX
  8
Unknown_Area_Type
  10
320968.500
  20
4666731.500
  0
VERTEX
  8
Unknown_Area_Type
  10
320964.000
  20
4666737.000
  0
VERTEX
  8
Unknown_Area_Type
  10
320041.500
  20
4664004.000
  0
SEQEND
  8
Unknown_Area_Type
  0
INSERT
  8
FeatureAttribs
  2
FEATURE
  41
1
  42
1
  43
1
  50
0
  10
344503.990
  20
4656203.360
 66
1
  0
ATTRIB
  8
FeatureAttribs
 70
0
  1
PNOA-H_AMS_1956-57_33k_ES_PAN_2
  2
NAME
  10
344503.990
  20
4656203.360
 40
33.93466
  0
SEQEND
  0
POLYLINE
  8
Unknown_Area_Type
  70
1
  66
1
  0
VERTEX
  8
Unknown_Area_Type
  10
343305.000
  20
4657856.000
  0
VERTEX
  8
Unknown_Area_Type
  10
343306.000
  20
4657856.500
  0
VERTEX
  8
Unknown_Area_Type
  10
345564.000
  20
4657604.500
  0
VERTEX
  8
Unknown_Area_Type
  10
345579.000
  20
4656454.500
  0
VERTEX
  8
Unknown_Area_Type
  10
345331.000
  20
4653603.500
  0
VERTEX
  8
Unknown_Area_Type
  10
345023.000
  20
4653562.500
  0
VERTEX
  8
Unknown_Area_Type
  10
342755.500
  20
4657508.500
  0
VERTEX
  8
Unknown_Area_Type
  10
342752.500
  20
4657605.000
  0
VERTEX
  8
Unknown_Area_Type
  10
343305.000
  20
4657856.000
  0
SEQEND
  8
Unknown_Area_Type
  0
INSERT
  8
FeatureAttribs
  2
FEATURE
  41
1
  42
1
  43
1
  50
0
  10
344503.990
  20
4656203.360
 66
1
  0
ATTRIB
  8
FeatureAttribs
 70
0
  1
PNOA-H_AMS_1956-57_33k_ES_PAN_2
  2
NAME
  10
344503.990
  20
4656203.360
 40
33.93466
  0
SEQEND
  0
POLYLINE
  8
Unknown_Area_Type
  70
1
  66
1
  0
VERTEX
  8
Unknown_Area_Type
  10
343305.000
  20
4657856.000
  0
VERTEX
  8
Unknown_Area_Type
  10
342752.500
  20
4657605.000
  0
VERTEX
  8
Unknown_Area_Type
  10
342755.500
  20
4657508.500
  0
VERTEX
  8
Unknown_Area_Type
  10
345023.000
  20
4653562.500
  0
VERTEX
  8
Unknown_Area_Type
  10
345331.000
  20
4653603.500
  0
VERTEX
  8
Unknown_Area_Type
  10
345579.000
  20
4656454.500
  0
VERTEX
  8
Unknown_Area_Type
  10
345564.000
  20
4657604.500
  0
VERTEX
  8
Unknown_Area_Type
  10
343306.000
  20
4657856.500
  0
VERTEX
  8
Unknown_Area_Type
  10
343305.000
  20
4657856.000
  0
SEQEND
  8
Unknown_Area_Type
  0
INSERT
  8
FeatureAttribs
  2
FEATURE
  41
1
  42
1
  43
1
  50
0
  10
341975.880
  20
4655317.717
 66
1
  0
ATTRIB
  8
FeatureAttribs
 70
0
  1
PNOA-H_AMS_1956-57_33k_ES_PAN_2
  2
NAME
  10
341975.880
  20
4655317.717
 40
33.93466
  0
SEQEND
  0
POLYLINE
  8
Unknown_Area_Type
  70
1
  66
1
  0
VERTEX
  8
Unknown_Area_Type
  10
341884.500
  20
4657699.000
  0
VERTEX
  8
Unknown_Area_Type
  10
342752.500
  20
4657605.000
  0
VERTEX
  8
Unknown_Area_Type
  10
342755.500
  20
4657500.500
  0
VERTEX
  8
Unknown_Area_Type
  10
342628.500
  20
4653535.500
  0
VERTEX
  8
Unknown_Area_Type
  10
340795.000
  20
4653389.000
  0
VERTEX
  8
Unknown_Area_Type
  10
341884.000
  20
4657696.500
  0
VERTEX
  8
Unknown_Area_Type
  10
341884.500
  20
4657699.000
  0
SEQEND
  8
Unknown_Area_Type
  0
INSERT
  8
FeatureAttribs
  2
FEATURE
  41
1
  42
1
  43
1
  50
0
  10
341975.880
  20
4655317.717
 66
1
  0
ATTRIB
  8
FeatureAttribs
 70
0
  1
PNOA-H_AMS_1956-57_33k_ES_PAN_2
  2
NAME
  10
341975.880
  20
4655317.717
 40
33.93466
  0
SEQEND
  0
POLYLINE
  8
Unknown_Area_Type
  70
1
  66
1
  0
VERTEX
  8
Unknown_Area_Type
  10
341884.500
  20
4657699.000
  0
VERTEX
  8
Unknown_Area_Type
  10
341884.000
  20
4657696.500
  0
VERTEX
  8
Unknown_Area_Type
  10
340795.000
  20
4653389.000
  0
VERTEX
  8
Unknown_Area_Type
  10
342628.500
  20
4653535.500
  0
VERTEX
  8
Unknown_Area_Type
  10
342755.500
  20
4657500.500
  0
VERTEX
  8
Unknown_Area_Type
  10
342752.500
  20
4657605.000
  0
VERTEX
  8
Unknown_Area_Type
  10
341884.500
  20
4657699.000
  0
SEQEND
  8
Unknown_Area_Type
  0
INSERT
  8
FeatureAttribs
  2
FEATURE
  41
1
  42
1
  43
1
  50
0
  10
346696.905
  20
4656667.872
 66
1
  0
ATTRIB
  8
FeatureAttribs
 70
0
  1
PNOA-H_AMS_1956-57_33k_ES_PAN_2
  2
NAME
  10
346696.905
  20
4656667.872
 40
33.93466
  0
SEQEND
  0
POLYLINE
  8
Unknown_Area_Type
  70
1
  66
1
  0
VERTEX
  8
Unknown_Area_Type
  10
346841.020
  20
4658040.787
  0
VERTEX
  8
Unknown_Area_Type
  10
346841.020
  20
4655280.298
  0
VERTEX
  8
Unknown_Area_Type
  10
346529.008
  20
4655570.846
  0
VERTEX
  8
Unknown_Area_Type
  10
346539.731
  20
4656065.603
  0
VERTEX
  8
Unknown_Area_Type
  10
346582.878
  20
4658055.447
  0
VERTEX
  8
Unknown_Area_Type
  10
346841.020
  20
4658040.787
  0
SEQEND
  8
Unknown_Area_Type
  0
INSERT
  8
FeatureAttribs
  2
FEATURE
  41
1
  42
1
  43
1
  50
0
  10
346125.548
  20
4656926.550
 66
1
  0
ATTRIB
  8
FeatureAttribs
 70
0
  1
PNOA-H_AMS_1956-57_33k_ES_PAN_2
  2
NAME
  10
346125.548
  20
4656926.550
 40
33.93466
  0
SEQEND
  0
POLYLINE
  8
Unknown_Area_Type
  70
1
  66
1
  0
VERTEX
  8
Unknown_Area_Type
  10
346582.878
  20
4658055.447
  0
VERTEX
  8
Unknown_Area_Type
  10
346539.731
  20
4656065.603
  0
VERTEX
  8
Unknown_Area_Type
  10
346529.008
  20
4655570.846
  0
VERTEX
  8
Unknown_Area_Type
  10
345579.000
  20
4656455.500
  0
VERTEX
  8
Unknown_Area_Type
  10
345564.000
  20
4657584.000
  0
VERTEX
  8
Unknown_Area_Type
  10
345564.500
  20
4657605.000
  0
VERTEX
  8
Unknown_Area_Type
  10
346511.500
  20
4658059.500
  0
VERTEX
  8
Unknown_Area_Type
  10
346582.878
  20
4658055.447
  0
SEQEND
  8
Unknown_Area_Type
  0
INSERT
  8
FeatureAttribs
  2
FEATURE
  41
1
  42
1
  43
1
  50
0
  10
346125.548
  20
4656926.550
 66
1
  0
ATTRIB
  8
FeatureAttribs
 70
0
  1
PNOA-H_AMS_1956-57_33k_ES_PAN_2
  2
NAME
  10
346125.548
  20
4656926.550
 40
33.93466
  0
SEQEND
  0
POLYLINE
  8
Unknown_Area_Type
  70
1
  66
1
  0
VERTEX
  8
Unknown_Area_Type
  10
346582.878
  20
4658055.447
  0
VERTEX
  8
Unknown_Area_Type
  10
346511.500
  20
4658059.500
  0
VERTEX
  8
Unknown_Area_Type
  10
345564.500
  20
4657605.000
  0
VERTEX
  8
Unknown_Area_Type
  10
345564.000
  20
4657584.000
  0
VERTEX
  8
Unknown_Area_Type
  10
345579.000
  20
4656455.500
  0
VERTEX
  8
Unknown_Area_Type
  10
346529.008
  20
4655570.846
  0
VERTEX
  8
Unknown_Area_Type
  10
346539.731
  20
4656065.603
  0
VERTEX
  8
Unknown_Area_Type
  10
346582.878
  20
4658055.447
  0
SEQEND
  8
Unknown_Area_Type
  0
ENDSEC
  0
EOF
