  0
SECTION
  2
HEADER
  9
$ACADVER
  1
AC1009
  9
$LUNITS
  70
2
  9
$LIMMIN
  10
291223.391
  20
4652090.935
  9
$LIMMAX
  10
319305.575
  20
4671357.356
  9
$EXTMIN
  10
291223.391
  20
4652090.935
  9
$EXTMAX
  10
319305.575
  20
4671357.356
  999
Created by Global Mapper
  999
Projection: UTM
  999
Datum: ETRS89
  999
Ground Units: meters
  999
ZONE: 30
  0
ENDSEC
  0
SECTION
  2
TABLES
  0
ENDSEC
  0
SECTION
  2
BLOCKS
  0
BLOCK
  8
FeatureAttribs
  70
0
  2
FEATURE
  3
FEATURE
  10
0.00000000
  20
0.00000000
  0
ATTDEF
  8
FeatureAttribs
  70
0
  1
 
  2
NAME
  3
NAME
  10
0.00000000
  20
0.00000000
  40
1.00000000
  0
ENDBLK
  0
ENDSEC
  0
SECTION
  2
ENTITIES
  0
INSERT
  8
FeatureAttribs
  2
FEATURE
  41
1
  42
1
  43
1
  50
0
  10
291223.405
  20
4652850.191
 66
1
  0
ATTRIB
  8
FeatureAttribs
 70
0
  1
PNOA-H_AMS_1956-57_33k_ES_PAN_2
  2
NAME
  10
291223.405
  20
4652850.191
 40
34.05590
  0
SEQEND
  0
POLYLINE
  8
Unknown_Area_Type
  70
1
  66
1
  0
VERTEX
  8
Unknown_Area_Type
  10
291223.391
  20
4652850.430
  0
VERTEX
  8
Unknown_Area_Type
  10
291223.419
  20
4652850.429
  0
VERTEX
  8
Unknown_Area_Type
  10
291223.391
  20
4652849.475
  0
VERTEX
  8
Unknown_Area_Type
  10
291223.391
  20
4652850.430
  0
SEQEND
  8
Unknown_Area_Type
  0
INSERT
  8
FeatureAttribs
  2
FEATURE
  41
1
  42
1
  43
1
  50
0
  10
291390.872
  20
4652470.682
 66
1
  0
ATTRIB
  8
FeatureAttribs
 70
0
  1
PNOA-H_AMS_1956-57_33k_ES_PAN_2
  2
NAME
  10
291390.872
  20
4652470.682
 40
34.05590
  0
SEQEND
  0
POLYLINE
  8
Unknown_Area_Type
  70
1
  66
1
  0
VERTEX
  8
Unknown_Area_Type
  10
291549.266
  20
4652090.935
  0
VERTEX
  8
Unknown_Area_Type
  10
291223.391
  20
4652090.935
  0
VERTEX
  8
Unknown_Area_Type
  10
291223.391
  20
4652849.475
  0
VERTEX
  8
Unknown_Area_Type
  10
291223.419
  20
4652850.429
  0
VERTEX
  8
Unknown_Area_Type
  10
291567.199
  20
4652840.385
  0
VERTEX
  8
Unknown_Area_Type
  10
291549.266
  20
4652090.935
  0
SEQEND
  8
Unknown_Area_Type
  0
INSERT
  8
FeatureAttribs
  2
FEATURE
  41
1
  42
1
  43
1
  50
0
  10
291417.957
  20
4653791.189
 66
1
  0
ATTRIB
  8
FeatureAttribs
 70
0
  1
PNOA-H_AMS_1956-57_33k_ES_PAN_2
  2
NAME
  10
291417.957
  20
4653791.189
 40
34.05590
  0
SEQEND
  0
POLYLINE
  8
Unknown_Area_Type
  70
1
  66
1
  0
VERTEX
  8
Unknown_Area_Type
  10
291567.199
  20
4652840.385
  0
VERTEX
  8
Unknown_Area_Type
  10
291223.419
  20
4652850.429
  0
VERTEX
  8
Unknown_Area_Type
  10
291282.051
  20
4654840.334
  0
VERTEX
  8
Unknown_Area_Type
  10
291610.500
  20
4654650.000
  0
VERTEX
  8
Unknown_Area_Type
  10
291567.199
  20
4652840.385
  0
SEQEND
  8
Unknown_Area_Type
  0
INSERT
  8
FeatureAttribs
  2
FEATURE
  41
1
  42
1
  43
1
  50
0
  10
291417.957
  20
4653791.189
 66
1
  0
ATTRIB
  8
FeatureAttribs
 70
0
  1
PNOA-H_AMS_1956-57_33k_ES_PAN_2
  2
NAME
  10
291417.957
  20
4653791.189
 40
34.05590
  0
SEQEND
  0
POLYLINE
  8
Unknown_Area_Type
  70
1
  66
1
  0
VERTEX
  8
Unknown_Area_Type
  10
291567.199
  20
4652840.385
  0
VERTEX
  8
Unknown_Area_Type
  10
291610.500
  20
4654650.000
  0
VERTEX
  8
Unknown_Area_Type
  10
291282.051
  20
4654840.334
  0
VERTEX
  8
Unknown_Area_Type
  10
291223.419
  20
4652850.429
  0
VERTEX
  8
Unknown_Area_Type
  10
291567.199
  20
4652840.385
  0
SEQEND
  8
Unknown_Area_Type
  0
INSERT
  8
FeatureAttribs
  2
FEATURE
  41
1
  42
1
  43
1
  50
0
  10
318952.868
  20
4652955.025
 66
1
  0
ATTRIB
  8
FeatureAttribs
 70
0
  1
PNOA-H_AMS_1956-57_33k_ES_PAN_2
  2
NAME
  10
318952.868
  20
4652955.025
 40
34.05590
  0
SEQEND
  0
POLYLINE
  8
Unknown_Area_Type
  70
1
  66
1
  0
VERTEX
  8
Unknown_Area_Type
  10
319014.800
  20
4652090.935
  0
VERTEX
  8
Unknown_Area_Type
  10
318832.532
  20
4652090.935
  0
VERTEX
  8
Unknown_Area_Type
  10
318831.771
  20
4652090.954
  0
VERTEX
  8
Unknown_Area_Type
  10
318875.951
  20
4653819.116
  0
VERTEX
  8
Unknown_Area_Type
  10
319086.500
  20
4653762.000
  0
VERTEX
  8
Unknown_Area_Type
  10
319014.800
  20
4652090.935
  0
SEQEND
  8
Unknown_Area_Type
  0
INSERT
  8
FeatureAttribs
  2
FEATURE
  41
1
  42
1
  43
1
  50
0
  10
316685.198
  20
4652127.858
 66
1
  0
ATTRIB
  8
FeatureAttribs
 70
0
  1
PNOA-H_AMS_1956-57_33k_ES_PAN_2
  2
NAME
  10
316685.198
  20
4652127.858
 40
34.05590
  0
SEQEND
  0
POLYLINE
  8
Unknown_Area_Type
  70
1
  66
1
  0
VERTEX
  8
Unknown_Area_Type
  10
315970.607
  20
4652164.780
  0
VERTEX
  8
Unknown_Area_Type
  10
318831.771
  20
4652090.954
  0
VERTEX
  8
Unknown_Area_Type
  10
318831.771
  20
4652090.935
  0
VERTEX
  8
Unknown_Area_Type
  10
315967.059
  20
4652090.935
  0
VERTEX
  8
Unknown_Area_Type
  10
315970.607
  20
4652164.780
  0
SEQEND
  8
Unknown_Area_Type
  0
INSERT
  8
FeatureAttribs
  2
FEATURE
  41
1
  42
1
  43
1
  50
0
  10
318831.961
  20
4652090.944
 66
1
  0
ATTRIB
  8
FeatureAttribs
 70
0
  1
PNOA-H_AMS_1956-57_33k_ES_PAN_2
  2
NAME
  10
318831.961
  20
4652090.944
 40
34.05590
  0
SEQEND
  0
POLYLINE
  8
Unknown_Area_Type
  70
1
  66
1
  0
VERTEX
  8
Unknown_Area_Type
  10
318831.771
  20
4652090.954
  0
VERTEX
  8
Unknown_Area_Type
  10
318832.532
  20
4652090.935
  0
VERTEX
  8
Unknown_Area_Type
  10
318831.771
  20
4652090.935
  0
VERTEX
  8
Unknown_Area_Type
  10
318831.771
  20
4652090.954
  0
SEQEND
  8
Unknown_Area_Type
  0
INSERT
  8
FeatureAttribs
  2
FEATURE
  41
1
  42
1
  43
1
  50
0
  10
317435.846
  20
4653090.946
 66
1
  0
ATTRIB
  8
FeatureAttribs
 70
0
  1
PNOA-H_AMS_1956-57_33k_ES_PAN_2
  2
NAME
  10
317435.846
  20
4653090.946
 40
34.05590
  0
SEQEND
  0
POLYLINE
  8
Unknown_Area_Type
  70
1
  66
1
  0
VERTEX
  8
Unknown_Area_Type
  10
318875.951
  20
4653819.116
  0
VERTEX
  8
Unknown_Area_Type
  10
318831.771
  20
4652090.954
  0
VERTEX
  8
Unknown_Area_Type
  10
315970.607
  20
4652164.780
  0
VERTEX
  8
Unknown_Area_Type
  10
316047.500
  20
4653765.000
  0
VERTEX
  8
Unknown_Area_Type
  10
317112.000
  20
4654296.000
  0
VERTEX
  8
Unknown_Area_Type
  10
317113.000
  20
4654296.500
  0
VERTEX
  8
Unknown_Area_Type
  10
317118.000
  20
4654296.000
  0
VERTEX
  8
Unknown_Area_Type
  10
318875.951
  20
4653819.116
  0
SEQEND
  8
Unknown_Area_Type
  0
INSERT
  8
FeatureAttribs
  2
FEATURE
  41
1
  42
1
  43
1
  50
0
  10
317435.846
  20
4653090.946
 66
1
  0
ATTRIB
  8
FeatureAttribs
 70
0
  1
PNOA-H_AMS_1956-57_33k_ES_PAN_2
  2
NAME
  10
317435.846
  20
4653090.946
 40
34.05590
  0
SEQEND
  0
POLYLINE
  8
Unknown_Area_Type
  70
1
  66
1
  0
VERTEX
  8
Unknown_Area_Type
  10
318875.951
  20
4653819.116
  0
VERTEX
  8
Unknown_Area_Type
  10
317118.000
  20
4654296.000
  0
VERTEX
  8
Unknown_Area_Type
  10
317113.000
  20
4654296.500
  0
VERTEX
  8
Unknown_Area_Type
  10
317112.000
  20
4654296.000
  0
VERTEX
  8
Unknown_Area_Type
  10
316047.500
  20
4653765.000
  0
VERTEX
  8
Unknown_Area_Type
  10
315970.607
  20
4652164.780
  0
VERTEX
  8
Unknown_Area_Type
  10
318831.771
  20
4652090.954
  0
VERTEX
  8
Unknown_Area_Type
  10
318875.951
  20
4653819.116
  0
SEQEND
  8
Unknown_Area_Type
  0
INSERT
  8
FeatureAttribs
  2
FEATURE
  41
1
  42
1
  43
1
  50
0
  10
311418.994
  20
4652208.013
 66
1
  0
ATTRIB
  8
FeatureAttribs
 70
0
  1
PNOA-H_AMS_1956-57_33k_ES_PAN_2
  2
NAME
  10
311418.994
  20
4652208.013
 40
34.05590
  0
SEQEND
  0
POLYLINE
  8
Unknown_Area_Type
  70
1
  66
1
  0
VERTEX
  8
Unknown_Area_Type
  10
312937.846
  20
4652090.935
  0
VERTEX
  8
Unknown_Area_Type
  10
309885.073
  20
4652090.935
  0
VERTEX
  8
Unknown_Area_Type
  10
309899.605
  20
4652325.091
  0
VERTEX
  8
Unknown_Area_Type
  10
311929.748
  20
4652270.728
  0
VERTEX
  8
Unknown_Area_Type
  10
312948.046
  20
4652243.957
  0
VERTEX
  8
Unknown_Area_Type
  10
312937.846
  20
4652090.935
  0
SEQEND
  8
Unknown_Area_Type
  0
INSERT
  8
FeatureAttribs
  2
FEATURE
  41
1
  42
1
  43
1
  50
0
  10
311496.344
  20
4653220.580
 66
1
  0
ATTRIB
  8
FeatureAttribs
 70
0
  1
PNOA-H_AMS_1956-57_33k_ES_PAN_2
  2
NAME
  10
311496.344
  20
4653220.580
 40
34.05590
  0
SEQEND
  0
POLYLINE
  8
Unknown_Area_Type
  70
1
  66
1
  0
VERTEX
  8
Unknown_Area_Type
  10
312948.046
  20
4652243.957
  0
VERTEX
  8
Unknown_Area_Type
  10
311929.748
  20
4652270.728
  0
VERTEX
  8
Unknown_Area_Type
  10
309899.605
  20
4652325.091
  0
VERTEX
  8
Unknown_Area_Type
  10
309993.000
  20
4653830.000
  0
VERTEX
  8
Unknown_Area_Type
  10
311684.000
  20
4654463.500
  0
VERTEX
  8
Unknown_Area_Type
  10
311688.000
  20
4654464.000
  0
VERTEX
  8
Unknown_Area_Type
  10
312977.000
  20
4653821.500
  0
VERTEX
  8
Unknown_Area_Type
  10
312978.000
  20
4653821.000
  0
VERTEX
  8
Unknown_Area_Type
  10
313050.000
  20
4653785.500
  0
VERTEX
  8
Unknown_Area_Type
  10
313050.500
  20
4653781.000
  0
VERTEX
  8
Unknown_Area_Type
  10
312948.046
  20
4652243.957
  0
SEQEND
  8
Unknown_Area_Type
  0
INSERT
  8
FeatureAttribs
  2
FEATURE
  41
1
  42
1
  43
1
  50
0
  10
311496.344
  20
4653220.580
 66
1
  0
ATTRIB
  8
FeatureAttribs
 70
0
  1
PNOA-H_AMS_1956-57_33k_ES_PAN_2
  2
NAME
  10
311496.344
  20
4653220.580
 40
34.05590
  0
SEQEND
  0
POLYLINE
  8
Unknown_Area_Type
  70
1
  66
1
  0
VERTEX
  8
Unknown_Area_Type
  10
312948.046
  20
4652243.957
  0
VERTEX
  8
Unknown_Area_Type
  10
313050.500
  20
4653781.000
  0
VERTEX
  8
Unknown_Area_Type
  10
313050.000
  20
4653785.500
  0
VERTEX
  8
Unknown_Area_Type
  10
312978.000
  20
4653821.000
  0
VERTEX
  8
Unknown_Area_Type
  10
312977.000
  20
4653821.500
  0
VERTEX
  8
Unknown_Area_Type
  10
311688.000
  20
4654464.000
  0
VERTEX
  8
Unknown_Area_Type
  10
311684.000
  20
4654463.500
  0
VERTEX
  8
Unknown_Area_Type
  10
309993.000
  20
4653830.000
  0
VERTEX
  8
Unknown_Area_Type
  10
309899.605
  20
4652325.091
  0
VERTEX
  8
Unknown_Area_Type
  10
311929.748
  20
4652270.728
  0
VERTEX
  8
Unknown_Area_Type
  10
312948.046
  20
4652243.957
  0
SEQEND
  8
Unknown_Area_Type
  0
INSERT
  8
FeatureAttribs
  2
FEATURE
  41
1
  42
1
  43
1
  50
0
  10
308360.823
  20
4652249.398
 66
1
  0
ATTRIB
  8
FeatureAttribs
 70
0
  1
PNOA-H_AMS_1956-57_33k_ES_PAN_2
  2
NAME
  10
308360.823
  20
4652249.398
 40
34.05590
  0
SEQEND
  0
POLYLINE
  8
Unknown_Area_Type
  70
1
  66
1
  0
VERTEX
  8
Unknown_Area_Type
  10
309884.952
  20
4652090.935
  0
VERTEX
  8
Unknown_Area_Type
  10
306814.738
  20
4652090.935
  0
VERTEX
  8
Unknown_Area_Type
  10
306833.500
  20
4652336.500
  0
VERTEX
  8
Unknown_Area_Type
  10
306833.500
  20
4652343.000
  0
VERTEX
  8
Unknown_Area_Type
  10
306838.464
  20
4652407.861
  0
VERTEX
  8
Unknown_Area_Type
  10
308478.721
  20
4652363.139
  0
VERTEX
  8
Unknown_Area_Type
  10
309899.504
  20
4652325.094
  0
VERTEX
  8
Unknown_Area_Type
  10
309884.952
  20
4652090.935
  0
SEQEND
  8
Unknown_Area_Type
  0
INSERT
  8
FeatureAttribs
  2
FEATURE
  41
1
  42
1
  43
1
  50
0
  10
308443.233
  20
4653318.067
 66
1
  0
ATTRIB
  8
FeatureAttribs
 70
0
  1
PNOA-H_AMS_1956-57_33k_ES_PAN_2
  2
NAME
  10
308443.233
  20
4653318.067
 40
34.05590
  0
SEQEND
  0
POLYLINE
  8
Unknown_Area_Type
  70
1
  66
1
  0
VERTEX
  8
Unknown_Area_Type
  10
309899.504
  20
4652325.094
  0
VERTEX
  8
Unknown_Area_Type
  10
308478.721
  20
4652363.139
  0
VERTEX
  8
Unknown_Area_Type
  10
306838.464
  20
4652407.861
  0
VERTEX
  8
Unknown_Area_Type
  10
306962.000
  20
4654022.000
  0
VERTEX
  8
Unknown_Area_Type
  10
308918.000
  20
4654559.000
  0
VERTEX
  8
Unknown_Area_Type
  10
309993.000
  20
4653829.500
  0
VERTEX
  8
Unknown_Area_Type
  10
309899.504
  20
4652325.094
  0
SEQEND
  8
Unknown_Area_Type
  0
INSERT
  8
FeatureAttribs
  2
FEATURE
  41
1
  42
1
  43
1
  50
0
  10
308443.233
  20
4653318.067
 66
1
  0
ATTRIB
  8
FeatureAttribs
 70
0
  1
PNOA-H_AMS_1956-57_33k_ES_PAN_2
  2
NAME
  10
308443.233
  20
4653318.067
 40
34.05590
  0
SEQEND
  0
POLYLINE
  8
Unknown_Area_Type
  70
1
  66
1
  0
VERTEX
  8
Unknown_Area_Type
  10
309899.504
  20
4652325.094
  0
VERTEX
  8
Unknown_Area_Type
  10
309993.000
  20
4653829.500
  0
VERTEX
  8
Unknown_Area_Type
  10
308918.000
  20
4654559.000
  0
VERTEX
  8
Unknown_Area_Type
  10
306962.000
  20
4654022.000
  0
VERTEX
  8
Unknown_Area_Type
  10
306838.464
  20
4652407.861
  0
VERTEX
  8
Unknown_Area_Type
  10
308478.721
  20
4652363.139
  0
VERTEX
  8
Unknown_Area_Type
  10
309899.504
  20
4652325.094
  0
SEQEND
  8
Unknown_Area_Type
  0
INSERT
  8
FeatureAttribs
  2
FEATURE
  41
1
  42
1
  43
1
  50
0
  10
314405.140
  20
4652167.446
 66
1
  0
ATTRIB
  8
FeatureAttribs
 70
0
  1
PNOA-H_AMS_1956-57_33k_ES_PAN_2
  2
NAME
  10
314405.140
  20
4652167.446
 40
34.05590
  0
SEQEND
  0
POLYLINE
  8
Unknown_Area_Type
  70
1
  66
1
  0
VERTEX
  8
Unknown_Area_Type
  10
315970.384
  20
4652164.786
  0
VERTEX
  8
Unknown_Area_Type
  10
315966.825
  20
4652090.935
  0
VERTEX
  8
Unknown_Area_Type
  10
312937.862
  20
4652090.935
  0
VERTEX
  8
Unknown_Area_Type
  10
312948.064
  20
4652243.957
  0
VERTEX
  8
Unknown_Area_Type
  10
315380.765
  20
4652180.000
  0
VERTEX
  8
Unknown_Area_Type
  10
315970.384
  20
4652164.786
  0
SEQEND
  8
Unknown_Area_Type
  0
INSERT
  8
FeatureAttribs
  2
FEATURE
  41
1
  42
1
  43
1
  50
0
  10
314511.661
  20
4653148.594
 66
1
  0
ATTRIB
  8
FeatureAttribs
 70
0
  1
PNOA-H_AMS_1956-57_33k_ES_PAN_2
  2
NAME
  10
314511.661
  20
4653148.594
 40
34.05590
  0
SEQEND
  0
POLYLINE
  8
Unknown_Area_Type
  70
1
  66
1
  0
VERTEX
  8
Unknown_Area_Type
  10
315970.384
  20
4652164.786
  0
VERTEX
  8
Unknown_Area_Type
  10
315380.765
  20
4652180.000
  0
VERTEX
  8
Unknown_Area_Type
  10
312948.064
  20
4652243.957
  0
VERTEX
  8
Unknown_Area_Type
  10
312977.500
  20
4652685.500
  0
VERTEX
  8
Unknown_Area_Type
  10
312977.500
  20
4652693.000
  0
VERTEX
  8
Unknown_Area_Type
  10
313050.500
  20
4653785.000
  0
VERTEX
  8
Unknown_Area_Type
  10
314410.500
  20
4654386.000
  0
VERTEX
  8
Unknown_Area_Type
  10
316047.500
  20
4653765.000
  0
VERTEX
  8
Unknown_Area_Type
  10
315970.384
  20
4652164.786
  0
SEQEND
  8
Unknown_Area_Type
  0
INSERT
  8
FeatureAttribs
  2
FEATURE
  41
1
  42
1
  43
1
  50
0
  10
314511.661
  20
4653148.594
 66
1
  0
ATTRIB
  8
FeatureAttribs
 70
0
  1
PNOA-H_AMS_1956-57_33k_ES_PAN_2
  2
NAME
  10
314511.661
  20
4653148.594
 40
34.05590
  0
SEQEND
  0
POLYLINE
  8
Unknown_Area_Type
  70
1
  66
1
  0
VERTEX
  8
Unknown_Area_Type
  10
315970.384
  20
4652164.786
  0
VERTEX
  8
Unknown_Area_Type
  10
316047.500
  20
4653765.000
  0
VERTEX
  8
Unknown_Area_Type
  10
314410.500
  20
4654386.000
  0
VERTEX
  8
Unknown_Area_Type
  10
313050.500
  20
4653785.000
  0
VERTEX
  8
Unknown_Area_Type
  10
312977.500
  20
4652693.000
  0
VERTEX
  8
Unknown_Area_Type
  10
312977.500
  20
4652685.500
  0
VERTEX
  8
Unknown_Area_Type
  10
312948.064
  20
4652243.957
  0
VERTEX
  8
Unknown_Area_Type
  10
315380.765
  20
4652180.000
  0
VERTEX
  8
Unknown_Area_Type
  10
315970.384
  20
4652164.786
  0
SEQEND
  8
Unknown_Area_Type
  0
INSERT
  8
FeatureAttribs
  2
FEATURE
  41
1
  42
1
  43
1
  50
0
  10
302251.821
  20
4652333.799
 66
1
  0
ATTRIB
  8
FeatureAttribs
 70
0
  1
PNOA-H_AMS_1956-57_33k_ES_PAN_2
  2
NAME
  10
302251.821
  20
4652333.799
 40
34.05590
  0
SEQEND
  0
POLYLINE
  8
Unknown_Area_Type
  70
1
  66
1
  0
VERTEX
  8
Unknown_Area_Type
  10
303764.218
  20
4652090.935
  0
VERTEX
  8
Unknown_Area_Type
  10
300704.455
  20
4652090.935
  0
VERTEX
  8
Unknown_Area_Type
  10
300738.942
  20
4652576.663
  0
VERTEX
  8
Unknown_Area_Type
  10
301576.633
  20
4652553.007
  0
VERTEX
  8
Unknown_Area_Type
  10
303793.694
  20
4652491.478
  0
VERTEX
  8
Unknown_Area_Type
  10
303779.500
  20
4652301.000
  0
VERTEX
  8
Unknown_Area_Type
  10
303779.500
  20
4652296.000
  0
VERTEX
  8
Unknown_Area_Type
  10
303764.218
  20
4652090.935
  0
SEQEND
  8
Unknown_Area_Type
  0
INSERT
  8
FeatureAttribs
  2
FEATURE
  41
1
  42
1
  43
1
  50
0
  10
302335.402
  20
4653571.085
 66
1
  0
ATTRIB
  8
FeatureAttribs
 70
0
  1
PNOA-H_AMS_1956-57_33k_ES_PAN_2
  2
NAME
  10
302335.402
  20
4653571.085
 40
34.05590
  0
SEQEND
  0
POLYLINE
  8
Unknown_Area_Type
  70
1
  66
1
  0
VERTEX
  8
Unknown_Area_Type
  10
303793.694
  20
4652491.478
  0
VERTEX
  8
Unknown_Area_Type
  10
301576.633
  20
4652553.007
  0
VERTEX
  8
Unknown_Area_Type
  10
300738.942
  20
4652576.663
  0
VERTEX
  8
Unknown_Area_Type
  10
300875.500
  20
4654500.000
  0
VERTEX
  8
Unknown_Area_Type
  10
301055.500
  20
4654666.000
  0
VERTEX
  8
Unknown_Area_Type
  10
303673.500
  20
4654582.000
  0
VERTEX
  8
Unknown_Area_Type
  10
303929.500
  20
4654314.000
  0
VERTEX
  8
Unknown_Area_Type
  10
303793.694
  20
4652491.478
  0
SEQEND
  8
Unknown_Area_Type
  0
INSERT
  8
FeatureAttribs
  2
FEATURE
  41
1
  42
1
  43
1
  50
0
  10
302335.402
  20
4653571.085
 66
1
  0
ATTRIB
  8
FeatureAttribs
 70
0
  1
PNOA-H_AMS_1956-57_33k_ES_PAN_2
  2
NAME
  10
302335.402
  20
4653571.085
 40
34.05590
  0
SEQEND
  0
POLYLINE
  8
Unknown_Area_Type
  70
1
  66
1
  0
VERTEX
  8
Unknown_Area_Type
  10
303793.694
  20
4652491.478
  0
VERTEX
  8
Unknown_Area_Type
  10
303929.500
  20
4654314.000
  0
VERTEX
  8
Unknown_Area_Type
  10
303673.500
  20
4654582.000
  0
VERTEX
  8
Unknown_Area_Type
  10
301055.500
  20
4654666.000
  0
VERTEX
  8
Unknown_Area_Type
  10
300875.500
  20
4654500.000
  0
VERTEX
  8
Unknown_Area_Type
  10
300738.942
  20
4652576.663
  0
VERTEX
  8
Unknown_Area_Type
  10
301576.633
  20
4652553.007
  0
VERTEX
  8
Unknown_Area_Type
  10
303793.694
  20
4652491.478
  0
SEQEND
  8
Unknown_Area_Type
  0
INSERT
  8
FeatureAttribs
  2
FEATURE
  41
1
  42
1
  43
1
  50
0
  10
305304.504
  20
4652291.204
 66
1
  0
ATTRIB
  8
FeatureAttribs
 70
0
  1
PNOA-H_AMS_1956-57_33k_ES_PAN_2
  2
NAME
  10
305304.504
  20
4652291.204
 40
34.05590
  0
SEQEND
  0
POLYLINE
  8
Unknown_Area_Type
  70
1
  66
1
  0
VERTEX
  8
Unknown_Area_Type
  10
306814.709
  20
4652090.935
  0
VERTEX
  8
Unknown_Area_Type
  10
303764.094
  20
4652090.935
  0
VERTEX
  8
Unknown_Area_Type
  10
303793.896
  20
4652491.472
  0
VERTEX
  8
Unknown_Area_Type
  10
305027.682
  20
4652457.232
  0
VERTEX
  8
Unknown_Area_Type
  10
306838.925
  20
4652407.848
  0
VERTEX
  8
Unknown_Area_Type
  10
306814.709
  20
4652090.935
  0
SEQEND
  8
Unknown_Area_Type
  0
INSERT
  8
FeatureAttribs
  2
FEATURE
  41
1
  42
1
  43
1
  50
0
  10
305397.124
  20
4653439.638
 66
1
  0
ATTRIB
  8
FeatureAttribs
 70
0
  1
PNOA-H_AMS_1956-57_33k_ES_PAN_2
  2
NAME
  10
305397.124
  20
4653439.638
 40
34.05590
  0
SEQEND
  0
POLYLINE
  8
Unknown_Area_Type
  70
1
  66
1
  0
VERTEX
  8
Unknown_Area_Type
  10
306838.925
  20
4652407.848
  0
VERTEX
  8
Unknown_Area_Type
  10
305027.682
  20
4652457.232
  0
VERTEX
  8
Unknown_Area_Type
  10
303793.896
  20
4652491.472
  0
VERTEX
  8
Unknown_Area_Type
  10
303929.500
  20
4654314.000
  0
VERTEX
  8
Unknown_Area_Type
  10
306248.000
  20
4654601.500
  0
VERTEX
  8
Unknown_Area_Type
  10
306833.500
  20
4654126.500
  0
VERTEX
  8
Unknown_Area_Type
  10
306834.000
  20
4654125.500
  0
VERTEX
  8
Unknown_Area_Type
  10
306960.500
  20
4654023.500
  0
VERTEX
  8
Unknown_Area_Type
  10
306962.000
  20
4654022.000
  0
VERTEX
  8
Unknown_Area_Type
  10
306962.000
  20
4654018.500
  0
VERTEX
  8
Unknown_Area_Type
  10
306838.925
  20
4652407.848
  0
SEQEND
  8
Unknown_Area_Type
  0
INSERT
  8
FeatureAttribs
  2
FEATURE
  41
1
  42
1
  43
1
  50
0
  10
305397.124
  20
4653439.638
 66
1
  0
ATTRIB
  8
FeatureAttribs
 70
0
  1
PNOA-H_AMS_1956-57_33k_ES_PAN_2
  2
NAME
  10
305397.124
  20
4653439.638
 40
34.05590
  0
SEQEND
  0
POLYLINE
  8
Unknown_Area_Type
  70
1
  66
1
  0
VERTEX
  8
Unknown_Area_Type
  10
306838.925
  20
4652407.848
  0
VERTEX
  8
Unknown_Area_Type
  10
306962.000
  20
4654018.500
  0
VERTEX
  8
Unknown_Area_Type
  10
306962.000
  20
4654022.000
  0
VERTEX
  8
Unknown_Area_Type
  10
306960.500
  20
4654023.500
  0
VERTEX
  8
Unknown_Area_Type
  10
306834.000
  20
4654125.500
  0
VERTEX
  8
Unknown_Area_Type
  10
306833.500
  20
4654126.500
  0
VERTEX
  8
Unknown_Area_Type
  10
306248.000
  20
4654601.500
  0
VERTEX
  8
Unknown_Area_Type
  10
303929.500
  20
4654314.000
  0
VERTEX
  8
Unknown_Area_Type
  10
303793.896
  20
4652491.472
  0
VERTEX
  8
Unknown_Area_Type
  10
305027.682
  20
4652457.232
  0
VERTEX
  8
Unknown_Area_Type
  10
306838.925
  20
4652407.848
  0
SEQEND
  8
Unknown_Area_Type
  0
INSERT
  8
FeatureAttribs
  2
FEATURE
  41
1
  42
1
  43
1
  50
0
  10
296162.435
  20
4652420.818
 66
1
  0
ATTRIB
  8
FeatureAttribs
 70
0
  1
PNOA-H_AMS_1956-57_33k_ES_PAN_2
  2
NAME
  10
296162.435
  20
4652420.818
 40
34.05590
  0
SEQEND
  0
POLYLINE
  8
Unknown_Area_Type
  70
1
  66
1
  0
VERTEX
  8
Unknown_Area_Type
  10
297690.623
  20
4652090.935
  0
VERTEX
  8
Unknown_Area_Type
  10
294605.996
  20
4652090.935
  0
VERTEX
  8
Unknown_Area_Type
  10
294637.021
  20
4652750.700
  0
VERTEX
  8
Unknown_Area_Type
  10
294674.502
  20
4652749.605
  0
VERTEX
  8
Unknown_Area_Type
  10
297712.689
  20
4652662.326
  0
VERTEX
  8
Unknown_Area_Type
  10
297690.623
  20
4652090.935
  0
SEQEND
  8
Unknown_Area_Type
  0
INSERT
  8
FeatureAttribs
  2
FEATURE
  41
1
  42
1
  43
1
  50
0
  10
296187.403
  20
4653789.364
 66
1
  0
ATTRIB
  8
FeatureAttribs
 70
0
  1
PNOA-H_AMS_1956-57_33k_ES_PAN_2
  2
NAME
  10
296187.403
  20
4653789.364
 40
34.05590
  0
SEQEND
  0
POLYLINE
  8
Unknown_Area_Type
  70
1
  66
1
  0
VERTEX
  8
Unknown_Area_Type
  10
297712.689
  20
4652662.326
  0
VERTEX
  8
Unknown_Area_Type
  10
294674.502
  20
4652749.605
  0
VERTEX
  8
Unknown_Area_Type
  10
294637.021
  20
4652750.700
  0
VERTEX
  8
Unknown_Area_Type
  10
294722.500
  20
4654568.500
  0
VERTEX
  8
Unknown_Area_Type
  10
295614.000
  20
4655204.000
  0
VERTEX
  8
Unknown_Area_Type
  10
296592.500
  20
4654878.500
  0
VERTEX
  8
Unknown_Area_Type
  10
296594.000
  20
4654878.000
  0
VERTEX
  8
Unknown_Area_Type
  10
297783.000
  20
4654483.000
  0
VERTEX
  8
Unknown_Area_Type
  10
297712.689
  20
4652662.326
  0
SEQEND
  8
Unknown_Area_Type
  0
INSERT
  8
FeatureAttribs
  2
FEATURE
  41
1
  42
1
  43
1
  50
0
  10
296187.403
  20
4653789.364
 66
1
  0
ATTRIB
  8
FeatureAttribs
 70
0
  1
PNOA-H_AMS_1956-57_33k_ES_PAN_2
  2
NAME
  10
296187.403
  20
4653789.364
 40
34.05590
  0
SEQEND
  0
POLYLINE
  8
Unknown_Area_Type
  70
1
  66
1
  0
VERTEX
  8
Unknown_Area_Type
  10
297712.689
  20
4652662.326
  0
VERTEX
  8
Unknown_Area_Type
  10
297783.000
  20
4654483.000
  0
VERTEX
  8
Unknown_Area_Type
  10
296594.000
  20
4654878.000
  0
VERTEX
  8
Unknown_Area_Type
  10
296592.500
  20
4654878.500
  0
VERTEX
  8
Unknown_Area_Type
  10
295614.000
  20
4655204.000
  0
VERTEX
  8
Unknown_Area_Type
  10
294722.500
  20
4654568.500
  0
VERTEX
  8
Unknown_Area_Type
  10
294637.021
  20
4652750.700
  0
VERTEX
  8
Unknown_Area_Type
  10
294674.502
  20
4652749.605
  0
VERTEX
  8
Unknown_Area_Type
  10
297712.689
  20
4652662.326
  0
SEQEND
  8
Unknown_Area_Type
  0
INSERT
  8
FeatureAttribs
  2
FEATURE
  41
1
  42
1
  43
1
  50
0
  10
299213.033
  20
4652376.634
 66
1
  0
ATTRIB
  8
FeatureAttribs
 70
0
  1
PNOA-H_AMS_1956-57_33k_ES_PAN_2
  2
NAME
  10
299213.033
  20
4652376.634
 40
34.05590
  0
SEQEND
  0
POLYLINE
  8
Unknown_Area_Type
  70
1
  66
1
  0
VERTEX
  8
Unknown_Area_Type
  10
300704.455
  20
4652090.935
  0
VERTEX
  8
Unknown_Area_Type
  10
297690.248
  20
4652090.935
  0
VERTEX
  8
Unknown_Area_Type
  10
297712.404
  20
4652662.334
  0
VERTEX
  8
Unknown_Area_Type
  10
298125.573
  20
4652650.465
  0
VERTEX
  8
Unknown_Area_Type
  10
300738.942
  20
4652576.663
  0
VERTEX
  8
Unknown_Area_Type
  10
300704.455
  20
4652090.935
  0
SEQEND
  8
Unknown_Area_Type
  0
INSERT
  8
FeatureAttribs
  2
FEATURE
  41
1
  42
1
  43
1
  50
0
  10
299257.937
  20
4653691.885
 66
1
  0
ATTRIB
  8
FeatureAttribs
 70
0
  1
PNOA-H_AMS_1956-57_33k_ES_PAN_2
  2
NAME
  10
299257.937
  20
4653691.885
 40
34.05590
  0
SEQEND
  0
POLYLINE
  8
Unknown_Area_Type
  70
1
  66
1
  0
VERTEX
  8
Unknown_Area_Type
  10
300738.942
  20
4652576.663
  0
VERTEX
  8
Unknown_Area_Type
  10
298125.573
  20
4652650.465
  0
VERTEX
  8
Unknown_Area_Type
  10
297712.404
  20
4652662.334
  0
VERTEX
  8
Unknown_Area_Type
  10
297783.000
  20
4654483.000
  0
VERTEX
  8
Unknown_Area_Type
  10
298380.000
  20
4654996.500
  0
VERTEX
  8
Unknown_Area_Type
  10
298380.500
  20
4654997.500
  0
VERTEX
  8
Unknown_Area_Type
  10
300875.500
  20
4654500.000
  0
VERTEX
  8
Unknown_Area_Type
  10
300738.942
  20
4652576.663
  0
SEQEND
  8
Unknown_Area_Type
  0
INSERT
  8
FeatureAttribs
  2
FEATURE
  41
1
  42
1
  43
1
  50
0
  10
299257.937
  20
4653691.885
 66
1
  0
ATTRIB
  8
FeatureAttribs
 70
0
  1
PNOA-H_AMS_1956-57_33k_ES_PAN_2
  2
NAME
  10
299257.937
  20
4653691.885
 40
34.05590
  0
SEQEND
  0
POLYLINE
  8
Unknown_Area_Type
  70
1
  66
1
  0
VERTEX
  8
Unknown_Area_Type
  10
300738.942
  20
4652576.663
  0
VERTEX
  8
Unknown_Area_Type
  10
300875.500
  20
4654500.000
  0
VERTEX
  8
Unknown_Area_Type
  10
298380.500
  20
4654997.500
  0
VERTEX
  8
Unknown_Area_Type
  10
298380.000
  20
4654996.500
  0
VERTEX
  8
Unknown_Area_Type
  10
297783.000
  20
4654483.000
  0
VERTEX
  8
Unknown_Area_Type
  10
297712.404
  20
4652662.334
  0
VERTEX
  8
Unknown_Area_Type
  10
298125.573
  20
4652650.465
  0
VERTEX
  8
Unknown_Area_Type
  10
300738.942
  20
4652576.663
  0
SEQEND
  8
Unknown_Area_Type
  0
INSERT
  8
FeatureAttribs
  2
FEATURE
  41
1
  42
1
  43
1
  50
0
  10
293090.741
  20
4652465.664
 66
1
  0
ATTRIB
  8
FeatureAttribs
 70
0
  1
PNOA-H_AMS_1956-57_33k_ES_PAN_2
  2
NAME
  10
293090.741
  20
4652465.664
 40
34.05590
  0
SEQEND
  0
POLYLINE
  8
Unknown_Area_Type
  70
1
  66
1
  0
VERTEX
  8
Unknown_Area_Type
  10
294605.996
  20
4652090.935
  0
VERTEX
  8
Unknown_Area_Type
  10
291548.836
  20
4652090.935
  0
VERTEX
  8
Unknown_Area_Type
  10
291566.895
  20
4652840.394
  0
VERTEX
  8
Unknown_Area_Type
  10
294637.021
  20
4652750.700
  0
VERTEX
  8
Unknown_Area_Type
  10
294605.996
  20
4652090.935
  0
SEQEND
  8
Unknown_Area_Type
  0
INSERT
  8
FeatureAttribs
  2
FEATURE
  41
1
  42
1
  43
1
  50
0
  10
293123.501
  20
4653919.493
 66
1
  0
ATTRIB
  8
FeatureAttribs
 70
0
  1
PNOA-H_AMS_1956-57_33k_ES_PAN_2
  2
NAME
  10
293123.501
  20
4653919.493
 40
34.05590
  0
SEQEND
  0
POLYLINE
  8
Unknown_Area_Type
  70
1
  66
1
  0
VERTEX
  8
Unknown_Area_Type
  10
294637.021
  20
4652750.700
  0
VERTEX
  8
Unknown_Area_Type
  10
291566.895
  20
4652840.394
  0
VERTEX
  8
Unknown_Area_Type
  10
291610.500
  20
4654650.000
  0
VERTEX
  8
Unknown_Area_Type
  10
292496.500
  20
4655192.000
  0
VERTEX
  8
Unknown_Area_Type
  10
292497.000
  20
4655193.000
  0
VERTEX
  8
Unknown_Area_Type
  10
292866.000
  20
4655419.000
  0
VERTEX
  8
Unknown_Area_Type
  10
292873.500
  20
4655423.500
  0
VERTEX
  8
Unknown_Area_Type
  10
292875.500
  20
4655423.500
  0
VERTEX
  8
Unknown_Area_Type
  10
294722.500
  20
4654568.500
  0
VERTEX
  8
Unknown_Area_Type
  10
294637.021
  20
4652750.700
  0
SEQEND
  8
Unknown_Area_Type
  0
INSERT
  8
FeatureAttribs
  2
FEATURE
  41
1
  42
1
  43
1
  50
0
  10
293123.501
  20
4653919.493
 66
1
  0
ATTRIB
  8
FeatureAttribs
 70
0
  1
PNOA-H_AMS_1956-57_33k_ES_PAN_2
  2
NAME
  10
293123.501
  20
4653919.493
 40
34.05590
  0
SEQEND
  0
POLYLINE
  8
Unknown_Area_Type
  70
1
  66
1
  0
VERTEX
  8
Unknown_Area_Type
  10
294637.021
  20
4652750.700
  0
VERTEX
  8
Unknown_Area_Type
  10
294722.500
  20
4654568.500
  0
VERTEX
  8
Unknown_Area_Type
  10
292875.500
  20
4655423.500
  0
VERTEX
  8
Unknown_Area_Type
  10
292873.500
  20
4655423.500
  0
VERTEX
  8
Unknown_Area_Type
  10
292866.000
  20
4655419.000
  0
VERTEX
  8
Unknown_Area_Type
  10
292497.000
  20
4655193.000
  0
VERTEX
  8
Unknown_Area_Type
  10
292496.500
  20
4655192.000
  0
VERTEX
  8
Unknown_Area_Type
  10
291610.500
  20
4654650.000
  0
VERTEX
  8
Unknown_Area_Type
  10
291566.895
  20
4652840.394
  0
VERTEX
  8
Unknown_Area_Type
  10
294637.021
  20
4652750.700
  0
SEQEND
  8
Unknown_Area_Type
  0
INSERT
  8
FeatureAttribs
  2
FEATURE
  41
1
  42
1
  43
1
  50
0
  10
319179.458
  20
4652989.167
 66
1
  0
ATTRIB
  8
FeatureAttribs
 70
0
  1
PNOA-H_AMS_1956-57_33k_ES_PAN_2
  2
NAME
  10
319179.458
  20
4652989.167
 40
34.05590
  0
SEQEND
  0
POLYLINE
  8
Unknown_Area_Type
  70
1
  66
1
  0
VERTEX
  8
Unknown_Area_Type
  10
319305.575
  20
4653887.399
  0
VERTEX
  8
Unknown_Area_Type
  10
319305.575
  20
4652090.935
  0
VERTEX
  8
Unknown_Area_Type
  10
319014.800
  20
4652090.935
  0
VERTEX
  8
Unknown_Area_Type
  10
319086.500
  20
4653762.000
  0
VERTEX
  8
Unknown_Area_Type
  10
319120.500
  20
4653781.000
  0
VERTEX
  8
Unknown_Area_Type
  10
319121.000
  20
4653782.000
  0
VERTEX
  8
Unknown_Area_Type
  10
319305.575
  20
4653887.399
  0
SEQEND
  8
Unknown_Area_Type
  0
INSERT
  8
FeatureAttribs
  2
FEATURE
  41
1
  42
1
  43
1
  50
0
  10
294197.274
  20
4664724.542
 66
1
  0
ATTRIB
  8
FeatureAttribs
 70
0
  1
PNOA-H_AMS_1956-57_33k_ES_PAN_2
  2
NAME
  10
294197.274
  20
4664724.542
 40
34.05590
  0
SEQEND
  0
POLYLINE
  8
Unknown_Area_Type
  70
1
  66
1
  0
VERTEX
  8
Unknown_Area_Type
  10
292755.000
  20
4665456.000
  0
VERTEX
  8
Unknown_Area_Type
  10
294542.500
  20
4665755.000
  0
VERTEX
  8
Unknown_Area_Type
  10
294545.500
  20
4665755.500
  0
VERTEX
  8
Unknown_Area_Type
  10
295495.500
  20
4665914.000
  0
VERTEX
  8
Unknown_Area_Type
  10
295537.500
  20
4665091.000
  0
VERTEX
  8
Unknown_Area_Type
  10
295521.000
  20
4663729.000
  0
VERTEX
  8
Unknown_Area_Type
  10
292734.500
  20
4663786.500
  0
VERTEX
  8
Unknown_Area_Type
  10
292755.000
  20
4665456.000
  0
SEQEND
  8
Unknown_Area_Type
  0
INSERT
  8
FeatureAttribs
  2
FEATURE
  41
1
  42
1
  43
1
  50
0
  10
294197.274
  20
4664724.542
 66
1
  0
ATTRIB
  8
FeatureAttribs
 70
0
  1
PNOA-H_AMS_1956-57_33k_ES_PAN_2
  2
NAME
  10
294197.274
  20
4664724.542
 40
34.05590
  0
SEQEND
  0
POLYLINE
  8
Unknown_Area_Type
  70
1
  66
1
  0
VERTEX
  8
Unknown_Area_Type
  10
292755.000
  20
4665456.000
  0
VERTEX
  8
Unknown_Area_Type
  10
292734.500
  20
4663786.500
  0
VERTEX
  8
Unknown_Area_Type
  10
295521.000
  20
4663729.000
  0
VERTEX
  8
Unknown_Area_Type
  10
295537.500
  20
4665091.000
  0
VERTEX
  8
Unknown_Area_Type
  10
295495.500
  20
4665914.000
  0
VERTEX
  8
Unknown_Area_Type
  10
294545.500
  20
4665755.500
  0
VERTEX
  8
Unknown_Area_Type
  10
294542.500
  20
4665755.000
  0
VERTEX
  8
Unknown_Area_Type
  10
292755.000
  20
4665456.000
  0
SEQEND
  8
Unknown_Area_Type
  0
INSERT
  8
FeatureAttribs
  2
FEATURE
  41
1
  42
1
  43
1
  50
0
  10
297061.914
  20
4664705.171
 66
1
  0
ATTRIB
  8
FeatureAttribs
 70
0
  1
PNOA-H_AMS_1956-57_33k_ES_PAN_2
  2
NAME
  10
297061.914
  20
4664705.171
 40
34.05590
  0
SEQEND
  0
POLYLINE
  8
Unknown_Area_Type
  70
1
  66
1
  0
VERTEX
  8
Unknown_Area_Type
  10
296593.000
  20
4665540.000
  0
VERTEX
  8
Unknown_Area_Type
  10
298266.500
  20
4666263.000
  0
VERTEX
  8
Unknown_Area_Type
  10
298280.500
  20
4666269.000
  0
VERTEX
  8
Unknown_Area_Type
  10
298283.000
  20
4666269.000
  0
VERTEX
  8
Unknown_Area_Type
  10
298329.000
  20
4665744.500
  0
VERTEX
  8
Unknown_Area_Type
  10
298329.500
  20
4665716.500
  0
VERTEX
  8
Unknown_Area_Type
  10
298266.500
  20
4663620.500
  0
VERTEX
  8
Unknown_Area_Type
  10
295556.000
  20
4663707.000
  0
VERTEX
  8
Unknown_Area_Type
  10
295547.500
  20
4663707.500
  0
VERTEX
  8
Unknown_Area_Type
  10
295521.000
  20
4663728.500
  0
VERTEX
  8
Unknown_Area_Type
  10
295537.500
  20
4665084.000
  0
VERTEX
  8
Unknown_Area_Type
  10
296591.500
  20
4665539.500
  0
VERTEX
  8
Unknown_Area_Type
  10
296593.000
  20
4665540.000
  0
SEQEND
  8
Unknown_Area_Type
  0
INSERT
  8
FeatureAttribs
  2
FEATURE
  41
1
  42
1
  43
1
  50
0
  10
297061.914
  20
4664705.171
 66
1
  0
ATTRIB
  8
FeatureAttribs
 70
0
  1
PNOA-H_AMS_1956-57_33k_ES_PAN_2
  2
NAME
  10
297061.914
  20
4664705.171
 40
34.05590
  0
SEQEND
  0
POLYLINE
  8
Unknown_Area_Type
  70
1
  66
1
  0
VERTEX
  8
Unknown_Area_Type
  10
296593.000
  20
4665540.000
  0
VERTEX
  8
Unknown_Area_Type
  10
296591.500
  20
4665539.500
  0
VERTEX
  8
Unknown_Area_Type
  10
295537.500
  20
4665084.000
  0
VERTEX
  8
Unknown_Area_Type
  10
295521.000
  20
4663728.500
  0
VERTEX
  8
Unknown_Area_Type
  10
295547.500
  20
4663707.500
  0
VERTEX
  8
Unknown_Area_Type
  10
295556.000
  20
4663707.000
  0
VERTEX
  8
Unknown_Area_Type
  10
298266.500
  20
4663620.500
  0
VERTEX
  8
Unknown_Area_Type
  10
298329.500
  20
4665716.500
  0
VERTEX
  8
Unknown_Area_Type
  10
298329.000
  20
4665744.500
  0
VERTEX
  8
Unknown_Area_Type
  10
298283.000
  20
4666269.000
  0
VERTEX
  8
Unknown_Area_Type
  10
298280.500
  20
4666269.000
  0
VERTEX
  8
Unknown_Area_Type
  10
298266.500
  20
4666263.000
  0
VERTEX
  8
Unknown_Area_Type
  10
296593.000
  20
4665540.000
  0
SEQEND
  8
Unknown_Area_Type
  0
INSERT
  8
FeatureAttribs
  2
FEATURE
  41
1
  42
1
  43
1
  50
0
  10
319256.449
  20
4666765.413
 66
1
  0
ATTRIB
  8
FeatureAttribs
 70
0
  1
PNOA-H_AMS_1956-57_33k_ES_PAN_2
  2
NAME
  10
319256.449
  20
4666765.413
 40
34.05590
  0
SEQEND
  0
POLYLINE
  8
Unknown_Area_Type
  70
1
  66
1
  0
VERTEX
  8
Unknown_Area_Type
  10
319305.575
  20
4668436.892
  0
VERTEX
  8
Unknown_Area_Type
  10
319305.575
  20
4665082.844
  0
VERTEX
  8
Unknown_Area_Type
  10
319169.332
  20
4665282.664
  0
VERTEX
  8
Unknown_Area_Type
  10
319186.959
  20
4665970.765
  0
VERTEX
  8
Unknown_Area_Type
  10
319246.241
  20
4668284.092
  0
VERTEX
  8
Unknown_Area_Type
  10
319250.443
  20
4668447.983
  0
VERTEX
  8
Unknown_Area_Type
  10
319305.575
  20
4668436.892
  0
SEQEND
  8
Unknown_Area_Type
  0
INSERT
  8
FeatureAttribs
  2
FEATURE
  41
1
  42
1
  43
1
  50
0
  10
318759.842
  20
4667137.718
 66
1
  0
ATTRIB
  8
FeatureAttribs
 70
0
  1
PNOA-H_AMS_1956-57_33k_ES_PAN_2
  2
NAME
  10
318759.842
  20
4667137.718
 40
34.05590
  0
SEQEND
  0
POLYLINE
  8
Unknown_Area_Type
  70
1
  66
1
  0
VERTEX
  8
Unknown_Area_Type
  10
319250.443
  20
4668447.983
  0
VERTEX
  8
Unknown_Area_Type
  10
319246.241
  20
4668284.092
  0
VERTEX
  8
Unknown_Area_Type
  10
319186.959
  20
4665970.765
  0
VERTEX
  8
Unknown_Area_Type
  10
319169.332
  20
4665282.664
  0
VERTEX
  8
Unknown_Area_Type
  10
318145.000
  20
4666785.000
  0
VERTEX
  8
Unknown_Area_Type
  10
318199.000
  20
4668156.000
  0
VERTEX
  8
Unknown_Area_Type
  10
319119.500
  20
4668463.000
  0
VERTEX
  8
Unknown_Area_Type
  10
319121.000
  20
4668463.500
  0
VERTEX
  8
Unknown_Area_Type
  10
319141.000
  20
4668470.000
  0
VERTEX
  8
Unknown_Area_Type
  10
319250.443
  20
4668447.983
  0
SEQEND
  8
Unknown_Area_Type
  0
INSERT
  8
FeatureAttribs
  2
FEATURE
  41
1
  42
1
  43
1
  50
0
  10
318759.842
  20
4667137.718
 66
1
  0
ATTRIB
  8
FeatureAttribs
 70
0
  1
PNOA-H_AMS_1956-57_33k_ES_PAN_2
  2
NAME
  10
318759.842
  20
4667137.718
 40
34.05590
  0
SEQEND
  0
POLYLINE
  8
Unknown_Area_Type
  70
1
  66
1
  0
VERTEX
  8
Unknown_Area_Type
  10
319250.443
  20
4668447.983
  0
VERTEX
  8
Unknown_Area_Type
  10
319141.000
  20
4668470.000
  0
VERTEX
  8
Unknown_Area_Type
  10
319121.000
  20
4668463.500
  0
VERTEX
  8
Unknown_Area_Type
  10
319119.500
  20
4668463.000
  0
VERTEX
  8
Unknown_Area_Type
  10
318199.000
  20
4668156.000
  0
VERTEX
  8
Unknown_Area_Type
  10
318145.000
  20
4666785.000
  0
VERTEX
  8
Unknown_Area_Type
  10
319169.332
  20
4665282.664
  0
VERTEX
  8
Unknown_Area_Type
  10
319186.959
  20
4665970.765
  0
VERTEX
  8
Unknown_Area_Type
  10
319246.241
  20
4668284.092
  0
VERTEX
  8
Unknown_Area_Type
  10
319250.443
  20
4668447.983
  0
SEQEND
  8
Unknown_Area_Type
  0
INSERT
  8
FeatureAttribs
  2
FEATURE
  41
1
  42
1
  43
1
  50
0
  10
297109.149
  20
4656847.066
 66
1
  0
ATTRIB
  8
FeatureAttribs
 70
0
  1
PNOA-H_AMS_1956-57_33k_ES_PAN_2
  2
NAME
  10
297109.149
  20
4656847.066
 40
34.05590
  0
SEQEND
  0
POLYLINE
  8
Unknown_Area_Type
  70
1
  66
1
  0
VERTEX
  8
Unknown_Area_Type
  10
298127.500
  20
4658961.000
  0
VERTEX
  8
Unknown_Area_Type
  10
298138.000
  20
4658960.500
  0
VERTEX
  8
Unknown_Area_Type
  10
298493.500
  20
4658791.000
  0
VERTEX
  8
Unknown_Area_Type
  10
298381.000
  20
4654998.000
  0
VERTEX
  8
Unknown_Area_Type
  10
297783.500
  20
4654483.000
  0
VERTEX
  8
Unknown_Area_Type
  10
295614.500
  20
4655203.500
  0
VERTEX
  8
Unknown_Area_Type
  10
295847.000
  20
4658882.500
  0
VERTEX
  8
Unknown_Area_Type
  10
295853.500
  20
4658883.500
  0
VERTEX
  8
Unknown_Area_Type
  10
298113.000
  20
4658960.500
  0
VERTEX
  8
Unknown_Area_Type
  10
298127.500
  20
4658961.000
  0
SEQEND
  8
Unknown_Area_Type
  0
INSERT
  8
FeatureAttribs
  2
FEATURE
  41
1
  42
1
  43
1
  50
0
  10
297109.149
  20
4656847.066
 66
1
  0
ATTRIB
  8
FeatureAttribs
 70
0
  1
PNOA-H_AMS_1956-57_33k_ES_PAN_2
  2
NAME
  10
297109.149
  20
4656847.066
 40
34.05590
  0
SEQEND
  0
POLYLINE
  8
Unknown_Area_Type
  70
1
  66
1
  0
VERTEX
  8
Unknown_Area_Type
  10
298127.500
  20
4658961.000
  0
VERTEX
  8
Unknown_Area_Type
  10
298113.000
  20
4658960.500
  0
VERTEX
  8
Unknown_Area_Type
  10
295853.500
  20
4658883.500
  0
VERTEX
  8
Unknown_Area_Type
  10
295847.000
  20
4658882.500
  0
VERTEX
  8
Unknown_Area_Type
  10
295614.500
  20
4655203.500
  0
VERTEX
  8
Unknown_Area_Type
  10
297783.500
  20
4654483.000
  0
VERTEX
  8
Unknown_Area_Type
  10
298381.000
  20
4654998.000
  0
VERTEX
  8
Unknown_Area_Type
  10
298493.500
  20
4658791.000
  0
VERTEX
  8
Unknown_Area_Type
  10
298138.000
  20
4658960.500
  0
VERTEX
  8
Unknown_Area_Type
  10
298127.500
  20
4658961.000
  0
SEQEND
  8
Unknown_Area_Type
  0
INSERT
  8
FeatureAttribs
  2
FEATURE
  41
1
  42
1
  43
1
  50
0
  10
294367.564
  20
4657016.062
 66
1
  0
ATTRIB
  8
FeatureAttribs
 70
0
  1
PNOA-H_AMS_1956-57_33k_ES_PAN_2
  2
NAME
  10
294367.564
  20
4657016.062
 40
34.05590
  0
SEQEND
  0
POLYLINE
  8
Unknown_Area_Type
  70
1
  66
1
  0
VERTEX
  8
Unknown_Area_Type
  10
295291.000
  20
4659139.000
  0
VERTEX
  8
Unknown_Area_Type
  10
295298.500
  20
4659138.500
  0
VERTEX
  8
Unknown_Area_Type
  10
295847.500
  20
4658883.000
  0
VERTEX
  8
Unknown_Area_Type
  10
295614.500
  20
4655204.000
  0
VERTEX
  8
Unknown_Area_Type
  10
294723.000
  20
4654568.500
  0
VERTEX
  8
Unknown_Area_Type
  10
292874.500
  20
4655423.500
  0
VERTEX
  8
Unknown_Area_Type
  10
293053.000
  20
4659026.500
  0
VERTEX
  8
Unknown_Area_Type
  10
293053.500
  20
4659028.500
  0
VERTEX
  8
Unknown_Area_Type
  10
293063.000
  20
4659029.000
  0
VERTEX
  8
Unknown_Area_Type
  10
295280.500
  20
4659138.500
  0
VERTEX
  8
Unknown_Area_Type
  10
295291.000
  20
4659139.000
  0
SEQEND
  8
Unknown_Area_Type
  0
INSERT
  8
FeatureAttribs
  2
FEATURE
  41
1
  42
1
  43
1
  50
0
  10
294367.564
  20
4657016.062
 66
1
  0
ATTRIB
  8
FeatureAttribs
 70
0
  1
PNOA-H_AMS_1956-57_33k_ES_PAN_2
  2
NAME
  10
294367.564
  20
4657016.062
 40
34.05590
  0
SEQEND
  0
POLYLINE
  8
Unknown_Area_Type
  70
1
  66
1
  0
VERTEX
  8
Unknown_Area_Type
  10
295291.000
  20
4659139.000
  0
VERTEX
  8
Unknown_Area_Type
  10
295280.500
  20
4659138.500
  0
VERTEX
  8
Unknown_Area_Type
  10
293063.000
  20
4659029.000
  0
VERTEX
  8
Unknown_Area_Type
  10
293053.500
  20
4659028.500
  0
VERTEX
  8
Unknown_Area_Type
  10
293053.000
  20
4659026.500
  0
VERTEX
  8
Unknown_Area_Type
  10
292874.500
  20
4655423.500
  0
VERTEX
  8
Unknown_Area_Type
  10
294723.000
  20
4654568.500
  0
VERTEX
  8
Unknown_Area_Type
  10
295614.500
  20
4655204.000
  0
VERTEX
  8
Unknown_Area_Type
  10
295847.500
  20
4658883.000
  0
VERTEX
  8
Unknown_Area_Type
  10
295298.500
  20
4659138.500
  0
VERTEX
  8
Unknown_Area_Type
  10
295291.000
  20
4659139.000
  0
SEQEND
  8
Unknown_Area_Type
  0
INSERT
  8
FeatureAttribs
  2
FEATURE
  41
1
  42
1
  43
1
  50
0
  10
305012.026
  20
4656555.789
 66
1
  0
ATTRIB
  8
FeatureAttribs
 70
0
  1
PNOA-H_AMS_1956-57_33k_ES_PAN_2
  2
NAME
  10
305012.026
  20
4656555.789
 40
34.05590
  0
SEQEND
  0
POLYLINE
  8
Unknown_Area_Type
  70
1
  66
1
  0
VERTEX
  8
Unknown_Area_Type
  10
306326.500
  20
4656392.000
  0
VERTEX
  8
Unknown_Area_Type
  10
306248.000
  20
4654601.500
  0
VERTEX
  8
Unknown_Area_Type
  10
303933.000
  20
4654314.000
  0
VERTEX
  8
Unknown_Area_Type
  10
303929.000
  20
4654314.000
  0
VERTEX
  8
Unknown_Area_Type
  10
303919.500
  20
4654323.500
  0
VERTEX
  8
Unknown_Area_Type
  10
303673.500
  20
4654581.500
  0
VERTEX
  8
Unknown_Area_Type
  10
303794.500
  20
4658691.500
  0
VERTEX
  8
Unknown_Area_Type
  10
303860.000
  20
4658720.500
  0
VERTEX
  8
Unknown_Area_Type
  10
306422.000
  20
4658556.000
  0
VERTEX
  8
Unknown_Area_Type
  10
306326.500
  20
4656394.000
  0
VERTEX
  8
Unknown_Area_Type
  10
306326.500
  20
4656392.000
  0
SEQEND
  8
Unknown_Area_Type
  0
INSERT
  8
FeatureAttribs
  2
FEATURE
  41
1
  42
1
  43
1
  50
0
  10
305012.026
  20
4656555.789
 66
1
  0
ATTRIB
  8
FeatureAttribs
 70
0
  1
PNOA-H_AMS_1956-57_33k_ES_PAN_2
  2
NAME
  10
305012.026
  20
4656555.789
 40
34.05590
  0
SEQEND
  0
POLYLINE
  8
Unknown_Area_Type
  70
1
  66
1
  0
VERTEX
  8
Unknown_Area_Type
  10
306326.500
  20
4656392.000
  0
VERTEX
  8
Unknown_Area_Type
  10
306326.500
  20
4656394.000
  0
VERTEX
  8
Unknown_Area_Type
  10
306422.000
  20
4658556.000
  0
VERTEX
  8
Unknown_Area_Type
  10
303860.000
  20
4658720.500
  0
VERTEX
  8
Unknown_Area_Type
  10
303794.500
  20
4658691.500
  0
VERTEX
  8
Unknown_Area_Type
  10
303673.500
  20
4654581.500
  0
VERTEX
  8
Unknown_Area_Type
  10
303919.500
  20
4654323.500
  0
VERTEX
  8
Unknown_Area_Type
  10
303929.000
  20
4654314.000
  0
VERTEX
  8
Unknown_Area_Type
  10
303933.000
  20
4654314.000
  0
VERTEX
  8
Unknown_Area_Type
  10
306248.000
  20
4654601.500
  0
VERTEX
  8
Unknown_Area_Type
  10
306326.500
  20
4656392.000
  0
SEQEND
  8
Unknown_Area_Type
  0
INSERT
  8
FeatureAttribs
  2
FEATURE
  41
1
  42
1
  43
1
  50
0
  10
302424.211
  20
4656671.885
 66
1
  0
ATTRIB
  8
FeatureAttribs
 70
0
  1
PNOA-H_AMS_1956-57_33k_ES_PAN_2
  2
NAME
  10
302424.211
  20
4656671.885
 40
34.05590
  0
SEQEND
  0
POLYLINE
  8
Unknown_Area_Type
  70
1
  66
1
  0
VERTEX
  8
Unknown_Area_Type
  10
302738.000
  20
4658712.500
  0
VERTEX
  8
Unknown_Area_Type
  10
303794.000
  20
4658691.000
  0
VERTEX
  8
Unknown_Area_Type
  10
303673.500
  20
4654582.000
  0
VERTEX
  8
Unknown_Area_Type
  10
301056.000
  20
4654666.000
  0
VERTEX
  8
Unknown_Area_Type
  10
301166.500
  20
4658744.000
  0
VERTEX
  8
Unknown_Area_Type
  10
302719.000
  20
4658712.500
  0
VERTEX
  8
Unknown_Area_Type
  10
302738.000
  20
4658712.500
  0
SEQEND
  8
Unknown_Area_Type
  0
INSERT
  8
FeatureAttribs
  2
FEATURE
  41
1
  42
1
  43
1
  50
0
  10
302424.211
  20
4656671.885
 66
1
  0
ATTRIB
  8
FeatureAttribs
 70
0
  1
PNOA-H_AMS_1956-57_33k_ES_PAN_2
  2
NAME
  10
302424.211
  20
4656671.885
 40
34.05590
  0
SEQEND
  0
POLYLINE
  8
Unknown_Area_Type
  70
1
  66
1
  0
VERTEX
  8
Unknown_Area_Type
  10
302738.000
  20
4658712.500
  0
VERTEX
  8
Unknown_Area_Type
  10
302719.000
  20
4658712.500
  0
VERTEX
  8
Unknown_Area_Type
  10
301166.500
  20
4658744.000
  0
VERTEX
  8
Unknown_Area_Type
  10
301056.000
  20
4654666.000
  0
VERTEX
  8
Unknown_Area_Type
  10
303673.500
  20
4654582.000
  0
VERTEX
  8
Unknown_Area_Type
  10
303794.000
  20
4658691.000
  0
VERTEX
  8
Unknown_Area_Type
  10
302738.000
  20
4658712.500
  0
SEQEND
  8
Unknown_Area_Type
  0
INSERT
  8
FeatureAttribs
  2
FEATURE
  41
1
  42
1
  43
1
  50
0
  10
292126.743
  20
4657105.556
 66
1
  0
ATTRIB
  8
FeatureAttribs
 70
0
  1
PNOA-H_AMS_1956-57_33k_ES_PAN_2
  2
NAME
  10
292126.743
  20
4657105.556
 40
34.05590
  0
SEQEND
  0
POLYLINE
  8
Unknown_Area_Type
  70
1
  66
1
  0
VERTEX
  8
Unknown_Area_Type
  10
291410.720
  20
4659204.899
  0
VERTEX
  8
Unknown_Area_Type
  10
292511.500
  20
4659278.000
  0
VERTEX
  8
Unknown_Area_Type
  10
293053.500
  20
4659028.500
  0
VERTEX
  8
Unknown_Area_Type
  10
292874.500
  20
4655423.500
  0
VERTEX
  8
Unknown_Area_Type
  10
291611.500
  20
4654650.000
  0
VERTEX
  8
Unknown_Area_Type
  10
291609.500
  20
4654650.000
  0
VERTEX
  8
Unknown_Area_Type
  10
291599.000
  20
4654656.000
  0
VERTEX
  8
Unknown_Area_Type
  10
291282.036
  20
4654839.845
  0
VERTEX
  8
Unknown_Area_Type
  10
291291.581
  20
4655163.771
  0
VERTEX
  8
Unknown_Area_Type
  10
291359.771
  20
4657477.120
  0
VERTEX
  8
Unknown_Area_Type
  10
291410.720
  20
4659204.899
  0
SEQEND
  8
Unknown_Area_Type
  0
INSERT
  8
FeatureAttribs
  2
FEATURE
  41
1
  42
1
  43
1
  50
0
  10
292126.743
  20
4657105.556
 66
1
  0
ATTRIB
  8
FeatureAttribs
 70
0
  1
PNOA-H_AMS_1956-57_33k_ES_PAN_2
  2
NAME
  10
292126.743
  20
4657105.556
 40
34.05590
  0
SEQEND
  0
POLYLINE
  8
Unknown_Area_Type
  70
1
  66
1
  0
VERTEX
  8
Unknown_Area_Type
  10
291410.720
  20
4659204.899
  0
VERTEX
  8
Unknown_Area_Type
  10
291359.771
  20
4657477.120
  0
VERTEX
  8
Unknown_Area_Type
  10
291291.581
  20
4655163.771
  0
VERTEX
  8
Unknown_Area_Type
  10
291282.036
  20
4654839.845
  0
VERTEX
  8
Unknown_Area_Type
  10
291599.000
  20
4654656.000
  0
VERTEX
  8
Unknown_Area_Type
  10
291609.500
  20
4654650.000
  0
VERTEX
  8
Unknown_Area_Type
  10
291611.500
  20
4654650.000
  0
VERTEX
  8
Unknown_Area_Type
  10
292874.500
  20
4655423.500
  0
VERTEX
  8
Unknown_Area_Type
  10
293053.500
  20
4659028.500
  0
VERTEX
  8
Unknown_Area_Type
  10
292511.500
  20
4659278.000
  0
VERTEX
  8
Unknown_Area_Type
  10
291410.720
  20
4659204.899
  0
SEQEND
  8
Unknown_Area_Type
  0
INSERT
  8
FeatureAttribs
  2
FEATURE
  41
1
  42
1
  43
1
  50
0
  10
299802.543
  20
4656774.263
 66
1
  0
ATTRIB
  8
FeatureAttribs
 70
0
  1
PNOA-H_AMS_1956-57_33k_ES_PAN_2
  2
NAME
  10
299802.543
  20
4656774.263
 40
34.05590
  0
SEQEND
  0
POLYLINE
  8
Unknown_Area_Type
  70
1
  66
1
  0
VERTEX
  8
Unknown_Area_Type
  10
298633.000
  20
4658794.500
  0
VERTEX
  8
Unknown_Area_Type
  10
300955.500
  20
4658849.500
  0
VERTEX
  8
Unknown_Area_Type
  10
301166.500
  20
4658744.000
  0
VERTEX
  8
Unknown_Area_Type
  10
301056.000
  20
4654666.000
  0
VERTEX
  8
Unknown_Area_Type
  10
300876.000
  20
4654500.000
  0
VERTEX
  8
Unknown_Area_Type
  10
298380.500
  20
4654997.500
  0
VERTEX
  8
Unknown_Area_Type
  10
298493.500
  20
4658791.000
  0
VERTEX
  8
Unknown_Area_Type
  10
298612.000
  20
4658794.000
  0
VERTEX
  8
Unknown_Area_Type
  10
298633.000
  20
4658794.500
  0
SEQEND
  8
Unknown_Area_Type
  0
INSERT
  8
FeatureAttribs
  2
FEATURE
  41
1
  42
1
  43
1
  50
0
  10
299802.543
  20
4656774.263
 66
1
  0
ATTRIB
  8
FeatureAttribs
 70
0
  1
PNOA-H_AMS_1956-57_33k_ES_PAN_2
  2
NAME
  10
299802.543
  20
4656774.263
 40
34.05590
  0
SEQEND
  0
POLYLINE
  8
Unknown_Area_Type
  70
1
  66
1
  0
VERTEX
  8
Unknown_Area_Type
  10
298633.000
  20
4658794.500
  0
VERTEX
  8
Unknown_Area_Type
  10
298612.000
  20
4658794.000
  0
VERTEX
  8
Unknown_Area_Type
  10
298493.500
  20
4658791.000
  0
VERTEX
  8
Unknown_Area_Type
  10
298380.500
  20
4654997.500
  0
VERTEX
  8
Unknown_Area_Type
  10
300876.000
  20
4654500.000
  0
VERTEX
  8
Unknown_Area_Type
  10
301056.000
  20
4654666.000
  0
VERTEX
  8
Unknown_Area_Type
  10
301166.500
  20
4658744.000
  0
VERTEX
  8
Unknown_Area_Type
  10
300955.500
  20
4658849.500
  0
VERTEX
  8
Unknown_Area_Type
  10
298633.000
  20
4658794.500
  0
SEQEND
  8
Unknown_Area_Type
  0
INSERT
  8
FeatureAttribs
  2
FEATURE
  41
1
  42
1
  43
1
  50
0
  10
310296.993
  20
4656272.448
 66
1
  0
ATTRIB
  8
FeatureAttribs
 70
0
  1
PNOA-H_AMS_1956-57_33k_ES_PAN_2
  2
NAME
  10
310296.993
  20
4656272.448
 40
34.05590
  0
SEQEND
  0
POLYLINE
  8
Unknown_Area_Type
  70
1
  66
1
  0
VERTEX
  8
Unknown_Area_Type
  10
311365.000
  20
4654344.000
  0
VERTEX
  8
Unknown_Area_Type
  10
309992.500
  20
4653829.500
  0
VERTEX
  8
Unknown_Area_Type
  10
308918.000
  20
4654558.500
  0
VERTEX
  8
Unknown_Area_Type
  10
309020.500
  20
4658381.000
  0
VERTEX
  8
Unknown_Area_Type
  10
309507.500
  20
4658567.000
  0
VERTEX
  8
Unknown_Area_Type
  10
311627.000
  20
4658283.500
  0
VERTEX
  8
Unknown_Area_Type
  10
311687.000
  20
4654464.000
  0
VERTEX
  8
Unknown_Area_Type
  10
311366.500
  20
4654344.000
  0
VERTEX
  8
Unknown_Area_Type
  10
311365.000
  20
4654344.000
  0
SEQEND
  8
Unknown_Area_Type
  0
INSERT
  8
FeatureAttribs
  2
FEATURE
  41
1
  42
1
  43
1
  50
0
  10
310296.993
  20
4656272.448
 66
1
  0
ATTRIB
  8
FeatureAttribs
 70
0
  1
PNOA-H_AMS_1956-57_33k_ES_PAN_2
  2
NAME
  10
310296.993
  20
4656272.448
 40
34.05590
  0
SEQEND
  0
POLYLINE
  8
Unknown_Area_Type
  70
1
  66
1
  0
VERTEX
  8
Unknown_Area_Type
  10
311365.000
  20
4654344.000
  0
VERTEX
  8
Unknown_Area_Type
  10
311366.500
  20
4654344.000
  0
VERTEX
  8
Unknown_Area_Type
  10
311687.000
  20
4654464.000
  0
VERTEX
  8
Unknown_Area_Type
  10
311627.000
  20
4658283.500
  0
VERTEX
  8
Unknown_Area_Type
  10
309507.500
  20
4658567.000
  0
VERTEX
  8
Unknown_Area_Type
  10
309020.500
  20
4658381.000
  0
VERTEX
  8
Unknown_Area_Type
  10
308918.000
  20
4654558.500
  0
VERTEX
  8
Unknown_Area_Type
  10
309992.500
  20
4653829.500
  0
VERTEX
  8
Unknown_Area_Type
  10
311365.000
  20
4654344.000
  0
SEQEND
  8
Unknown_Area_Type
  0
INSERT
  8
FeatureAttribs
  2
FEATURE
  41
1
  42
1
  43
1
  50
0
  10
313007.373
  20
4656250.290
 66
1
  0
ATTRIB
  8
FeatureAttribs
 70
0
  1
PNOA-H_AMS_1956-57_33k_ES_PAN_2
  2
NAME
  10
313007.373
  20
4656250.290
 40
34.05590
  0
SEQEND
  0
POLYLINE
  8
Unknown_Area_Type
  70
1
  66
1
  0
VERTEX
  8
Unknown_Area_Type
  10
312414.500
  20
4658570.500
  0
VERTEX
  8
Unknown_Area_Type
  10
314315.000
  20
4658240.000
  0
VERTEX
  8
Unknown_Area_Type
  10
314316.500
  20
4658239.500
  0
VERTEX
  8
Unknown_Area_Type
  10
314317.000
  20
4658237.500
  0
VERTEX
  8
Unknown_Area_Type
  10
314410.500
  20
4654385.500
  0
VERTEX
  8
Unknown_Area_Type
  10
313051.000
  20
4653785.000
  0
VERTEX
  8
Unknown_Area_Type
  10
311687.000
  20
4654464.000
  0
VERTEX
  8
Unknown_Area_Type
  10
311627.000
  20
4658283.500
  0
VERTEX
  8
Unknown_Area_Type
  10
312413.000
  20
4658570.000
  0
VERTEX
  8
Unknown_Area_Type
  10
312414.500
  20
4658570.500
  0
SEQEND
  8
Unknown_Area_Type
  0
INSERT
  8
FeatureAttribs
  2
FEATURE
  41
1
  42
1
  43
1
  50
0
  10
313007.373
  20
4656250.290
 66
1
  0
ATTRIB
  8
FeatureAttribs
 70
0
  1
PNOA-H_AMS_1956-57_33k_ES_PAN_2
  2
NAME
  10
313007.373
  20
4656250.290
 40
34.05590
  0
SEQEND
  0
POLYLINE
  8
Unknown_Area_Type
  70
1
  66
1
  0
VERTEX
  8
Unknown_Area_Type
  10
312414.500
  20
4658570.500
  0
VERTEX
  8
Unknown_Area_Type
  10
312413.000
  20
4658570.000
  0
VERTEX
  8
Unknown_Area_Type
  10
311627.000
  20
4658283.500
  0
VERTEX
  8
Unknown_Area_Type
  10
311687.000
  20
4654464.000
  0
VERTEX
  8
Unknown_Area_Type
  10
313051.000
  20
4653785.000
  0
VERTEX
  8
Unknown_Area_Type
  10
314410.500
  20
4654385.500
  0
VERTEX
  8
Unknown_Area_Type
  10
314317.000
  20
4658237.500
  0
VERTEX
  8
Unknown_Area_Type
  10
314316.500
  20
4658239.500
  0
VERTEX
  8
Unknown_Area_Type
  10
314315.000
  20
4658240.000
  0
VERTEX
  8
Unknown_Area_Type
  10
312414.500
  20
4658570.500
  0
SEQEND
  8
Unknown_Area_Type
  0
INSERT
  8
FeatureAttribs
  2
FEATURE
  41
1
  42
1
  43
1
  50
0
  10
307622.396
  20
4656398.275
 66
1
  0
ATTRIB
  8
FeatureAttribs
 70
0
  1
PNOA-H_AMS_1956-57_33k_ES_PAN_2
  2
NAME
  10
307622.396
  20
4656398.275
 40
34.05590
  0
SEQEND
  0
POLYLINE
  8
Unknown_Area_Type
  70
1
  66
1
  0
VERTEX
  8
Unknown_Area_Type
  10
306664.500
  20
4658651.000
  0
VERTEX
  8
Unknown_Area_Type
  10
309020.500
  20
4658381.000
  0
VERTEX
  8
Unknown_Area_Type
  10
308918.500
  20
4654577.000
  0
VERTEX
  8
Unknown_Area_Type
  10
308918.000
  20
4654559.000
  0
VERTEX
  8
Unknown_Area_Type
  10
308917.000
  20
4654558.500
  0
VERTEX
  8
Unknown_Area_Type
  10
306961.500
  20
4654022.000
  0
VERTEX
  8
Unknown_Area_Type
  10
306248.000
  20
4654601.000
  0
VERTEX
  8
Unknown_Area_Type
  10
306422.000
  20
4658556.000
  0
VERTEX
  8
Unknown_Area_Type
  10
306663.000
  20
4658650.500
  0
VERTEX
  8
Unknown_Area_Type
  10
306664.500
  20
4658651.000
  0
SEQEND
  8
Unknown_Area_Type
  0
INSERT
  8
FeatureAttribs
  2
FEATURE
  41
1
  42
1
  43
1
  50
0
  10
307622.396
  20
4656398.275
 66
1
  0
ATTRIB
  8
FeatureAttribs
 70
0
  1
PNOA-H_AMS_1956-57_33k_ES_PAN_2
  2
NAME
  10
307622.396
  20
4656398.275
 40
34.05590
  0
SEQEND
  0
POLYLINE
  8
Unknown_Area_Type
  70
1
  66
1
  0
VERTEX
  8
Unknown_Area_Type
  10
306664.500
  20
4658651.000
  0
VERTEX
  8
Unknown_Area_Type
  10
306663.000
  20
4658650.500
  0
VERTEX
  8
Unknown_Area_Type
  10
306422.000
  20
4658556.000
  0
VERTEX
  8
Unknown_Area_Type
  10
306248.000
  20
4654601.000
  0
VERTEX
  8
Unknown_Area_Type
  10
306961.500
  20
4654022.000
  0
VERTEX
  8
Unknown_Area_Type
  10
308917.000
  20
4654558.500
  0
VERTEX
  8
Unknown_Area_Type
  10
308918.000
  20
4654559.000
  0
VERTEX
  8
Unknown_Area_Type
  10
308918.500
  20
4654577.000
  0
VERTEX
  8
Unknown_Area_Type
  10
309020.500
  20
4658381.000
  0
VERTEX
  8
Unknown_Area_Type
  10
306664.500
  20
4658651.000
  0
SEQEND
  8
Unknown_Area_Type
  0
INSERT
  8
FeatureAttribs
  2
FEATURE
  41
1
  42
1
  43
1
  50
0
  10
319119.352
  20
4656055.051
 66
1
  0
ATTRIB
  8
FeatureAttribs
 70
0
  1
PNOA-H_AMS_1956-57_33k_ES_PAN_2
  2
NAME
  10
319119.352
  20
4656055.051
 40
34.05590
  0
SEQEND
  0
POLYLINE
  8
Unknown_Area_Type
  70
1
  66
1
  0
VERTEX
  8
Unknown_Area_Type
  10
319305.575
  20
4658273.264
  0
VERTEX
  8
Unknown_Area_Type
  10
319305.575
  20
4653886.819
  0
VERTEX
  8
Unknown_Area_Type
  10
319087.000
  20
4653762.000
  0
VERTEX
  8
Unknown_Area_Type
  10
318875.952
  20
4653819.174
  0
VERTEX
  8
Unknown_Area_Type
  10
318890.909
  20
4654404.238
  0
VERTEX
  8
Unknown_Area_Type
  10
318950.071
  20
4656717.529
  0
VERTEX
  8
Unknown_Area_Type
  10
318991.789
  20
4658348.103
  0
VERTEX
  8
Unknown_Area_Type
  10
319305.575
  20
4658273.264
  0
SEQEND
  8
Unknown_Area_Type
  0
INSERT
  8
FeatureAttribs
  2
FEATURE
  41
1
  42
1
  43
1
  50
0
  10
318037.366
  20
4656265.578
 66
1
  0
ATTRIB
  8
FeatureAttribs
 70
0
  1
PNOA-H_AMS_1956-57_33k_ES_PAN_2
  2
NAME
  10
318037.366
  20
4656265.578
 40
34.05590
  0
SEQEND
  0
POLYLINE
  8
Unknown_Area_Type
  70
1
  66
1
  0
VERTEX
  8
Unknown_Area_Type
  10
318991.789
  20
4658348.103
  0
VERTEX
  8
Unknown_Area_Type
  10
318950.071
  20
4656717.529
  0
VERTEX
  8
Unknown_Area_Type
  10
318890.909
  20
4654404.238
  0
VERTEX
  8
Unknown_Area_Type
  10
318875.952
  20
4653819.174
  0
VERTEX
  8
Unknown_Area_Type
  10
317114.000
  20
4654296.500
  0
VERTEX
  8
Unknown_Area_Type
  10
317072.500
  20
4658186.500
  0
VERTEX
  8
Unknown_Area_Type
  10
317072.500
  20
4658213.000
  0
VERTEX
  8
Unknown_Area_Type
  10
317073.500
  20
4658213.500
  0
VERTEX
  8
Unknown_Area_Type
  10
318124.500
  20
4658553.500
  0
VERTEX
  8
Unknown_Area_Type
  10
318128.500
  20
4658554.000
  0
VERTEX
  8
Unknown_Area_Type
  10
318991.789
  20
4658348.103
  0
SEQEND
  8
Unknown_Area_Type
  0
INSERT
  8
FeatureAttribs
  2
FEATURE
  41
1
  42
1
  43
1
  50
0
  10
318037.366
  20
4656265.578
 66
1
  0
ATTRIB
  8
FeatureAttribs
 70
0
  1
PNOA-H_AMS_1956-57_33k_ES_PAN_2
  2
NAME
  10
318037.366
  20
4656265.578
 40
34.05590
  0
SEQEND
  0
POLYLINE
  8
Unknown_Area_Type
  70
1
  66
1
  0
VERTEX
  8
Unknown_Area_Type
  10
318991.789
  20
4658348.103
  0
VERTEX
  8
Unknown_Area_Type
  10
318128.500
  20
4658554.000
  0
VERTEX
  8
Unknown_Area_Type
  10
318124.500
  20
4658553.500
  0
VERTEX
  8
Unknown_Area_Type
  10
317073.500
  20
4658213.500
  0
VERTEX
  8
Unknown_Area_Type
  10
317072.500
  20
4658213.000
  0
VERTEX
  8
Unknown_Area_Type
  10
317072.500
  20
4658186.500
  0
VERTEX
  8
Unknown_Area_Type
  10
317114.000
  20
4654296.500
  0
VERTEX
  8
Unknown_Area_Type
  10
318875.952
  20
4653819.174
  0
VERTEX
  8
Unknown_Area_Type
  10
318890.909
  20
4654404.238
  0
VERTEX
  8
Unknown_Area_Type
  10
318950.071
  20
4656717.529
  0
VERTEX
  8
Unknown_Area_Type
  10
318991.789
  20
4658348.103
  0
SEQEND
  8
Unknown_Area_Type
  0
INSERT
  8
FeatureAttribs
  2
FEATURE
  41
1
  42
1
  43
1
  50
0
  10
315733.212
  20
4656234.412
 66
1
  0
ATTRIB
  8
FeatureAttribs
 70
0
  1
PNOA-H_AMS_1956-57_33k_ES_PAN_2
  2
NAME
  10
315733.212
  20
4656234.412
 40
34.05590
  0
SEQEND
  0
POLYLINE
  8
Unknown_Area_Type
  70
1
  66
1
  0
VERTEX
  8
Unknown_Area_Type
  10
315292.000
  20
4658577.000
  0
VERTEX
  8
Unknown_Area_Type
  10
315303.500
  20
4658575.500
  0
VERTEX
  8
Unknown_Area_Type
  10
317072.500
  20
4658213.000
  0
VERTEX
  8
Unknown_Area_Type
  10
317114.000
  20
4654296.500
  0
VERTEX
  8
Unknown_Area_Type
  10
316048.500
  20
4653765.000
  0
VERTEX
  8
Unknown_Area_Type
  10
316035.500
  20
4653769.000
  0
VERTEX
  8
Unknown_Area_Type
  10
314410.500
  20
4654386.000
  0
VERTEX
  8
Unknown_Area_Type
  10
314316.500
  20
4658239.500
  0
VERTEX
  8
Unknown_Area_Type
  10
315290.500
  20
4658576.500
  0
VERTEX
  8
Unknown_Area_Type
  10
315292.000
  20
4658577.000
  0
SEQEND
  8
Unknown_Area_Type
  0
INSERT
  8
FeatureAttribs
  2
FEATURE
  41
1
  42
1
  43
1
  50
0
  10
315733.212
  20
4656234.412
 66
1
  0
ATTRIB
  8
FeatureAttribs
 70
0
  1
PNOA-H_AMS_1956-57_33k_ES_PAN_2
  2
NAME
  10
315733.212
  20
4656234.412
 40
34.05590
  0
SEQEND
  0
POLYLINE
  8
Unknown_Area_Type
  70
1
  66
1
  0
VERTEX
  8
Unknown_Area_Type
  10
315292.000
  20
4658577.000
  0
VERTEX
  8
Unknown_Area_Type
  10
315290.500
  20
4658576.500
  0
VERTEX
  8
Unknown_Area_Type
  10
314316.500
  20
4658239.500
  0
VERTEX
  8
Unknown_Area_Type
  10
314410.500
  20
4654386.000
  0
VERTEX
  8
Unknown_Area_Type
  10
316035.500
  20
4653769.000
  0
VERTEX
  8
Unknown_Area_Type
  10
316048.500
  20
4653765.000
  0
VERTEX
  8
Unknown_Area_Type
  10
317114.000
  20
4654296.500
  0
VERTEX
  8
Unknown_Area_Type
  10
317072.500
  20
4658213.000
  0
VERTEX
  8
Unknown_Area_Type
  10
315303.500
  20
4658575.500
  0
VERTEX
  8
Unknown_Area_Type
  10
315292.000
  20
4658577.000
  0
SEQEND
  8
Unknown_Area_Type
  0
INSERT
  8
FeatureAttribs
  2
FEATURE
  41
1
  42
1
  43
1
  50
0
  10
292911.320
  20
4670029.334
 66
1
  0
ATTRIB
  8
FeatureAttribs
 70
0
  1
PNOA-H_AMS_1956-57_33k_ES_PAN_2
  2
NAME
  10
292911.320
  20
4670029.334
 40
34.05590
  0
SEQEND
  0
POLYLINE
  8
Unknown_Area_Type
  70
1
  66
1
  0
VERTEX
  8
Unknown_Area_Type
  10
294131.236
  20
4671288.135
  0
VERTEX
  8
Unknown_Area_Type
  10
294097.500
  20
4668903.000
  0
VERTEX
  8
Unknown_Area_Type
  10
292797.500
  20
4668614.500
  0
VERTEX
  8
Unknown_Area_Type
  10
292745.500
  20
4668603.000
  0
VERTEX
  8
Unknown_Area_Type
  10
292741.500
  20
4668603.000
  0
VERTEX
  8
Unknown_Area_Type
  10
291696.002
  20
4668870.208
  0
VERTEX
  8
Unknown_Area_Type
  10
291701.134
  20
4669043.967
  0
VERTEX
  8
Unknown_Area_Type
  10
291769.490
  20
4671357.356
  0
VERTEX
  8
Unknown_Area_Type
  10
294131.236
  20
4671288.135
  0
SEQEND
  8
Unknown_Area_Type
  0
INSERT
  8
FeatureAttribs
  2
FEATURE
  41
1
  42
1
  43
1
  50
0
  10
292911.320
  20
4670029.334
 66
1
  0
ATTRIB
  8
FeatureAttribs
 70
0
  1
PNOA-H_AMS_1956-57_33k_ES_PAN_2
  2
NAME
  10
292911.320
  20
4670029.334
 40
34.05590
  0
SEQEND
  0
POLYLINE
  8
Unknown_Area_Type
  70
1
  66
1
  0
VERTEX
  8
Unknown_Area_Type
  10
294131.236
  20
4671288.135
  0
VERTEX
  8
Unknown_Area_Type
  10
291769.490
  20
4671357.356
  0
VERTEX
  8
Unknown_Area_Type
  10
291701.134
  20
4669043.967
  0
VERTEX
  8
Unknown_Area_Type
  10
291696.002
  20
4668870.208
  0
VERTEX
  8
Unknown_Area_Type
  10
292741.500
  20
4668603.000
  0
VERTEX
  8
Unknown_Area_Type
  10
292745.500
  20
4668603.000
  0
VERTEX
  8
Unknown_Area_Type
  10
292797.500
  20
4668614.500
  0
VERTEX
  8
Unknown_Area_Type
  10
294097.500
  20
4668903.000
  0
VERTEX
  8
Unknown_Area_Type
  10
294131.236
  20
4671288.135
  0
SEQEND
  8
Unknown_Area_Type
  0
INSERT
  8
FeatureAttribs
  2
FEATURE
  41
1
  42
1
  43
1
  50
0
  10
298382.157
  20
4669959.417
 66
1
  0
ATTRIB
  8
FeatureAttribs
 70
0
  1
PNOA-H_AMS_1956-57_33k_ES_PAN_2
  2
NAME
  10
298382.157
  20
4669959.417
 40
34.05590
  0
SEQEND
  0
POLYLINE
  8
Unknown_Area_Type
  70
1
  66
1
  0
VERTEX
  8
Unknown_Area_Type
  10
299833.465
  20
4671123.845
  0
VERTEX
  8
Unknown_Area_Type
  10
299749.000
  20
4668893.000
  0
VERTEX
  8
Unknown_Area_Type
  10
298229.500
  20
4668589.500
  0
VERTEX
  8
Unknown_Area_Type
  10
296971.500
  20
4668935.000
  0
VERTEX
  8
Unknown_Area_Type
  10
297008.855
  20
4671204.674
  0
VERTEX
  8
Unknown_Area_Type
  10
298653.567
  20
4671157.273
  0
VERTEX
  8
Unknown_Area_Type
  10
299833.465
  20
4671123.845
  0
SEQEND
  8
Unknown_Area_Type
  0
INSERT
  8
FeatureAttribs
  2
FEATURE
  41
1
  42
1
  43
1
  50
0
  10
298382.157
  20
4669959.417
 66
1
  0
ATTRIB
  8
FeatureAttribs
 70
0
  1
PNOA-H_AMS_1956-57_33k_ES_PAN_2
  2
NAME
  10
298382.157
  20
4669959.417
 40
34.05590
  0
SEQEND
  0
POLYLINE
  8
Unknown_Area_Type
  70
1
  66
1
  0
VERTEX
  8
Unknown_Area_Type
  10
299833.465
  20
4671123.845
  0
VERTEX
  8
Unknown_Area_Type
  10
298653.567
  20
4671157.273
  0
VERTEX
  8
Unknown_Area_Type
  10
297008.855
  20
4671204.674
  0
VERTEX
  8
Unknown_Area_Type
  10
296971.500
  20
4668935.000
  0
VERTEX
  8
Unknown_Area_Type
  10
298229.500
  20
4668589.500
  0
VERTEX
  8
Unknown_Area_Type
  10
299749.000
  20
4668893.000
  0
VERTEX
  8
Unknown_Area_Type
  10
299833.465
  20
4671123.845
  0
SEQEND
  8
Unknown_Area_Type
  0
INSERT
  8
FeatureAttribs
  2
FEATURE
  41
1
  42
1
  43
1
  50
0
  10
295538.190
  20
4669997.603
 66
1
  0
ATTRIB
  8
FeatureAttribs
 70
0
  1
PNOA-H_AMS_1956-57_33k_ES_PAN_2
  2
NAME
  10
295538.190
  20
4669997.603
 40
34.05590
  0
SEQEND
  0
POLYLINE
  8
Unknown_Area_Type
  70
1
  66
1
  0
VERTEX
  8
Unknown_Area_Type
  10
297008.855
  20
4671204.674
  0
VERTEX
  8
Unknown_Area_Type
  10
296971.500
  20
4668935.000
  0
VERTEX
  8
Unknown_Area_Type
  10
295455.000
  20
4668584.000
  0
VERTEX
  8
Unknown_Area_Type
  10
295451.500
  20
4668584.000
  0
VERTEX
  8
Unknown_Area_Type
  10
294097.500
  20
4668903.000
  0
VERTEX
  8
Unknown_Area_Type
  10
294131.236
  20
4671288.135
  0
VERTEX
  8
Unknown_Area_Type
  10
295211.534
  20
4671256.473
  0
VERTEX
  8
Unknown_Area_Type
  10
297008.855
  20
4671204.674
  0
SEQEND
  8
Unknown_Area_Type
  0
INSERT
  8
FeatureAttribs
  2
FEATURE
  41
1
  42
1
  43
1
  50
0
  10
295538.190
  20
4669997.603
 66
1
  0
ATTRIB
  8
FeatureAttribs
 70
0
  1
PNOA-H_AMS_1956-57_33k_ES_PAN_2
  2
NAME
  10
295538.190
  20
4669997.603
 40
34.05590
  0
SEQEND
  0
POLYLINE
  8
Unknown_Area_Type
  70
1
  66
1
  0
VERTEX
  8
Unknown_Area_Type
  10
297008.855
  20
4671204.674
  0
VERTEX
  8
Unknown_Area_Type
  10
295211.534
  20
4671256.473
  0
VERTEX
  8
Unknown_Area_Type
  10
294131.236
  20
4671288.135
  0
VERTEX
  8
Unknown_Area_Type
  10
294097.500
  20
4668903.000
  0
VERTEX
  8
Unknown_Area_Type
  10
295451.500
  20
4668584.000
  0
VERTEX
  8
Unknown_Area_Type
  10
295455.000
  20
4668584.000
  0
VERTEX
  8
Unknown_Area_Type
  10
296971.500
  20
4668935.000
  0
VERTEX
  8
Unknown_Area_Type
  10
297008.855
  20
4671204.674
  0
SEQEND
  8
Unknown_Area_Type
  0
INSERT
  8
FeatureAttribs
  2
FEATURE
  41
1
  42
1
  43
1
  50
0
  10
302497.534
  20
4664571.527
 66
1
  0
ATTRIB
  8
FeatureAttribs
 70
0
  1
PNOA-H_AMS_1956-57_33k_ES_PAN_2
  2
NAME
  10
302497.534
  20
4664571.527
 40
34.05590
  0
SEQEND
  0
POLYLINE
  8
Unknown_Area_Type
  70
1
  66
1
  0
VERTEX
  8
Unknown_Area_Type
  10
301117.500
  20
4665670.500
  0
VERTEX
  8
Unknown_Area_Type
  10
303921.500
  20
4665653.000
  0
VERTEX
  8
Unknown_Area_Type
  10
303871.000
  20
4663473.500
  0
VERTEX
  8
Unknown_Area_Type
  10
303870.500
  20
4663466.500
  0
VERTEX
  8
Unknown_Area_Type
  10
303822.500
  20
4663466.500
  0
VERTEX
  8
Unknown_Area_Type
  10
301171.500
  20
4663488.500
  0
VERTEX
  8
Unknown_Area_Type
  10
301082.000
  20
4663555.000
  0
VERTEX
  8
Unknown_Area_Type
  10
301110.500
  20
4665611.000
  0
VERTEX
  8
Unknown_Area_Type
  10
301111.000
  20
4665622.000
  0
VERTEX
  8
Unknown_Area_Type
  10
301117.500
  20
4665669.500
  0
VERTEX
  8
Unknown_Area_Type
  10
301117.500
  20
4665670.500
  0
SEQEND
  8
Unknown_Area_Type
  0
INSERT
  8
FeatureAttribs
  2
FEATURE
  41
1
  42
1
  43
1
  50
0
  10
302497.534
  20
4664571.527
 66
1
  0
ATTRIB
  8
FeatureAttribs
 70
0
  1
PNOA-H_AMS_1956-57_33k_ES_PAN_2
  2
NAME
  10
302497.534
  20
4664571.527
 40
34.05590
  0
SEQEND
  0
POLYLINE
  8
Unknown_Area_Type
  70
1
  66
1
  0
VERTEX
  8
Unknown_Area_Type
  10
301117.500
  20
4665670.500
  0
VERTEX
  8
Unknown_Area_Type
  10
301117.500
  20
4665669.500
  0
VERTEX
  8
Unknown_Area_Type
  10
301111.000
  20
4665622.000
  0
VERTEX
  8
Unknown_Area_Type
  10
301110.500
  20
4665611.000
  0
VERTEX
  8
Unknown_Area_Type
  10
301082.000
  20
4663555.000
  0
VERTEX
  8
Unknown_Area_Type
  10
301171.500
  20
4663488.500
  0
VERTEX
  8
Unknown_Area_Type
  10
303822.500
  20
4663466.500
  0
VERTEX
  8
Unknown_Area_Type
  10
303870.500
  20
4663466.500
  0
VERTEX
  8
Unknown_Area_Type
  10
303871.000
  20
4663473.500
  0
VERTEX
  8
Unknown_Area_Type
  10
303921.500
  20
4665653.000
  0
VERTEX
  8
Unknown_Area_Type
  10
301117.500
  20
4665670.500
  0
SEQEND
  8
Unknown_Area_Type
  0
INSERT
  8
FeatureAttribs
  2
FEATURE
  41
1
  42
1
  43
1
  50
0
  10
299686.352
  20
4664618.270
 66
1
  0
ATTRIB
  8
FeatureAttribs
 70
0
  1
PNOA-H_AMS_1956-57_33k_ES_PAN_2
  2
NAME
  10
299686.352
  20
4664618.270
 40
34.05590
  0
SEQEND
  0
POLYLINE
  8
Unknown_Area_Type
  70
1
  66
1
  0
VERTEX
  8
Unknown_Area_Type
  10
300690.000
  20
4665636.000
  0
VERTEX
  8
Unknown_Area_Type
  10
301111.000
  20
4665618.500
  0
VERTEX
  8
Unknown_Area_Type
  10
301082.000
  20
4663555.500
  0
VERTEX
  8
Unknown_Area_Type
  10
298330.500
  20
4663572.000
  0
VERTEX
  8
Unknown_Area_Type
  10
298266.500
  20
4663620.000
  0
VERTEX
  8
Unknown_Area_Type
  10
298329.500
  20
4665733.000
  0
VERTEX
  8
Unknown_Area_Type
  10
300683.500
  20
4665636.000
  0
VERTEX
  8
Unknown_Area_Type
  10
300690.000
  20
4665636.000
  0
SEQEND
  8
Unknown_Area_Type
  0
INSERT
  8
FeatureAttribs
  2
FEATURE
  41
1
  42
1
  43
1
  50
0
  10
299686.352
  20
4664618.270
 66
1
  0
ATTRIB
  8
FeatureAttribs
 70
0
  1
PNOA-H_AMS_1956-57_33k_ES_PAN_2
  2
NAME
  10
299686.352
  20
4664618.270
 40
34.05590
  0
SEQEND
  0
POLYLINE
  8
Unknown_Area_Type
  70
1
  66
1
  0
VERTEX
  8
Unknown_Area_Type
  10
300690.000
  20
4665636.000
  0
VERTEX
  8
Unknown_Area_Type
  10
300683.500
  20
4665636.000
  0
VERTEX
  8
Unknown_Area_Type
  10
298329.500
  20
4665733.000
  0
VERTEX
  8
Unknown_Area_Type
  10
298266.500
  20
4663620.000
  0
VERTEX
  8
Unknown_Area_Type
  10
298330.500
  20
4663572.000
  0
VERTEX
  8
Unknown_Area_Type
  10
301082.000
  20
4663555.500
  0
VERTEX
  8
Unknown_Area_Type
  10
301111.000
  20
4665618.500
  0
VERTEX
  8
Unknown_Area_Type
  10
300690.000
  20
4665636.000
  0
SEQEND
  8
Unknown_Area_Type
  0
INSERT
  8
FeatureAttribs
  2
FEATURE
  41
1
  42
1
  43
1
  50
0
  10
305209.780
  20
4664525.175
 66
1
  0
ATTRIB
  8
FeatureAttribs
 70
0
  1
PNOA-H_AMS_1956-57_33k_ES_PAN_2
  2
NAME
  10
305209.780
  20
4664525.175
 40
34.05590
  0
SEQEND
  0
POLYLINE
  8
Unknown_Area_Type
  70
1
  66
1
  0
VERTEX
  8
Unknown_Area_Type
  10
303964.000
  20
4665922.500
  0
VERTEX
  8
Unknown_Area_Type
  10
306672.000
  20
4665347.500
  0
VERTEX
  8
Unknown_Area_Type
  10
306624.500
  20
4663428.500
  0
VERTEX
  8
Unknown_Area_Type
  10
304005.000
  20
4663371.000
  0
VERTEX
  8
Unknown_Area_Type
  10
303870.500
  20
4663466.000
  0
VERTEX
  8
Unknown_Area_Type
  10
303921.000
  20
4665644.500
  0
VERTEX
  8
Unknown_Area_Type
  10
303922.500
  20
4665661.500
  0
VERTEX
  8
Unknown_Area_Type
  10
303963.500
  20
4665919.000
  0
VERTEX
  8
Unknown_Area_Type
  10
303964.000
  20
4665922.500
  0
SEQEND
  8
Unknown_Area_Type
  0
INSERT
  8
FeatureAttribs
  2
FEATURE
  41
1
  42
1
  43
1
  50
0
  10
305209.780
  20
4664525.175
 66
1
  0
ATTRIB
  8
FeatureAttribs
 70
0
  1
PNOA-H_AMS_1956-57_33k_ES_PAN_2
  2
NAME
  10
305209.780
  20
4664525.175
 40
34.05590
  0
SEQEND
  0
POLYLINE
  8
Unknown_Area_Type
  70
1
  66
1
  0
VERTEX
  8
Unknown_Area_Type
  10
303964.000
  20
4665922.500
  0
VERTEX
  8
Unknown_Area_Type
  10
303963.500
  20
4665919.000
  0
VERTEX
  8
Unknown_Area_Type
  10
303922.500
  20
4665661.500
  0
VERTEX
  8
Unknown_Area_Type
  10
303921.000
  20
4665644.500
  0
VERTEX
  8
Unknown_Area_Type
  10
303870.500
  20
4663466.000
  0
VERTEX
  8
Unknown_Area_Type
  10
304005.000
  20
4663371.000
  0
VERTEX
  8
Unknown_Area_Type
  10
306624.500
  20
4663428.500
  0
VERTEX
  8
Unknown_Area_Type
  10
306672.000
  20
4665347.500
  0
VERTEX
  8
Unknown_Area_Type
  10
303964.000
  20
4665922.500
  0
SEQEND
  8
Unknown_Area_Type
  0
INSERT
  8
FeatureAttribs
  2
FEATURE
  41
1
  42
1
  43
1
  50
0
  10
292205.479
  20
4665257.723
 66
1
  0
ATTRIB
  8
FeatureAttribs
 70
0
  1
PNOA-H_AMS_1956-57_33k_ES_PAN_2
  2
NAME
  10
292205.479
  20
4665257.723
 40
34.05590
  0
SEQEND
  0
POLYLINE
  8
Unknown_Area_Type
  70
1
  66
1
  0
VERTEX
  8
Unknown_Area_Type
  10
291613.844
  20
4666088.332
  0
VERTEX
  8
Unknown_Area_Type
  10
292710.500
  20
4667379.000
  0
VERTEX
  8
Unknown_Area_Type
  10
292755.000
  20
4665470.500
  0
VERTEX
  8
Unknown_Area_Type
  10
292734.500
  20
4663786.500
  0
VERTEX
  8
Unknown_Area_Type
  10
292656.500
  20
4663732.000
  0
VERTEX
  8
Unknown_Area_Type
  10
292651.500
  20
4663732.000
  0
VERTEX
  8
Unknown_Area_Type
  10
291546.437
  20
4663804.955
  0
VERTEX
  8
Unknown_Area_Type
  10
291564.506
  20
4664417.207
  0
VERTEX
  8
Unknown_Area_Type
  10
291613.844
  20
4666088.332
  0
SEQEND
  8
Unknown_Area_Type
  0
INSERT
  8
FeatureAttribs
  2
FEATURE
  41
1
  42
1
  43
1
  50
0
  10
292205.479
  20
4665257.723
 66
1
  0
ATTRIB
  8
FeatureAttribs
 70
0
  1
PNOA-H_AMS_1956-57_33k_ES_PAN_2
  2
NAME
  10
292205.479
  20
4665257.723
 40
34.05590
  0
SEQEND
  0
POLYLINE
  8
Unknown_Area_Type
  70
1
  66
1
  0
VERTEX
  8
Unknown_Area_Type
  10
291613.844
  20
4666088.332
  0
VERTEX
  8
Unknown_Area_Type
  10
291564.506
  20
4664417.207
  0
VERTEX
  8
Unknown_Area_Type
  10
291546.437
  20
4663804.955
  0
VERTEX
  8
Unknown_Area_Type
  10
292651.500
  20
4663732.000
  0
VERTEX
  8
Unknown_Area_Type
  10
292656.500
  20
4663732.000
  0
VERTEX
  8
Unknown_Area_Type
  10
292734.500
  20
4663786.500
  0
VERTEX
  8
Unknown_Area_Type
  10
292755.000
  20
4665470.500
  0
VERTEX
  8
Unknown_Area_Type
  10
292710.500
  20
4667379.000
  0
VERTEX
  8
Unknown_Area_Type
  10
291613.844
  20
4666088.332
  0
SEQEND
  8
Unknown_Area_Type
  0
INSERT
  8
FeatureAttribs
  2
FEATURE
  41
1
  42
1
  43
1
  50
0
  10
310583.331
  20
4664414.588
 66
1
  0
ATTRIB
  8
FeatureAttribs
 70
0
  1
PNOA-H_AMS_1956-57_33k_ES_PAN_2
  2
NAME
  10
310583.331
  20
4664414.588
 40
34.05590
  0
SEQEND
  0
POLYLINE
  8
Unknown_Area_Type
  70
1
  66
1
  0
VERTEX
  8
Unknown_Area_Type
  10
309582.000
  20
4666139.000
  0
VERTEX
  8
Unknown_Area_Type
  10
312027.000
  20
4665017.000
  0
VERTEX
  8
Unknown_Area_Type
  10
311983.000
  20
4663286.500
  0
VERTEX
  8
Unknown_Area_Type
  10
309713.000
  20
4663107.000
  0
VERTEX
  8
Unknown_Area_Type
  10
309336.000
  20
4663343.000
  0
VERTEX
  8
Unknown_Area_Type
  10
309386.500
  20
4665282.500
  0
VERTEX
  8
Unknown_Area_Type
  10
309582.000
  20
4666137.000
  0
VERTEX
  8
Unknown_Area_Type
  10
309582.000
  20
4666139.000
  0
SEQEND
  8
Unknown_Area_Type
  0
INSERT
  8
FeatureAttribs
  2
FEATURE
  41
1
  42
1
  43
1
  50
0
  10
310583.331
  20
4664414.588
 66
1
  0
ATTRIB
  8
FeatureAttribs
 70
0
  1
PNOA-H_AMS_1956-57_33k_ES_PAN_2
  2
NAME
  10
310583.331
  20
4664414.588
 40
34.05590
  0
SEQEND
  0
POLYLINE
  8
Unknown_Area_Type
  70
1
  66
1
  0
VERTEX
  8
Unknown_Area_Type
  10
309582.000
  20
4666139.000
  0
VERTEX
  8
Unknown_Area_Type
  10
309582.000
  20
4666137.000
  0
VERTEX
  8
Unknown_Area_Type
  10
309386.500
  20
4665282.500
  0
VERTEX
  8
Unknown_Area_Type
  10
309336.000
  20
4663343.000
  0
VERTEX
  8
Unknown_Area_Type
  10
309713.000
  20
4663107.000
  0
VERTEX
  8
Unknown_Area_Type
  10
311983.000
  20
4663286.500
  0
VERTEX
  8
Unknown_Area_Type
  10
312027.000
  20
4665017.000
  0
VERTEX
  8
Unknown_Area_Type
  10
309582.000
  20
4666139.000
  0
SEQEND
  8
Unknown_Area_Type
  0
INSERT
  8
FeatureAttribs
  2
FEATURE
  41
1
  42
1
  43
1
  50
0
  10
307942.427
  20
4664463.656
 66
1
  0
ATTRIB
  8
FeatureAttribs
 70
0
  1
PNOA-H_AMS_1956-57_33k_ES_PAN_2
  2
NAME
  10
307942.427
  20
4664463.656
 40
34.05590
  0
SEQEND
  0
POLYLINE
  8
Unknown_Area_Type
  70
1
  66
1
  0
VERTEX
  8
Unknown_Area_Type
  10
308882.000
  20
4665408.000
  0
VERTEX
  8
Unknown_Area_Type
  10
309386.500
  20
4665281.500
  0
VERTEX
  8
Unknown_Area_Type
  10
309336.000
  20
4663343.000
  0
VERTEX
  8
Unknown_Area_Type
  10
306884.000
  20
4663253.000
  0
VERTEX
  8
Unknown_Area_Type
  10
306624.500
  20
4663428.500
  0
VERTEX
  8
Unknown_Area_Type
  10
306672.000
  20
4665348.000
  0
VERTEX
  8
Unknown_Area_Type
  10
306782.500
  20
4665935.000
  0
VERTEX
  8
Unknown_Area_Type
  10
306785.000
  20
4665935.500
  0
VERTEX
  8
Unknown_Area_Type
  10
306835.000
  20
4665923.000
  0
VERTEX
  8
Unknown_Area_Type
  10
308879.500
  20
4665408.500
  0
VERTEX
  8
Unknown_Area_Type
  10
308882.000
  20
4665408.000
  0
SEQEND
  8
Unknown_Area_Type
  0
INSERT
  8
FeatureAttribs
  2
FEATURE
  41
1
  42
1
  43
1
  50
0
  10
307942.427
  20
4664463.656
 66
1
  0
ATTRIB
  8
FeatureAttribs
 70
0
  1
PNOA-H_AMS_1956-57_33k_ES_PAN_2
  2
NAME
  10
307942.427
  20
4664463.656
 40
34.05590
  0
SEQEND
  0
POLYLINE
  8
Unknown_Area_Type
  70
1
  66
1
  0
VERTEX
  8
Unknown_Area_Type
  10
308882.000
  20
4665408.000
  0
VERTEX
  8
Unknown_Area_Type
  10
308879.500
  20
4665408.500
  0
VERTEX
  8
Unknown_Area_Type
  10
306835.000
  20
4665923.000
  0
VERTEX
  8
Unknown_Area_Type
  10
306785.000
  20
4665935.500
  0
VERTEX
  8
Unknown_Area_Type
  10
306782.500
  20
4665935.000
  0
VERTEX
  8
Unknown_Area_Type
  10
306672.000
  20
4665348.000
  0
VERTEX
  8
Unknown_Area_Type
  10
306624.500
  20
4663428.500
  0
VERTEX
  8
Unknown_Area_Type
  10
306884.000
  20
4663253.000
  0
VERTEX
  8
Unknown_Area_Type
  10
309336.000
  20
4663343.000
  0
VERTEX
  8
Unknown_Area_Type
  10
309386.500
  20
4665281.500
  0
VERTEX
  8
Unknown_Area_Type
  10
308882.000
  20
4665408.000
  0
SEQEND
  8
Unknown_Area_Type
  0
INSERT
  8
FeatureAttribs
  2
FEATURE
  41
1
  42
1
  43
1
  50
0
  10
313188.897
  20
4664406.314
 66
1
  0
ATTRIB
  8
FeatureAttribs
 70
0
  1
PNOA-H_AMS_1956-57_33k_ES_PAN_2
  2
NAME
  10
313188.897
  20
4664406.314
 40
34.05590
  0
SEQEND
  0
POLYLINE
  8
Unknown_Area_Type
  70
1
  66
1
  0
VERTEX
  8
Unknown_Area_Type
  10
312418.000
  20
4666486.500
  0
VERTEX
  8
Unknown_Area_Type
  10
314678.000
  20
4664623.000
  0
VERTEX
  8
Unknown_Area_Type
  10
314623.500
  20
4663261.000
  0
VERTEX
  8
Unknown_Area_Type
  10
312549.500
  20
4662968.500
  0
VERTEX
  8
Unknown_Area_Type
  10
311983.000
  20
4663286.500
  0
VERTEX
  8
Unknown_Area_Type
  10
312027.000
  20
4665016.500
  0
VERTEX
  8
Unknown_Area_Type
  10
312418.000
  20
4666485.500
  0
VERTEX
  8
Unknown_Area_Type
  10
312418.000
  20
4666486.500
  0
SEQEND
  8
Unknown_Area_Type
  0
INSERT
  8
FeatureAttribs
  2
FEATURE
  41
1
  42
1
  43
1
  50
0
  10
313188.897
  20
4664406.314
 66
1
  0
ATTRIB
  8
FeatureAttribs
 70
0
  1
PNOA-H_AMS_1956-57_33k_ES_PAN_2
  2
NAME
  10
313188.897
  20
4664406.314
 40
34.05590
  0
SEQEND
  0
POLYLINE
  8
Unknown_Area_Type
  70
1
  66
1
  0
VERTEX
  8
Unknown_Area_Type
  10
312418.000
  20
4666486.500
  0
VERTEX
  8
Unknown_Area_Type
  10
312418.000
  20
4666485.500
  0
VERTEX
  8
Unknown_Area_Type
  10
312027.000
  20
4665016.500
  0
VERTEX
  8
Unknown_Area_Type
  10
311983.000
  20
4663286.500
  0
VERTEX
  8
Unknown_Area_Type
  10
312549.500
  20
4662968.500
  0
VERTEX
  8
Unknown_Area_Type
  10
314623.500
  20
4663261.000
  0
VERTEX
  8
Unknown_Area_Type
  10
314678.000
  20
4664623.000
  0
VERTEX
  8
Unknown_Area_Type
  10
312418.000
  20
4666486.500
  0
SEQEND
  8
Unknown_Area_Type
  0
INSERT
  8
FeatureAttribs
  2
FEATURE
  41
1
  42
1
  43
1
  50
0
  10
315900.746
  20
4664313.772
 66
1
  0
ATTRIB
  8
FeatureAttribs
 70
0
  1
PNOA-H_AMS_1956-57_33k_ES_PAN_2
  2
NAME
  10
315900.746
  20
4664313.772
 40
34.05590
  0
SEQEND
  0
POLYLINE
  8
Unknown_Area_Type
  70
1
  66
1
  0
VERTEX
  8
Unknown_Area_Type
  10
317074.000
  20
4664807.500
  0
VERTEX
  8
Unknown_Area_Type
  10
317360.000
  20
4664551.500
  0
VERTEX
  8
Unknown_Area_Type
  10
317353.500
  20
4663191.000
  0
VERTEX
  8
Unknown_Area_Type
  10
315420.000
  20
4662845.000
  0
VERTEX
  8
Unknown_Area_Type
  10
314623.500
  20
4663261.000
  0
VERTEX
  8
Unknown_Area_Type
  10
314678.000
  20
4664622.500
  0
VERTEX
  8
Unknown_Area_Type
  10
315267.000
  20
4666427.000
  0
VERTEX
  8
Unknown_Area_Type
  10
317073.500
  20
4664808.500
  0
VERTEX
  8
Unknown_Area_Type
  10
317074.000
  20
4664807.500
  0
SEQEND
  8
Unknown_Area_Type
  0
INSERT
  8
FeatureAttribs
  2
FEATURE
  41
1
  42
1
  43
1
  50
0
  10
315900.746
  20
4664313.772
 66
1
  0
ATTRIB
  8
FeatureAttribs
 70
0
  1
PNOA-H_AMS_1956-57_33k_ES_PAN_2
  2
NAME
  10
315900.746
  20
4664313.772
 40
34.05590
  0
SEQEND
  0
POLYLINE
  8
Unknown_Area_Type
  70
1
  66
1
  0
VERTEX
  8
Unknown_Area_Type
  10
317074.000
  20
4664807.500
  0
VERTEX
  8
Unknown_Area_Type
  10
317073.500
  20
4664808.500
  0
VERTEX
  8
Unknown_Area_Type
  10
315267.000
  20
4666427.000
  0
VERTEX
  8
Unknown_Area_Type
  10
314678.000
  20
4664622.500
  0
VERTEX
  8
Unknown_Area_Type
  10
314623.500
  20
4663261.000
  0
VERTEX
  8
Unknown_Area_Type
  10
315420.000
  20
4662845.000
  0
VERTEX
  8
Unknown_Area_Type
  10
317353.500
  20
4663191.000
  0
VERTEX
  8
Unknown_Area_Type
  10
317360.000
  20
4664551.500
  0
VERTEX
  8
Unknown_Area_Type
  10
317074.000
  20
4664807.500
  0
SEQEND
  8
Unknown_Area_Type
  0
INSERT
  8
FeatureAttribs
  2
FEATURE
  41
1
  42
1
  43
1
  50
0
  10
301136.978
  20
4669897.037
 66
1
  0
ATTRIB
  8
FeatureAttribs
 70
0
  1
PNOA-H_AMS_1956-57_33k_ES_PAN_2
  2
NAME
  10
301136.978
  20
4669897.037
 40
34.05590
  0
SEQEND
  0
POLYLINE
  8
Unknown_Area_Type
  70
1
  66
1
  0
VERTEX
  8
Unknown_Area_Type
  10
302556.834
  20
4671046.914
  0
VERTEX
  8
Unknown_Area_Type
  10
302434.500
  20
4668852.500
  0
VERTEX
  8
Unknown_Area_Type
  10
301108.500
  20
4668539.500
  0
VERTEX
  8
Unknown_Area_Type
  10
299749.000
  20
4668893.000
  0
VERTEX
  8
Unknown_Area_Type
  10
299833.465
  20
4671123.845
  0
VERTEX
  8
Unknown_Area_Type
  10
302095.589
  20
4671059.756
  0
VERTEX
  8
Unknown_Area_Type
  10
302556.834
  20
4671046.914
  0
SEQEND
  8
Unknown_Area_Type
  0
INSERT
  8
FeatureAttribs
  2
FEATURE
  41
1
  42
1
  43
1
  50
0
  10
301136.978
  20
4669897.037
 66
1
  0
ATTRIB
  8
FeatureAttribs
 70
0
  1
PNOA-H_AMS_1956-57_33k_ES_PAN_2
  2
NAME
  10
301136.978
  20
4669897.037
 40
34.05590
  0
SEQEND
  0
POLYLINE
  8
Unknown_Area_Type
  70
1
  66
1
  0
VERTEX
  8
Unknown_Area_Type
  10
302556.834
  20
4671046.914
  0
VERTEX
  8
Unknown_Area_Type
  10
302095.589
  20
4671059.756
  0
VERTEX
  8
Unknown_Area_Type
  10
299833.465
  20
4671123.845
  0
VERTEX
  8
Unknown_Area_Type
  10
299749.000
  20
4668893.000
  0
VERTEX
  8
Unknown_Area_Type
  10
301108.500
  20
4668539.500
  0
VERTEX
  8
Unknown_Area_Type
  10
302434.500
  20
4668852.500
  0
VERTEX
  8
Unknown_Area_Type
  10
302556.834
  20
4671046.914
  0
SEQEND
  8
Unknown_Area_Type
  0
INSERT
  8
FeatureAttribs
  2
FEATURE
  41
1
  42
1
  43
1
  50
0
  10
309480.451
  20
4669676.955
 66
1
  0
ATTRIB
  8
FeatureAttribs
 70
0
  1
PNOA-H_AMS_1956-57_33k_ES_PAN_2
  2
NAME
  10
309480.451
  20
4669676.955
 40
34.05590
  0
SEQEND
  0
POLYLINE
  8
Unknown_Area_Type
  70
1
  66
1
  0
VERTEX
  8
Unknown_Area_Type
  10
310817.189
  20
4670820.409
  0
VERTEX
  8
Unknown_Area_Type
  10
310741.500
  20
4668637.000
  0
VERTEX
  8
Unknown_Area_Type
  10
309595.000
  20
4668332.500
  0
VERTEX
  8
Unknown_Area_Type
  10
308134.500
  20
4668709.500
  0
VERTEX
  8
Unknown_Area_Type
  10
308224.858
  20
4670890.419
  0
VERTEX
  8
Unknown_Area_Type
  10
308979.602
  20
4670869.775
  0
VERTEX
  8
Unknown_Area_Type
  10
310817.189
  20
4670820.409
  0
SEQEND
  8
Unknown_Area_Type
  0
INSERT
  8
FeatureAttribs
  2
FEATURE
  41
1
  42
1
  43
1
  50
0
  10
309480.451
  20
4669676.955
 66
1
  0
ATTRIB
  8
FeatureAttribs
 70
0
  1
PNOA-H_AMS_1956-57_33k_ES_PAN_2
  2
NAME
  10
309480.451
  20
4669676.955
 40
34.05590
  0
SEQEND
  0
POLYLINE
  8
Unknown_Area_Type
  70
1
  66
1
  0
VERTEX
  8
Unknown_Area_Type
  10
310817.189
  20
4670820.409
  0
VERTEX
  8
Unknown_Area_Type
  10
308979.602
  20
4670869.775
  0
VERTEX
  8
Unknown_Area_Type
  10
308224.858
  20
4670890.419
  0
VERTEX
  8
Unknown_Area_Type
  10
308134.500
  20
4668709.500
  0
VERTEX
  8
Unknown_Area_Type
  10
309595.000
  20
4668332.500
  0
VERTEX
  8
Unknown_Area_Type
  10
310741.500
  20
4668637.000
  0
VERTEX
  8
Unknown_Area_Type
  10
310817.189
  20
4670820.409
  0
SEQEND
  8
Unknown_Area_Type
  0
INSERT
  8
FeatureAttribs
  2
FEATURE
  41
1
  42
1
  43
1
  50
0
  10
306778.620
  20
4669749.314
 66
1
  0
ATTRIB
  8
FeatureAttribs
 70
0
  1
PNOA-H_AMS_1956-57_33k_ES_PAN_2
  2
NAME
  10
306778.620
  20
4669749.314
 40
34.05590
  0
SEQEND
  0
POLYLINE
  8
Unknown_Area_Type
  70
1
  66
1
  0
VERTEX
  8
Unknown_Area_Type
  10
308224.858
  20
4670890.419
  0
VERTEX
  8
Unknown_Area_Type
  10
308134.500
  20
4668709.500
  0
VERTEX
  8
Unknown_Area_Type
  10
306775.500
  20
4668395.000
  0
VERTEX
  8
Unknown_Area_Type
  10
305327.500
  20
4668804.000
  0
VERTEX
  8
Unknown_Area_Type
  10
305431.090
  20
4670966.889
  0
VERTEX
  8
Unknown_Area_Type
  10
305537.601
  20
4670963.924
  0
VERTEX
  8
Unknown_Area_Type
  10
308224.858
  20
4670890.419
  0
SEQEND
  8
Unknown_Area_Type
  0
INSERT
  8
FeatureAttribs
  2
FEATURE
  41
1
  42
1
  43
1
  50
0
  10
306778.620
  20
4669749.314
 66
1
  0
ATTRIB
  8
FeatureAttribs
 70
0
  1
PNOA-H_AMS_1956-57_33k_ES_PAN_2
  2
NAME
  10
306778.620
  20
4669749.314
 40
34.05590
  0
SEQEND
  0
POLYLINE
  8
Unknown_Area_Type
  70
1
  66
1
  0
VERTEX
  8
Unknown_Area_Type
  10
308224.858
  20
4670890.419
  0
VERTEX
  8
Unknown_Area_Type
  10
305537.601
  20
4670963.924
  0
VERTEX
  8
Unknown_Area_Type
  10
305431.090
  20
4670966.889
  0
VERTEX
  8
Unknown_Area_Type
  10
305327.500
  20
4668804.000
  0
VERTEX
  8
Unknown_Area_Type
  10
306775.500
  20
4668395.000
  0
VERTEX
  8
Unknown_Area_Type
  10
308134.500
  20
4668709.500
  0
VERTEX
  8
Unknown_Area_Type
  10
308224.858
  20
4670890.419
  0
SEQEND
  8
Unknown_Area_Type
  0
INSERT
  8
FeatureAttribs
  2
FEATURE
  41
1
  42
1
  43
1
  50
0
  10
314958.799
  20
4669561.114
 66
1
  0
ATTRIB
  8
FeatureAttribs
 70
0
  1
PNOA-H_AMS_1956-57_33k_ES_PAN_2
  2
NAME
  10
314958.799
  20
4669561.114
 40
34.05590
  0
SEQEND
  0
POLYLINE
  8
Unknown_Area_Type
  70
1
  66
1
  0
VERTEX
  8
Unknown_Area_Type
  10
316399.448
  20
4670672.654
  0
VERTEX
  8
Unknown_Area_Type
  10
316338.000
  20
4668556.000
  0
VERTEX
  8
Unknown_Area_Type
  10
315286.500
  20
4668227.500
  0
VERTEX
  8
Unknown_Area_Type
  10
313506.500
  20
4668634.500
  0
VERTEX
  8
Unknown_Area_Type
  10
313560.791
  20
4670747.262
  0
VERTEX
  8
Unknown_Area_Type
  10
315863.575
  20
4670686.526
  0
VERTEX
  8
Unknown_Area_Type
  10
316399.448
  20
4670672.654
  0
SEQEND
  8
Unknown_Area_Type
  0
INSERT
  8
FeatureAttribs
  2
FEATURE
  41
1
  42
1
  43
1
  50
0
  10
314958.799
  20
4669561.114
 66
1
  0
ATTRIB
  8
FeatureAttribs
 70
0
  1
PNOA-H_AMS_1956-57_33k_ES_PAN_2
  2
NAME
  10
314958.799
  20
4669561.114
 40
34.05590
  0
SEQEND
  0
POLYLINE
  8
Unknown_Area_Type
  70
1
  66
1
  0
VERTEX
  8
Unknown_Area_Type
  10
316399.448
  20
4670672.654
  0
VERTEX
  8
Unknown_Area_Type
  10
315863.575
  20
4670686.526
  0
VERTEX
  8
Unknown_Area_Type
  10
313560.791
  20
4670747.262
  0
VERTEX
  8
Unknown_Area_Type
  10
313506.500
  20
4668634.500
  0
VERTEX
  8
Unknown_Area_Type
  10
315286.500
  20
4668227.500
  0
VERTEX
  8
Unknown_Area_Type
  10
316338.000
  20
4668556.000
  0
VERTEX
  8
Unknown_Area_Type
  10
316399.448
  20
4670672.654
  0
SEQEND
  8
Unknown_Area_Type
  0
INSERT
  8
FeatureAttribs
  2
FEATURE
  41
1
  42
1
  43
1
  50
0
  10
319291.713
  20
4669517.126
 66
1
  0
ATTRIB
  8
FeatureAttribs
 70
0
  1
PNOA-H_AMS_1956-57_33k_ES_PAN_2
  2
NAME
  10
319291.713
  20
4669517.126
 40
34.05590
  0
SEQEND
  0
POLYLINE
  8
Unknown_Area_Type
  70
1
  66
1
  0
VERTEX
  8
Unknown_Area_Type
  10
319305.575
  20
4668436.826
  0
VERTEX
  8
Unknown_Area_Type
  10
319250.441
  20
4668447.906
  0
VERTEX
  8
Unknown_Area_Type
  10
319305.547
  20
4670597.426
  0
VERTEX
  8
Unknown_Area_Type
  10
319305.575
  20
4670597.426
  0
VERTEX
  8
Unknown_Area_Type
  10
319305.575
  20
4668436.826
  0
SEQEND
  8
Unknown_Area_Type
  0
INSERT
  8
FeatureAttribs
  2
FEATURE
  41
1
  42
1
  43
1
  50
0
  10
319218.848
  20
4669557.413
 66
1
  0
ATTRIB
  8
FeatureAttribs
 70
0
  1
PNOA-H_AMS_1956-57_33k_ES_PAN_2
  2
NAME
  10
319218.848
  20
4669557.413
 40
34.05590
  0
SEQEND
  0
POLYLINE
  8
Unknown_Area_Type
  70
1
  66
1
  0
VERTEX
  8
Unknown_Area_Type
  10
319250.441
  20
4668447.906
  0
VERTEX
  8
Unknown_Area_Type
  10
319140.500
  20
4668470.000
  0
VERTEX
  8
Unknown_Area_Type
  10
319176.110
  20
4670600.777
  0
VERTEX
  8
Unknown_Area_Type
  10
319305.547
  20
4670597.426
  0
VERTEX
  8
Unknown_Area_Type
  10
319250.441
  20
4668447.906
  0
SEQEND
  8
Unknown_Area_Type
  0
INSERT
  8
FeatureAttribs
  2
FEATURE
  41
1
  42
1
  43
1
  50
0
  10
319218.848
  20
4669557.413
 66
1
  0
ATTRIB
  8
FeatureAttribs
 70
0
  1
PNOA-H_AMS_1956-57_33k_ES_PAN_2
  2
NAME
  10
319218.848
  20
4669557.413
 40
34.05590
  0
SEQEND
  0
POLYLINE
  8
Unknown_Area_Type
  70
1
  66
1
  0
VERTEX
  8
Unknown_Area_Type
  10
319250.441
  20
4668447.906
  0
VERTEX
  8
Unknown_Area_Type
  10
319305.547
  20
4670597.426
  0
VERTEX
  8
Unknown_Area_Type
  10
319176.110
  20
4670600.777
  0
VERTEX
  8
Unknown_Area_Type
  10
319140.500
  20
4668470.000
  0
VERTEX
  8
Unknown_Area_Type
  10
319250.441
  20
4668447.906
  0
SEQEND
  8
Unknown_Area_Type
  0
INSERT
  8
FeatureAttribs
  2
FEATURE
  41
1
  42
1
  43
1
  50
0
  10
317774.545
  20
4669484.711
 66
1
  0
ATTRIB
  8
FeatureAttribs
 70
0
  1
PNOA-H_AMS_1956-57_33k_ES_PAN_2
  2
NAME
  10
317774.545
  20
4669484.711
 40
34.05590
  0
SEQEND
  0
POLYLINE
  8
Unknown_Area_Type
  70
1
  66
1
  0
VERTEX
  8
Unknown_Area_Type
  10
319176.114
  20
4670600.777
  0
VERTEX
  8
Unknown_Area_Type
  10
319140.500
  20
4668469.500
  0
VERTEX
  8
Unknown_Area_Type
  10
318199.000
  20
4668156.000
  0
VERTEX
  8
Unknown_Area_Type
  10
316338.000
  20
4668556.000
  0
VERTEX
  8
Unknown_Area_Type
  10
316399.440
  20
4670672.654
  0
VERTEX
  8
Unknown_Area_Type
  10
319176.114
  20
4670600.777
  0
SEQEND
  8
Unknown_Area_Type
  0
INSERT
  8
FeatureAttribs
  2
FEATURE
  41
1
  42
1
  43
1
  50
0
  10
317774.545
  20
4669484.711
 66
1
  0
ATTRIB
  8
FeatureAttribs
 70
0
  1
PNOA-H_AMS_1956-57_33k_ES_PAN_2
  2
NAME
  10
317774.545
  20
4669484.711
 40
34.05590
  0
SEQEND
  0
POLYLINE
  8
Unknown_Area_Type
  70
1
  66
1
  0
VERTEX
  8
Unknown_Area_Type
  10
319176.114
  20
4670600.777
  0
VERTEX
  8
Unknown_Area_Type
  10
316399.440
  20
4670672.654
  0
VERTEX
  8
Unknown_Area_Type
  10
316338.000
  20
4668556.000
  0
VERTEX
  8
Unknown_Area_Type
  10
318199.000
  20
4668156.000
  0
VERTEX
  8
Unknown_Area_Type
  10
319140.500
  20
4668469.500
  0
VERTEX
  8
Unknown_Area_Type
  10
319176.114
  20
4670600.777
  0
SEQEND
  8
Unknown_Area_Type
  0
INSERT
  8
FeatureAttribs
  2
FEATURE
  41
1
  42
1
  43
1
  50
0
  10
303931.893
  20
4669822.365
 66
1
  0
ATTRIB
  8
FeatureAttribs
 70
0
  1
PNOA-H_AMS_1956-57_33k_ES_PAN_2
  2
NAME
  10
303931.893
  20
4669822.365
 40
34.05590
  0
SEQEND
  0
POLYLINE
  8
Unknown_Area_Type
  70
1
  66
1
  0
VERTEX
  8
Unknown_Area_Type
  10
305431.090
  20
4670966.889
  0
VERTEX
  8
Unknown_Area_Type
  10
305327.500
  20
4668804.000
  0
VERTEX
  8
Unknown_Area_Type
  10
304836.000
  20
4668680.000
  0
VERTEX
  8
Unknown_Area_Type
  10
304834.000
  20
4668680.000
  0
VERTEX
  8
Unknown_Area_Type
  10
304018.000
  20
4668474.000
  0
VERTEX
  8
Unknown_Area_Type
  10
303964.000
  20
4668460.500
  0
VERTEX
  8
Unknown_Area_Type
  10
303960.500
  20
4668460.500
  0
VERTEX
  8
Unknown_Area_Type
  10
302434.500
  20
4668852.500
  0
VERTEX
  8
Unknown_Area_Type
  10
302556.834
  20
4671046.914
  0
VERTEX
  8
Unknown_Area_Type
  10
305431.090
  20
4670966.889
  0
SEQEND
  8
Unknown_Area_Type
  0
INSERT
  8
FeatureAttribs
  2
FEATURE
  41
1
  42
1
  43
1
  50
0
  10
303931.893
  20
4669822.365
 66
1
  0
ATTRIB
  8
FeatureAttribs
 70
0
  1
PNOA-H_AMS_1956-57_33k_ES_PAN_2
  2
NAME
  10
303931.893
  20
4669822.365
 40
34.05590
  0
SEQEND
  0
POLYLINE
  8
Unknown_Area_Type
  70
1
  66
1
  0
VERTEX
  8
Unknown_Area_Type
  10
305431.090
  20
4670966.889
  0
VERTEX
  8
Unknown_Area_Type
  10
302556.834
  20
4671046.914
  0
VERTEX
  8
Unknown_Area_Type
  10
302434.500
  20
4668852.500
  0
VERTEX
  8
Unknown_Area_Type
  10
303960.500
  20
4668460.500
  0
VERTEX
  8
Unknown_Area_Type
  10
303964.000
  20
4668460.500
  0
VERTEX
  8
Unknown_Area_Type
  10
304018.000
  20
4668474.000
  0
VERTEX
  8
Unknown_Area_Type
  10
304834.000
  20
4668680.000
  0
VERTEX
  8
Unknown_Area_Type
  10
304836.000
  20
4668680.000
  0
VERTEX
  8
Unknown_Area_Type
  10
305327.500
  20
4668804.000
  0
VERTEX
  8
Unknown_Area_Type
  10
305431.090
  20
4670966.889
  0
SEQEND
  8
Unknown_Area_Type
  0
INSERT
  8
FeatureAttribs
  2
FEATURE
  41
1
  42
1
  43
1
  50
0
  10
312155.044
  20
4669616.655
 66
1
  0
ATTRIB
  8
FeatureAttribs
 70
0
  1
PNOA-H_AMS_1956-57_33k_ES_PAN_2
  2
NAME
  10
312155.044
  20
4669616.655
 40
34.05590
  0
SEQEND
  0
POLYLINE
  8
Unknown_Area_Type
  70
1
  66
1
  0
VERTEX
  8
Unknown_Area_Type
  10
313560.791
  20
4670747.262
  0
VERTEX
  8
Unknown_Area_Type
  10
313506.500
  20
4668634.500
  0
VERTEX
  8
Unknown_Area_Type
  10
312429.500
  20
4668277.500
  0
VERTEX
  8
Unknown_Area_Type
  10
310742.000
  20
4668637.500
  0
VERTEX
  8
Unknown_Area_Type
  10
310817.412
  20
4670820.404
  0
VERTEX
  8
Unknown_Area_Type
  10
312421.594
  20
4670777.309
  0
VERTEX
  8
Unknown_Area_Type
  10
313560.791
  20
4670747.262
  0
SEQEND
  8
Unknown_Area_Type
  0
INSERT
  8
FeatureAttribs
  2
FEATURE
  41
1
  42
1
  43
1
  50
0
  10
312155.044
  20
4669616.655
 66
1
  0
ATTRIB
  8
FeatureAttribs
 70
0
  1
PNOA-H_AMS_1956-57_33k_ES_PAN_2
  2
NAME
  10
312155.044
  20
4669616.655
 40
34.05590
  0
SEQEND
  0
POLYLINE
  8
Unknown_Area_Type
  70
1
  66
1
  0
VERTEX
  8
Unknown_Area_Type
  10
313560.791
  20
4670747.262
  0
VERTEX
  8
Unknown_Area_Type
  10
312421.594
  20
4670777.309
  0
VERTEX
  8
Unknown_Area_Type
  10
310817.412
  20
4670820.404
  0
VERTEX
  8
Unknown_Area_Type
  10
310742.000
  20
4668637.500
  0
VERTEX
  8
Unknown_Area_Type
  10
312429.500
  20
4668277.500
  0
VERTEX
  8
Unknown_Area_Type
  10
313506.500
  20
4668634.500
  0
VERTEX
  8
Unknown_Area_Type
  10
313560.791
  20
4670747.262
  0
SEQEND
  8
Unknown_Area_Type
  0
INSERT
  8
FeatureAttribs
  2
FEATURE
  41
1
  42
1
  43
1
  50
0
  10
293999.474
  20
4661441.259
 66
1
  0
ATTRIB
  8
FeatureAttribs
 70
0
  1
PNOA-H_AMS_1956-57_33k_ES_PAN_2
  2
NAME
  10
293999.474
  20
4661441.259
 40
34.05590
  0
SEQEND
  0
POLYLINE
  8
Unknown_Area_Type
  70
1
  66
1
  0
VERTEX
  8
Unknown_Area_Type
  10
292656.000
  20
4663732.000
  0
VERTEX
  8
Unknown_Area_Type
  10
292733.500
  20
4663786.500
  0
VERTEX
  8
Unknown_Area_Type
  10
294535.500
  20
4663749.000
  0
VERTEX
  8
Unknown_Area_Type
  10
294546.000
  20
4663749.000
  0
VERTEX
  8
Unknown_Area_Type
  10
295521.000
  20
4663729.000
  0
VERTEX
  8
Unknown_Area_Type
  10
295548.000
  20
4663707.500
  0
VERTEX
  8
Unknown_Area_Type
  10
295296.500
  20
4659139.000
  0
VERTEX
  8
Unknown_Area_Type
  10
293063.000
  20
4659028.500
  0
VERTEX
  8
Unknown_Area_Type
  10
293051.000
  20
4659029.000
  0
VERTEX
  8
Unknown_Area_Type
  10
292510.500
  20
4659278.000
  0
VERTEX
  8
Unknown_Area_Type
  10
292656.000
  20
4663732.000
  0
SEQEND
  8
Unknown_Area_Type
  0
INSERT
  8
FeatureAttribs
  2
FEATURE
  41
1
  42
1
  43
1
  50
0
  10
293999.474
  20
4661441.259
 66
1
  0
ATTRIB
  8
FeatureAttribs
 70
0
  1
PNOA-H_AMS_1956-57_33k_ES_PAN_2
  2
NAME
  10
293999.474
  20
4661441.259
 40
34.05590
  0
SEQEND
  0
POLYLINE
  8
Unknown_Area_Type
  70
1
  66
1
  0
VERTEX
  8
Unknown_Area_Type
  10
292656.000
  20
4663732.000
  0
VERTEX
  8
Unknown_Area_Type
  10
292510.500
  20
4659278.000
  0
VERTEX
  8
Unknown_Area_Type
  10
293051.000
  20
4659029.000
  0
VERTEX
  8
Unknown_Area_Type
  10
293063.000
  20
4659028.500
  0
VERTEX
  8
Unknown_Area_Type
  10
295296.500
  20
4659139.000
  0
VERTEX
  8
Unknown_Area_Type
  10
295548.000
  20
4663707.500
  0
VERTEX
  8
Unknown_Area_Type
  10
295521.000
  20
4663729.000
  0
VERTEX
  8
Unknown_Area_Type
  10
294546.000
  20
4663749.000
  0
VERTEX
  8
Unknown_Area_Type
  10
294535.500
  20
4663749.000
  0
VERTEX
  8
Unknown_Area_Type
  10
292733.500
  20
4663786.500
  0
VERTEX
  8
Unknown_Area_Type
  10
292656.000
  20
4663732.000
  0
SEQEND
  8
Unknown_Area_Type
  0
INSERT
  8
FeatureAttribs
  2
FEATURE
  41
1
  42
1
  43
1
  50
0
  10
296822.471
  20
4661292.390
 66
1
  0
ATTRIB
  8
FeatureAttribs
 70
0
  1
PNOA-H_AMS_1956-57_33k_ES_PAN_2
  2
NAME
  10
296822.471
  20
4661292.390
 40
34.05590
  0
SEQEND
  0
POLYLINE
  8
Unknown_Area_Type
  70
1
  66
1
  0
VERTEX
  8
Unknown_Area_Type
  10
296594.000
  20
4663674.000
  0
VERTEX
  8
Unknown_Area_Type
  10
298266.500
  20
4663620.500
  0
VERTEX
  8
Unknown_Area_Type
  10
298331.000
  20
4663572.000
  0
VERTEX
  8
Unknown_Area_Type
  10
298136.000
  20
4658961.000
  0
VERTEX
  8
Unknown_Area_Type
  10
295853.500
  20
4658883.000
  0
VERTEX
  8
Unknown_Area_Type
  10
295845.500
  20
4658883.500
  0
VERTEX
  8
Unknown_Area_Type
  10
295296.500
  20
4659139.000
  0
VERTEX
  8
Unknown_Area_Type
  10
295547.500
  20
4663707.000
  0
VERTEX
  8
Unknown_Area_Type
  10
295556.000
  20
4663707.500
  0
VERTEX
  8
Unknown_Area_Type
  10
296585.000
  20
4663674.000
  0
VERTEX
  8
Unknown_Area_Type
  10
296594.000
  20
4663674.000
  0
SEQEND
  8
Unknown_Area_Type
  0
INSERT
  8
FeatureAttribs
  2
FEATURE
  41
1
  42
1
  43
1
  50
0
  10
296822.471
  20
4661292.390
 66
1
  0
ATTRIB
  8
FeatureAttribs
 70
0
  1
PNOA-H_AMS_1956-57_33k_ES_PAN_2
  2
NAME
  10
296822.471
  20
4661292.390
 40
34.05590
  0
SEQEND
  0
POLYLINE
  8
Unknown_Area_Type
  70
1
  66
1
  0
VERTEX
  8
Unknown_Area_Type
  10
296594.000
  20
4663674.000
  0
VERTEX
  8
Unknown_Area_Type
  10
296585.000
  20
4663674.000
  0
VERTEX
  8
Unknown_Area_Type
  10
295556.000
  20
4663707.500
  0
VERTEX
  8
Unknown_Area_Type
  10
295547.500
  20
4663707.000
  0
VERTEX
  8
Unknown_Area_Type
  10
295296.500
  20
4659139.000
  0
VERTEX
  8
Unknown_Area_Type
  10
295845.500
  20
4658883.500
  0
VERTEX
  8
Unknown_Area_Type
  10
295853.500
  20
4658883.000
  0
VERTEX
  8
Unknown_Area_Type
  10
298136.000
  20
4658961.000
  0
VERTEX
  8
Unknown_Area_Type
  10
298331.000
  20
4663572.000
  0
VERTEX
  8
Unknown_Area_Type
  10
298266.500
  20
4663620.500
  0
VERTEX
  8
Unknown_Area_Type
  10
296594.000
  20
4663674.000
  0
SEQEND
  8
Unknown_Area_Type
  0
INSERT
  8
FeatureAttribs
  2
FEATURE
  41
1
  42
1
  43
1
  50
0
  10
302498.786
  20
4661088.757
 66
1
  0
ATTRIB
  8
FeatureAttribs
 70
0
  1
PNOA-H_AMS_1956-57_33k_ES_PAN_2
  2
NAME
  10
302498.786
  20
4661088.757
 40
34.05590
  0
SEQEND
  0
POLYLINE
  8
Unknown_Area_Type
  70
1
  66
1
  0
VERTEX
  8
Unknown_Area_Type
  10
302738.000
  20
4663475.500
  0
VERTEX
  8
Unknown_Area_Type
  10
303870.500
  20
4663466.500
  0
VERTEX
  8
Unknown_Area_Type
  10
304005.500
  20
4663371.000
  0
VERTEX
  8
Unknown_Area_Type
  10
303859.000
  20
4658720.500
  0
VERTEX
  8
Unknown_Area_Type
  10
303794.500
  20
4658691.000
  0
VERTEX
  8
Unknown_Area_Type
  10
301173.500
  20
4658743.500
  0
VERTEX
  8
Unknown_Area_Type
  10
301166.000
  20
4658744.000
  0
VERTEX
  8
Unknown_Area_Type
  10
300955.000
  20
4658849.500
  0
VERTEX
  8
Unknown_Area_Type
  10
301171.500
  20
4663488.500
  0
VERTEX
  8
Unknown_Area_Type
  10
302727.500
  20
4663475.500
  0
VERTEX
  8
Unknown_Area_Type
  10
302738.000
  20
4663475.500
  0
SEQEND
  8
Unknown_Area_Type
  0
INSERT
  8
FeatureAttribs
  2
FEATURE
  41
1
  42
1
  43
1
  50
0
  10
302498.786
  20
4661088.757
 66
1
  0
ATTRIB
  8
FeatureAttribs
 70
0
  1
PNOA-H_AMS_1956-57_33k_ES_PAN_2
  2
NAME
  10
302498.786
  20
4661088.757
 40
34.05590
  0
SEQEND
  0
POLYLINE
  8
Unknown_Area_Type
  70
1
  66
1
  0
VERTEX
  8
Unknown_Area_Type
  10
302738.000
  20
4663475.500
  0
VERTEX
  8
Unknown_Area_Type
  10
302727.500
  20
4663475.500
  0
VERTEX
  8
Unknown_Area_Type
  10
301171.500
  20
4663488.500
  0
VERTEX
  8
Unknown_Area_Type
  10
300955.000
  20
4658849.500
  0
VERTEX
  8
Unknown_Area_Type
  10
301166.000
  20
4658744.000
  0
VERTEX
  8
Unknown_Area_Type
  10
301173.500
  20
4658743.500
  0
VERTEX
  8
Unknown_Area_Type
  10
303794.500
  20
4658691.000
  0
VERTEX
  8
Unknown_Area_Type
  10
303859.000
  20
4658720.500
  0
VERTEX
  8
Unknown_Area_Type
  10
304005.500
  20
4663371.000
  0
VERTEX
  8
Unknown_Area_Type
  10
303870.500
  20
4663466.500
  0
VERTEX
  8
Unknown_Area_Type
  10
302738.000
  20
4663475.500
  0
SEQEND
  8
Unknown_Area_Type
  0
INSERT
  8
FeatureAttribs
  2
FEATURE
  41
1
  42
1
  43
1
  50
0
  10
292028.083
  20
4661509.841
 66
1
  0
ATTRIB
  8
FeatureAttribs
 70
0
  1
PNOA-H_AMS_1956-57_33k_ES_PAN_2
  2
NAME
  10
292028.083
  20
4661509.841
 40
34.05590
  0
SEQEND
  0
POLYLINE
  8
Unknown_Area_Type
  70
1
  66
1
  0
VERTEX
  8
Unknown_Area_Type
  10
291546.442
  20
4663805.121
  0
VERTEX
  8
Unknown_Area_Type
  10
292656.000
  20
4663732.000
  0
VERTEX
  8
Unknown_Area_Type
  10
292510.500
  20
4659278.000
  0
VERTEX
  8
Unknown_Area_Type
  10
291410.714
  20
4659204.681
  0
VERTEX
  8
Unknown_Area_Type
  10
291427.988
  20
4659790.476
  0
VERTEX
  8
Unknown_Area_Type
  10
291496.233
  20
4662103.838
  0
VERTEX
  8
Unknown_Area_Type
  10
291546.442
  20
4663805.121
  0
SEQEND
  8
Unknown_Area_Type
  0
INSERT
  8
FeatureAttribs
  2
FEATURE
  41
1
  42
1
  43
1
  50
0
  10
292028.083
  20
4661509.841
 66
1
  0
ATTRIB
  8
FeatureAttribs
 70
0
  1
PNOA-H_AMS_1956-57_33k_ES_PAN_2
  2
NAME
  10
292028.083
  20
4661509.841
 40
34.05590
  0
SEQEND
  0
POLYLINE
  8
Unknown_Area_Type
  70
1
  66
1
  0
VERTEX
  8
Unknown_Area_Type
  10
291546.442
  20
4663805.121
  0
VERTEX
  8
Unknown_Area_Type
  10
291496.233
  20
4662103.838
  0
VERTEX
  8
Unknown_Area_Type
  10
291427.988
  20
4659790.476
  0
VERTEX
  8
Unknown_Area_Type
  10
291410.714
  20
4659204.681
  0
VERTEX
  8
Unknown_Area_Type
  10
292510.500
  20
4659278.000
  0
VERTEX
  8
Unknown_Area_Type
  10
292656.000
  20
4663732.000
  0
VERTEX
  8
Unknown_Area_Type
  10
291546.442
  20
4663805.121
  0
SEQEND
  8
Unknown_Area_Type
  0
INSERT
  8
FeatureAttribs
  2
FEATURE
  41
1
  42
1
  43
1
  50
0
  10
319166.341
  20
4659728.251
 66
1
  0
ATTRIB
  8
FeatureAttribs
 70
0
  1
PNOA-H_AMS_1956-57_33k_ES_PAN_2
  2
NAME
  10
319166.341
  20
4659728.251
 40
34.05590
  0
SEQEND
  0
POLYLINE
  8
Unknown_Area_Type
  70
1
  66
1
  0
VERTEX
  8
Unknown_Area_Type
  10
319305.575
  20
4661168.710
  0
VERTEX
  8
Unknown_Area_Type
  10
319305.575
  20
4658273.307
  0
VERTEX
  8
Unknown_Area_Type
  10
318991.788
  20
4658348.039
  0
VERTEX
  8
Unknown_Area_Type
  10
319009.257
  20
4659030.827
  0
VERTEX
  8
Unknown_Area_Type
  10
319064.348
  20
4661183.195
  0
VERTEX
  8
Unknown_Area_Type
  10
319116.000
  20
4661180.000
  0
VERTEX
  8
Unknown_Area_Type
  10
319122.000
  20
4661180.000
  0
VERTEX
  8
Unknown_Area_Type
  10
319305.575
  20
4661168.710
  0
SEQEND
  8
Unknown_Area_Type
  0
INSERT
  8
FeatureAttribs
  2
FEATURE
  41
1
  42
1
  43
1
  50
0
  10
318607.976
  20
4659818.423
 66
1
  0
ATTRIB
  8
FeatureAttribs
 70
0
  1
PNOA-H_AMS_1956-57_33k_ES_PAN_2
  2
NAME
  10
318607.976
  20
4659818.423
 40
34.05590
  0
SEQEND
  0
POLYLINE
  8
Unknown_Area_Type
  70
1
  66
1
  0
VERTEX
  8
Unknown_Area_Type
  10
318991.788
  20
4658348.039
  0
VERTEX
  8
Unknown_Area_Type
  10
318127.000
  20
4658554.000
  0
VERTEX
  8
Unknown_Area_Type
  10
318235.000
  20
4661234.500
  0
VERTEX
  8
Unknown_Area_Type
  10
319064.348
  20
4661183.195
  0
VERTEX
  8
Unknown_Area_Type
  10
319009.257
  20
4659030.827
  0
VERTEX
  8
Unknown_Area_Type
  10
318991.788
  20
4658348.039
  0
SEQEND
  8
Unknown_Area_Type
  0
INSERT
  8
FeatureAttribs
  2
FEATURE
  41
1
  42
1
  43
1
  50
0
  10
318607.976
  20
4659818.423
 66
1
  0
ATTRIB
  8
FeatureAttribs
 70
0
  1
PNOA-H_AMS_1956-57_33k_ES_PAN_2
  2
NAME
  10
318607.976
  20
4659818.423
 40
34.05590
  0
SEQEND
  0
POLYLINE
  8
Unknown_Area_Type
  70
1
  66
1
  0
VERTEX
  8
Unknown_Area_Type
  10
318991.788
  20
4658348.039
  0
VERTEX
  8
Unknown_Area_Type
  10
319009.257
  20
4659030.827
  0
VERTEX
  8
Unknown_Area_Type
  10
319064.348
  20
4661183.195
  0
VERTEX
  8
Unknown_Area_Type
  10
318235.000
  20
4661234.500
  0
VERTEX
  8
Unknown_Area_Type
  10
318127.000
  20
4658554.000
  0
VERTEX
  8
Unknown_Area_Type
  10
318991.788
  20
4658348.039
  0
SEQEND
  8
Unknown_Area_Type
  0
INSERT
  8
FeatureAttribs
  2
FEATURE
  41
1
  42
1
  43
1
  50
0
  10
311054.512
  20
4660794.458
 66
1
  0
ATTRIB
  8
FeatureAttribs
 70
0
  1
PNOA-H_AMS_1956-57_33k_ES_PAN_2
  2
NAME
  10
311054.512
  20
4660794.458
 40
34.05590
  0
SEQEND
  0
POLYLINE
  8
Unknown_Area_Type
  70
1
  66
1
  0
VERTEX
  8
Unknown_Area_Type
  10
310924.500
  20
4663203.000
  0
VERTEX
  8
Unknown_Area_Type
  10
311984.000
  20
4663286.500
  0
VERTEX
  8
Unknown_Area_Type
  10
312549.500
  20
4662969.000
  0
VERTEX
  8
Unknown_Area_Type
  10
312415.500
  20
4658570.500
  0
VERTEX
  8
Unknown_Area_Type
  10
311627.500
  20
4658283.500
  0
VERTEX
  8
Unknown_Area_Type
  10
309508.500
  20
4658567.000
  0
VERTEX
  8
Unknown_Area_Type
  10
309713.500
  20
4663107.000
  0
VERTEX
  8
Unknown_Area_Type
  10
310918.000
  20
4663202.500
  0
VERTEX
  8
Unknown_Area_Type
  10
310924.500
  20
4663203.000
  0
SEQEND
  8
Unknown_Area_Type
  0
INSERT
  8
FeatureAttribs
  2
FEATURE
  41
1
  42
1
  43
1
  50
0
  10
311054.512
  20
4660794.458
 66
1
  0
ATTRIB
  8
FeatureAttribs
 70
0
  1
PNOA-H_AMS_1956-57_33k_ES_PAN_2
  2
NAME
  10
311054.512
  20
4660794.458
 40
34.05590
  0
SEQEND
  0
POLYLINE
  8
Unknown_Area_Type
  70
1
  66
1
  0
VERTEX
  8
Unknown_Area_Type
  10
310924.500
  20
4663203.000
  0
VERTEX
  8
Unknown_Area_Type
  10
310918.000
  20
4663202.500
  0
VERTEX
  8
Unknown_Area_Type
  10
309713.500
  20
4663107.000
  0
VERTEX
  8
Unknown_Area_Type
  10
309508.500
  20
4658567.000
  0
VERTEX
  8
Unknown_Area_Type
  10
311627.500
  20
4658283.500
  0
VERTEX
  8
Unknown_Area_Type
  10
312415.500
  20
4658570.500
  0
VERTEX
  8
Unknown_Area_Type
  10
312549.500
  20
4662969.000
  0
VERTEX
  8
Unknown_Area_Type
  10
311984.000
  20
4663286.500
  0
VERTEX
  8
Unknown_Area_Type
  10
310924.500
  20
4663203.000
  0
SEQEND
  8
Unknown_Area_Type
  0
INSERT
  8
FeatureAttribs
  2
FEATURE
  41
1
  42
1
  43
1
  50
0
  10
305363.300
  20
4661025.315
 66
1
  0
ATTRIB
  8
FeatureAttribs
 70
0
  1
PNOA-H_AMS_1956-57_33k_ES_PAN_2
  2
NAME
  10
305363.300
  20
4661025.315
 40
34.05590
  0
SEQEND
  0
POLYLINE
  8
Unknown_Area_Type
  70
1
  66
1
  0
VERTEX
  8
Unknown_Area_Type
  10
304775.500
  20
4663388.000
  0
VERTEX
  8
Unknown_Area_Type
  10
306625.000
  20
4663428.500
  0
VERTEX
  8
Unknown_Area_Type
  10
306884.500
  20
4663253.000
  0
VERTEX
  8
Unknown_Area_Type
  10
306665.500
  20
4658651.000
  0
VERTEX
  8
Unknown_Area_Type
  10
306422.500
  20
4658556.000
  0
VERTEX
  8
Unknown_Area_Type
  10
303859.000
  20
4658720.500
  0
VERTEX
  8
Unknown_Area_Type
  10
304005.500
  20
4663371.000
  0
VERTEX
  8
Unknown_Area_Type
  10
304753.000
  20
4663387.500
  0
VERTEX
  8
Unknown_Area_Type
  10
304775.500
  20
4663388.000
  0
SEQEND
  8
Unknown_Area_Type
  0
INSERT
  8
FeatureAttribs
  2
FEATURE
  41
1
  42
1
  43
1
  50
0
  10
305363.300
  20
4661025.315
 66
1
  0
ATTRIB
  8
FeatureAttribs
 70
0
  1
PNOA-H_AMS_1956-57_33k_ES_PAN_2
  2
NAME
  10
305363.300
  20
4661025.315
 40
34.05590
  0
SEQEND
  0
POLYLINE
  8
Unknown_Area_Type
  70
1
  66
1
  0
VERTEX
  8
Unknown_Area_Type
  10
304775.500
  20
4663388.000
  0
VERTEX
  8
Unknown_Area_Type
  10
304753.000
  20
4663387.500
  0
VERTEX
  8
Unknown_Area_Type
  10
304005.500
  20
4663371.000
  0
VERTEX
  8
Unknown_Area_Type
  10
303859.000
  20
4658720.500
  0
VERTEX
  8
Unknown_Area_Type
  10
306422.500
  20
4658556.000
  0
VERTEX
  8
Unknown_Area_Type
  10
306665.500
  20
4658651.000
  0
VERTEX
  8
Unknown_Area_Type
  10
306884.500
  20
4663253.000
  0
VERTEX
  8
Unknown_Area_Type
  10
306625.000
  20
4663428.500
  0
VERTEX
  8
Unknown_Area_Type
  10
304775.500
  20
4663388.000
  0
SEQEND
  8
Unknown_Area_Type
  0
INSERT
  8
FeatureAttribs
  2
FEATURE
  41
1
  42
1
  43
1
  50
0
  10
299646.260
  20
4661197.690
 66
1
  0
ATTRIB
  8
FeatureAttribs
 70
0
  1
PNOA-H_AMS_1956-57_33k_ES_PAN_2
  2
NAME
  10
299646.260
  20
4661197.690
 40
34.05590
  0
SEQEND
  0
POLYLINE
  8
Unknown_Area_Type
  70
1
  66
1
  0
VERTEX
  8
Unknown_Area_Type
  10
298331.000
  20
4663572.000
  0
VERTEX
  8
Unknown_Area_Type
  10
301082.000
  20
4663555.500
  0
VERTEX
  8
Unknown_Area_Type
  10
301171.500
  20
4663489.000
  0
VERTEX
  8
Unknown_Area_Type
  10
300955.000
  20
4658849.500
  0
VERTEX
  8
Unknown_Area_Type
  10
298493.000
  20
4658791.000
  0
VERTEX
  8
Unknown_Area_Type
  10
298136.000
  20
4658961.000
  0
VERTEX
  8
Unknown_Area_Type
  10
298331.000
  20
4663567.500
  0
VERTEX
  8
Unknown_Area_Type
  10
298331.000
  20
4663572.000
  0
SEQEND
  8
Unknown_Area_Type
  0
INSERT
  8
FeatureAttribs
  2
FEATURE
  41
1
  42
1
  43
1
  50
0
  10
299646.260
  20
4661197.690
 66
1
  0
ATTRIB
  8
FeatureAttribs
 70
0
  1
PNOA-H_AMS_1956-57_33k_ES_PAN_2
  2
NAME
  10
299646.260
  20
4661197.690
 40
34.05590
  0
SEQEND
  0
POLYLINE
  8
Unknown_Area_Type
  70
1
  66
1
  0
VERTEX
  8
Unknown_Area_Type
  10
298331.000
  20
4663572.000
  0
VERTEX
  8
Unknown_Area_Type
  10
298331.000
  20
4663567.500
  0
VERTEX
  8
Unknown_Area_Type
  10
298136.000
  20
4658961.000
  0
VERTEX
  8
Unknown_Area_Type
  10
298493.000
  20
4658791.000
  0
VERTEX
  8
Unknown_Area_Type
  10
300955.000
  20
4658849.500
  0
VERTEX
  8
Unknown_Area_Type
  10
301171.500
  20
4663489.000
  0
VERTEX
  8
Unknown_Area_Type
  10
301082.000
  20
4663555.500
  0
VERTEX
  8
Unknown_Area_Type
  10
298331.000
  20
4663572.000
  0
SEQEND
  8
Unknown_Area_Type
  0
INSERT
  8
FeatureAttribs
  2
FEATURE
  41
1
  42
1
  43
1
  50
0
  10
316764.368
  20
4660669.687
 66
1
  0
ATTRIB
  8
FeatureAttribs
 70
0
  1
PNOA-H_AMS_1956-57_33k_ES_PAN_2
  2
NAME
  10
316764.368
  20
4660669.687
 40
34.05590
  0
SEQEND
  0
POLYLINE
  8
Unknown_Area_Type
  70
1
  66
1
  0
VERTEX
  8
Unknown_Area_Type
  10
315420.500
  20
4662845.000
  0
VERTEX
  8
Unknown_Area_Type
  10
317069.500
  20
4663140.500
  0
VERTEX
  8
Unknown_Area_Type
  10
317072.500
  20
4663141.000
  0
VERTEX
  8
Unknown_Area_Type
  10
317354.000
  20
4663191.000
  0
VERTEX
  8
Unknown_Area_Type
  10
317938.000
  20
4662926.500
  0
VERTEX
  8
Unknown_Area_Type
  10
318235.000
  20
4661236.000
  0
VERTEX
  8
Unknown_Area_Type
  10
318127.000
  20
4658554.000
  0
VERTEX
  8
Unknown_Area_Type
  10
317073.500
  20
4658213.000
  0
VERTEX
  8
Unknown_Area_Type
  10
315293.500
  20
4658577.000
  0
VERTEX
  8
Unknown_Area_Type
  10
315420.500
  20
4662845.000
  0
SEQEND
  8
Unknown_Area_Type
  0
INSERT
  8
FeatureAttribs
  2
FEATURE
  41
1
  42
1
  43
1
  50
0
  10
316764.368
  20
4660669.687
 66
1
  0
ATTRIB
  8
FeatureAttribs
 70
0
  1
PNOA-H_AMS_1956-57_33k_ES_PAN_2
  2
NAME
  10
316764.368
  20
4660669.687
 40
34.05590
  0
SEQEND
  0
POLYLINE
  8
Unknown_Area_Type
  70
1
  66
1
  0
VERTEX
  8
Unknown_Area_Type
  10
315420.500
  20
4662845.000
  0
VERTEX
  8
Unknown_Area_Type
  10
315293.500
  20
4658577.000
  0
VERTEX
  8
Unknown_Area_Type
  10
317073.500
  20
4658213.000
  0
VERTEX
  8
Unknown_Area_Type
  10
318127.000
  20
4658554.000
  0
VERTEX
  8
Unknown_Area_Type
  10
318235.000
  20
4661236.000
  0
VERTEX
  8
Unknown_Area_Type
  10
317938.000
  20
4662926.500
  0
VERTEX
  8
Unknown_Area_Type
  10
317354.000
  20
4663191.000
  0
VERTEX
  8
Unknown_Area_Type
  10
317072.500
  20
4663141.000
  0
VERTEX
  8
Unknown_Area_Type
  10
317069.500
  20
4663140.500
  0
VERTEX
  8
Unknown_Area_Type
  10
315420.500
  20
4662845.000
  0
SEQEND
  8
Unknown_Area_Type
  0
INSERT
  8
FeatureAttribs
  2
FEATURE
  41
1
  42
1
  43
1
  50
0
  10
308204.360
  20
4660896.356
 66
1
  0
ATTRIB
  8
FeatureAttribs
 70
0
  1
PNOA-H_AMS_1956-57_33k_ES_PAN_2
  2
NAME
  10
308204.360
  20
4660896.356
 40
34.05590
  0
SEQEND
  0
POLYLINE
  8
Unknown_Area_Type
  70
1
  66
1
  0
VERTEX
  8
Unknown_Area_Type
  10
309595.500
  20
4660488.000
  0
VERTEX
  8
Unknown_Area_Type
  10
309508.500
  20
4658567.000
  0
VERTEX
  8
Unknown_Area_Type
  10
309021.500
  20
4658381.000
  0
VERTEX
  8
Unknown_Area_Type
  10
309019.000
  20
4658381.000
  0
VERTEX
  8
Unknown_Area_Type
  10
306665.500
  20
4658651.000
  0
VERTEX
  8
Unknown_Area_Type
  10
306884.500
  20
4663253.000
  0
VERTEX
  8
Unknown_Area_Type
  10
309336.500
  20
4663343.000
  0
VERTEX
  8
Unknown_Area_Type
  10
309713.500
  20
4663107.000
  0
VERTEX
  8
Unknown_Area_Type
  10
309595.500
  20
4660496.000
  0
VERTEX
  8
Unknown_Area_Type
  10
309595.500
  20
4660488.000
  0
SEQEND
  8
Unknown_Area_Type
  0
INSERT
  8
FeatureAttribs
  2
FEATURE
  41
1
  42
1
  43
1
  50
0
  10
308204.360
  20
4660896.356
 66
1
  0
ATTRIB
  8
FeatureAttribs
 70
0
  1
PNOA-H_AMS_1956-57_33k_ES_PAN_2
  2
NAME
  10
308204.360
  20
4660896.356
 40
34.05590
  0
SEQEND
  0
POLYLINE
  8
Unknown_Area_Type
  70
1
  66
1
  0
VERTEX
  8
Unknown_Area_Type
  10
309595.500
  20
4660488.000
  0
VERTEX
  8
Unknown_Area_Type
  10
309595.500
  20
4660496.000
  0
VERTEX
  8
Unknown_Area_Type
  10
309713.500
  20
4663107.000
  0
VERTEX
  8
Unknown_Area_Type
  10
309336.500
  20
4663343.000
  0
VERTEX
  8
Unknown_Area_Type
  10
306884.500
  20
4663253.000
  0
VERTEX
  8
Unknown_Area_Type
  10
306665.500
  20
4658651.000
  0
VERTEX
  8
Unknown_Area_Type
  10
309019.000
  20
4658381.000
  0
VERTEX
  8
Unknown_Area_Type
  10
309021.500
  20
4658381.000
  0
VERTEX
  8
Unknown_Area_Type
  10
309508.500
  20
4658567.000
  0
VERTEX
  8
Unknown_Area_Type
  10
309595.500
  20
4660488.000
  0
SEQEND
  8
Unknown_Area_Type
  0
INSERT
  8
FeatureAttribs
  2
FEATURE
  41
1
  42
1
  43
1
  50
0
  10
313927.565
  20
4660751.433
 66
1
  0
ATTRIB
  8
FeatureAttribs
 70
0
  1
PNOA-H_AMS_1956-57_33k_ES_PAN_2
  2
NAME
  10
313927.565
  20
4660751.433
 40
34.05590
  0
SEQEND
  0
POLYLINE
  8
Unknown_Area_Type
  70
1
  66
1
  0
VERTEX
  8
Unknown_Area_Type
  10
312975.500
  20
4663029.000
  0
VERTEX
  8
Unknown_Area_Type
  10
314624.000
  20
4663261.000
  0
VERTEX
  8
Unknown_Area_Type
  10
315420.500
  20
4662845.000
  0
VERTEX
  8
Unknown_Area_Type
  10
315293.500
  20
4658577.000
  0
VERTEX
  8
Unknown_Area_Type
  10
314317.500
  20
4658239.500
  0
VERTEX
  8
Unknown_Area_Type
  10
312415.500
  20
4658570.500
  0
VERTEX
  8
Unknown_Area_Type
  10
312549.500
  20
4662968.500
  0
VERTEX
  8
Unknown_Area_Type
  10
312972.000
  20
4663028.500
  0
VERTEX
  8
Unknown_Area_Type
  10
312975.500
  20
4663029.000
  0
SEQEND
  8
Unknown_Area_Type
  0
INSERT
  8
FeatureAttribs
  2
FEATURE
  41
1
  42
1
  43
1
  50
0
  10
313927.565
  20
4660751.433
 66
1
  0
ATTRIB
  8
FeatureAttribs
 70
0
  1
PNOA-H_AMS_1956-57_33k_ES_PAN_2
  2
NAME
  10
313927.565
  20
4660751.433
 40
34.05590
  0
SEQEND
  0
POLYLINE
  8
Unknown_Area_Type
  70
1
  66
1
  0
VERTEX
  8
Unknown_Area_Type
  10
312975.500
  20
4663029.000
  0
VERTEX
  8
Unknown_Area_Type
  10
312972.000
  20
4663028.500
  0
VERTEX
  8
Unknown_Area_Type
  10
312549.500
  20
4662968.500
  0
VERTEX
  8
Unknown_Area_Type
  10
312415.500
  20
4658570.500
  0
VERTEX
  8
Unknown_Area_Type
  10
314317.500
  20
4658239.500
  0
VERTEX
  8
Unknown_Area_Type
  10
315293.500
  20
4658577.000
  0
VERTEX
  8
Unknown_Area_Type
  10
315420.500
  20
4662845.000
  0
VERTEX
  8
Unknown_Area_Type
  10
314624.000
  20
4663261.000
  0
VERTEX
  8
Unknown_Area_Type
  10
312975.500
  20
4663029.000
  0
SEQEND
  8
Unknown_Area_Type
  0
INSERT
  8
FeatureAttribs
  2
FEATURE
  41
1
  42
1
  43
1
  50
0
  10
305406.958
  20
4667122.212
 66
1
  0
ATTRIB
  8
FeatureAttribs
 70
0
  1
PNOA-H_AMS_1956-57_33k_ES_PAN_2
  2
NAME
  10
305406.958
  20
4667122.212
 40
34.05590
  0
SEQEND
  0
POLYLINE
  8
Unknown_Area_Type
  70
1
  66
1
  0
VERTEX
  8
Unknown_Area_Type
  10
305326.500
  20
4668804.000
  0
VERTEX
  8
Unknown_Area_Type
  10
306776.000
  20
4668395.000
  0
VERTEX
  8
Unknown_Area_Type
  10
306783.000
  20
4665935.000
  0
VERTEX
  8
Unknown_Area_Type
  10
306672.000
  20
4665347.500
  0
VERTEX
  8
Unknown_Area_Type
  10
303964.000
  20
4665922.500
  0
VERTEX
  8
Unknown_Area_Type
  10
303962.000
  20
4668460.500
  0
VERTEX
  8
Unknown_Area_Type
  10
305324.500
  20
4668803.500
  0
VERTEX
  8
Unknown_Area_Type
  10
305326.500
  20
4668804.000
  0
SEQEND
  8
Unknown_Area_Type
  0
INSERT
  8
FeatureAttribs
  2
FEATURE
  41
1
  42
1
  43
1
  50
0
  10
305406.958
  20
4667122.212
 66
1
  0
ATTRIB
  8
FeatureAttribs
 70
0
  1
PNOA-H_AMS_1956-57_33k_ES_PAN_2
  2
NAME
  10
305406.958
  20
4667122.212
 40
34.05590
  0
SEQEND
  0
POLYLINE
  8
Unknown_Area_Type
  70
1
  66
1
  0
VERTEX
  8
Unknown_Area_Type
  10
305326.500
  20
4668804.000
  0
VERTEX
  8
Unknown_Area_Type
  10
305324.500
  20
4668803.500
  0
VERTEX
  8
Unknown_Area_Type
  10
303962.000
  20
4668460.500
  0
VERTEX
  8
Unknown_Area_Type
  10
303964.000
  20
4665922.500
  0
VERTEX
  8
Unknown_Area_Type
  10
306672.000
  20
4665347.500
  0
VERTEX
  8
Unknown_Area_Type
  10
306783.000
  20
4665935.000
  0
VERTEX
  8
Unknown_Area_Type
  10
306776.000
  20
4668395.000
  0
VERTEX
  8
Unknown_Area_Type
  10
305326.500
  20
4668804.000
  0
SEQEND
  8
Unknown_Area_Type
  0
INSERT
  8
FeatureAttribs
  2
FEATURE
  41
1
  42
1
  43
1
  50
0
  10
294066.564
  20
4667211.075
 66
1
  0
ATTRIB
  8
FeatureAttribs
 70
0
  1
PNOA-H_AMS_1956-57_33k_ES_PAN_2
  2
NAME
  10
294066.564
  20
4667211.075
 40
34.05590
  0
SEQEND
  0
POLYLINE
  8
Unknown_Area_Type
  70
1
  66
1
  0
VERTEX
  8
Unknown_Area_Type
  10
292743.500
  20
4668603.000
  0
VERTEX
  8
Unknown_Area_Type
  10
294096.500
  20
4668903.000
  0
VERTEX
  8
Unknown_Area_Type
  10
294544.500
  20
4668797.500
  0
VERTEX
  8
Unknown_Area_Type
  10
294546.000
  20
4668797.500
  0
VERTEX
  8
Unknown_Area_Type
  10
295453.500
  20
4668583.500
  0
VERTEX
  8
Unknown_Area_Type
  10
295495.500
  20
4665914.000
  0
VERTEX
  8
Unknown_Area_Type
  10
292756.500
  20
4665456.000
  0
VERTEX
  8
Unknown_Area_Type
  10
292755.000
  20
4665456.000
  0
VERTEX
  8
Unknown_Area_Type
  10
292754.500
  20
4665470.500
  0
VERTEX
  8
Unknown_Area_Type
  10
292710.500
  20
4667371.000
  0
VERTEX
  8
Unknown_Area_Type
  10
292743.500
  20
4668603.000
  0
SEQEND
  8
Unknown_Area_Type
  0
INSERT
  8
FeatureAttribs
  2
FEATURE
  41
1
  42
1
  43
1
  50
0
  10
294066.564
  20
4667211.075
 66
1
  0
ATTRIB
  8
FeatureAttribs
 70
0
  1
PNOA-H_AMS_1956-57_33k_ES_PAN_2
  2
NAME
  10
294066.564
  20
4667211.075
 40
34.05590
  0
SEQEND
  0
POLYLINE
  8
Unknown_Area_Type
  70
1
  66
1
  0
VERTEX
  8
Unknown_Area_Type
  10
292743.500
  20
4668603.000
  0
VERTEX
  8
Unknown_Area_Type
  10
292710.500
  20
4667371.000
  0
VERTEX
  8
Unknown_Area_Type
  10
292754.500
  20
4665470.500
  0
VERTEX
  8
Unknown_Area_Type
  10
292755.000
  20
4665456.000
  0
VERTEX
  8
Unknown_Area_Type
  10
292756.500
  20
4665456.000
  0
VERTEX
  8
Unknown_Area_Type
  10
295495.500
  20
4665914.000
  0
VERTEX
  8
Unknown_Area_Type
  10
295453.500
  20
4668583.500
  0
VERTEX
  8
Unknown_Area_Type
  10
294546.000
  20
4668797.500
  0
VERTEX
  8
Unknown_Area_Type
  10
294544.500
  20
4668797.500
  0
VERTEX
  8
Unknown_Area_Type
  10
294096.500
  20
4668903.000
  0
VERTEX
  8
Unknown_Area_Type
  10
292743.500
  20
4668603.000
  0
SEQEND
  8
Unknown_Area_Type
  0
INSERT
  8
FeatureAttribs
  2
FEATURE
  41
1
  42
1
  43
1
  50
0
  10
302530.150
  20
4667171.656
 66
1
  0
ATTRIB
  8
FeatureAttribs
 70
0
  1
PNOA-H_AMS_1956-57_33k_ES_PAN_2
  2
NAME
  10
302530.150
  20
4667171.656
 40
34.05590
  0
SEQEND
  0
POLYLINE
  8
Unknown_Area_Type
  70
1
  66
1
  0
VERTEX
  8
Unknown_Area_Type
  10
302738.000
  20
4668774.500
  0
VERTEX
  8
Unknown_Area_Type
  10
303962.000
  20
4668460.500
  0
VERTEX
  8
Unknown_Area_Type
  10
303964.000
  20
4665922.000
  0
VERTEX
  8
Unknown_Area_Type
  10
303921.500
  20
4665653.000
  0
VERTEX
  8
Unknown_Area_Type
  10
301117.500
  20
4665670.500
  0
VERTEX
  8
Unknown_Area_Type
  10
301108.500
  20
4668539.500
  0
VERTEX
  8
Unknown_Area_Type
  10
302433.000
  20
4668852.500
  0
VERTEX
  8
Unknown_Area_Type
  10
302735.500
  20
4668775.000
  0
VERTEX
  8
Unknown_Area_Type
  10
302738.000
  20
4668774.500
  0
SEQEND
  8
Unknown_Area_Type
  0
INSERT
  8
FeatureAttribs
  2
FEATURE
  41
1
  42
1
  43
1
  50
0
  10
302530.150
  20
4667171.656
 66
1
  0
ATTRIB
  8
FeatureAttribs
 70
0
  1
PNOA-H_AMS_1956-57_33k_ES_PAN_2
  2
NAME
  10
302530.150
  20
4667171.656
 40
34.05590
  0
SEQEND
  0
POLYLINE
  8
Unknown_Area_Type
  70
1
  66
1
  0
VERTEX
  8
Unknown_Area_Type
  10
302738.000
  20
4668774.500
  0
VERTEX
  8
Unknown_Area_Type
  10
302735.500
  20
4668775.000
  0
VERTEX
  8
Unknown_Area_Type
  10
302433.000
  20
4668852.500
  0
VERTEX
  8
Unknown_Area_Type
  10
301108.500
  20
4668539.500
  0
VERTEX
  8
Unknown_Area_Type
  10
301117.500
  20
4665670.500
  0
VERTEX
  8
Unknown_Area_Type
  10
303921.500
  20
4665653.000
  0
VERTEX
  8
Unknown_Area_Type
  10
303964.000
  20
4665922.000
  0
VERTEX
  8
Unknown_Area_Type
  10
303962.000
  20
4668460.500
  0
VERTEX
  8
Unknown_Area_Type
  10
302738.000
  20
4668774.500
  0
SEQEND
  8
Unknown_Area_Type
  0
INSERT
  8
FeatureAttribs
  2
FEATURE
  41
1
  42
1
  43
1
  50
0
  10
311051.867
  20
4667015.862
 66
1
  0
ATTRIB
  8
FeatureAttribs
 70
0
  1
PNOA-H_AMS_1956-57_33k_ES_PAN_2
  2
NAME
  10
311051.867
  20
4667015.862
 40
34.05590
  0
SEQEND
  0
POLYLINE
  8
Unknown_Area_Type
  70
1
  66
1
  0
VERTEX
  8
Unknown_Area_Type
  10
310741.500
  20
4668637.500
  0
VERTEX
  8
Unknown_Area_Type
  10
312429.500
  20
4668277.500
  0
VERTEX
  8
Unknown_Area_Type
  10
312418.000
  20
4666485.500
  0
VERTEX
  8
Unknown_Area_Type
  10
312027.500
  20
4665016.500
  0
VERTEX
  8
Unknown_Area_Type
  10
309582.000
  20
4666139.000
  0
VERTEX
  8
Unknown_Area_Type
  10
309596.000
  20
4668332.500
  0
VERTEX
  8
Unknown_Area_Type
  10
310739.500
  20
4668637.000
  0
VERTEX
  8
Unknown_Area_Type
  10
310741.500
  20
4668637.500
  0
SEQEND
  8
Unknown_Area_Type
  0
INSERT
  8
FeatureAttribs
  2
FEATURE
  41
1
  42
1
  43
1
  50
0
  10
311051.867
  20
4667015.862
 66
1
  0
ATTRIB
  8
FeatureAttribs
 70
0
  1
PNOA-H_AMS_1956-57_33k_ES_PAN_2
  2
NAME
  10
311051.867
  20
4667015.862
 40
34.05590
  0
SEQEND
  0
POLYLINE
  8
Unknown_Area_Type
  70
1
  66
1
  0
VERTEX
  8
Unknown_Area_Type
  10
310741.500
  20
4668637.500
  0
VERTEX
  8
Unknown_Area_Type
  10
310739.500
  20
4668637.000
  0
VERTEX
  8
Unknown_Area_Type
  10
309596.000
  20
4668332.500
  0
VERTEX
  8
Unknown_Area_Type
  10
309582.000
  20
4666139.000
  0
VERTEX
  8
Unknown_Area_Type
  10
312027.500
  20
4665016.500
  0
VERTEX
  8
Unknown_Area_Type
  10
312418.000
  20
4666485.500
  0
VERTEX
  8
Unknown_Area_Type
  10
312429.500
  20
4668277.500
  0
VERTEX
  8
Unknown_Area_Type
  10
310741.500
  20
4668637.500
  0
SEQEND
  8
Unknown_Area_Type
  0
INSERT
  8
FeatureAttribs
  2
FEATURE
  41
1
  42
1
  43
1
  50
0
  10
296782.520
  20
4667198.739
 66
1
  0
ATTRIB
  8
FeatureAttribs
 70
0
  1
PNOA-H_AMS_1956-57_33k_ES_PAN_2
  2
NAME
  10
296782.520
  20
4667198.739
 40
34.05590
  0
SEQEND
  0
POLYLINE
  8
Unknown_Area_Type
  70
1
  66
1
  0
VERTEX
  8
Unknown_Area_Type
  10
296970.500
  20
4668935.000
  0
VERTEX
  8
Unknown_Area_Type
  10
298231.000
  20
4668589.500
  0
VERTEX
  8
Unknown_Area_Type
  10
298282.500
  20
4666269.500
  0
VERTEX
  8
Unknown_Area_Type
  10
295538.500
  20
4665084.000
  0
VERTEX
  8
Unknown_Area_Type
  10
295537.500
  20
4665084.000
  0
VERTEX
  8
Unknown_Area_Type
  10
295537.000
  20
4665091.000
  0
VERTEX
  8
Unknown_Area_Type
  10
295495.500
  20
4665910.000
  0
VERTEX
  8
Unknown_Area_Type
  10
295453.000
  20
4668584.000
  0
VERTEX
  8
Unknown_Area_Type
  10
296968.500
  20
4668934.500
  0
VERTEX
  8
Unknown_Area_Type
  10
296970.500
  20
4668935.000
  0
SEQEND
  8
Unknown_Area_Type
  0
INSERT
  8
FeatureAttribs
  2
FEATURE
  41
1
  42
1
  43
1
  50
0
  10
296782.520
  20
4667198.739
 66
1
  0
ATTRIB
  8
FeatureAttribs
 70
0
  1
PNOA-H_AMS_1956-57_33k_ES_PAN_2
  2
NAME
  10
296782.520
  20
4667198.739
 40
34.05590
  0
SEQEND
  0
POLYLINE
  8
Unknown_Area_Type
  70
1
  66
1
  0
VERTEX
  8
Unknown_Area_Type
  10
296970.500
  20
4668935.000
  0
VERTEX
  8
Unknown_Area_Type
  10
296968.500
  20
4668934.500
  0
VERTEX
  8
Unknown_Area_Type
  10
295453.000
  20
4668584.000
  0
VERTEX
  8
Unknown_Area_Type
  10
295495.500
  20
4665910.000
  0
VERTEX
  8
Unknown_Area_Type
  10
295537.000
  20
4665091.000
  0
VERTEX
  8
Unknown_Area_Type
  10
295537.500
  20
4665084.000
  0
VERTEX
  8
Unknown_Area_Type
  10
295538.500
  20
4665084.000
  0
VERTEX
  8
Unknown_Area_Type
  10
298282.500
  20
4666269.500
  0
VERTEX
  8
Unknown_Area_Type
  10
298231.000
  20
4668589.500
  0
VERTEX
  8
Unknown_Area_Type
  10
296970.500
  20
4668935.000
  0
SEQEND
  8
Unknown_Area_Type
  0
INSERT
  8
FeatureAttribs
  2
FEATURE
  41
1
  42
1
  43
1
  50
0
  10
313929.022
  20
4666948.101
 66
1
  0
ATTRIB
  8
FeatureAttribs
 70
0
  1
PNOA-H_AMS_1956-57_33k_ES_PAN_2
  2
NAME
  10
313929.022
  20
4666948.101
 40
34.05590
  0
SEQEND
  0
POLYLINE
  8
Unknown_Area_Type
  70
1
  66
1
  0
VERTEX
  8
Unknown_Area_Type
  10
315026.000
  20
4668287.000
  0
VERTEX
  8
Unknown_Area_Type
  10
315287.000
  20
4668227.500
  0
VERTEX
  8
Unknown_Area_Type
  10
315267.500
  20
4666427.000
  0
VERTEX
  8
Unknown_Area_Type
  10
314678.000
  20
4664622.500
  0
VERTEX
  8
Unknown_Area_Type
  10
312418.000
  20
4666486.500
  0
VERTEX
  8
Unknown_Area_Type
  10
312429.500
  20
4668278.000
  0
VERTEX
  8
Unknown_Area_Type
  10
313505.500
  20
4668634.500
  0
VERTEX
  8
Unknown_Area_Type
  10
315024.000
  20
4668287.500
  0
VERTEX
  8
Unknown_Area_Type
  10
315026.000
  20
4668287.000
  0
SEQEND
  8
Unknown_Area_Type
  0
INSERT
  8
FeatureAttribs
  2
FEATURE
  41
1
  42
1
  43
1
  50
0
  10
313929.022
  20
4666948.101
 66
1
  0
ATTRIB
  8
FeatureAttribs
 70
0
  1
PNOA-H_AMS_1956-57_33k_ES_PAN_2
  2
NAME
  10
313929.022
  20
4666948.101
 40
34.05590
  0
SEQEND
  0
POLYLINE
  8
Unknown_Area_Type
  70
1
  66
1
  0
VERTEX
  8
Unknown_Area_Type
  10
315026.000
  20
4668287.000
  0
VERTEX
  8
Unknown_Area_Type
  10
315024.000
  20
4668287.500
  0
VERTEX
  8
Unknown_Area_Type
  10
313505.500
  20
4668634.500
  0
VERTEX
  8
Unknown_Area_Type
  10
312429.500
  20
4668278.000
  0
VERTEX
  8
Unknown_Area_Type
  10
312418.000
  20
4666486.500
  0
VERTEX
  8
Unknown_Area_Type
  10
314678.000
  20
4664622.500
  0
VERTEX
  8
Unknown_Area_Type
  10
315267.500
  20
4666427.000
  0
VERTEX
  8
Unknown_Area_Type
  10
315287.000
  20
4668227.500
  0
VERTEX
  8
Unknown_Area_Type
  10
315026.000
  20
4668287.000
  0
SEQEND
  8
Unknown_Area_Type
  0
INSERT
  8
FeatureAttribs
  2
FEATURE
  41
1
  42
1
  43
1
  50
0
  10
316755.426
  20
4666900.516
 66
1
  0
ATTRIB
  8
FeatureAttribs
 70
0
  1
PNOA-H_AMS_1956-57_33k_ES_PAN_2
  2
NAME
  10
316755.426
  20
4666900.516
 40
34.05590
  0
SEQEND
  0
POLYLINE
  8
Unknown_Area_Type
  70
1
  66
1
  0
VERTEX
  8
Unknown_Area_Type
  10
315287.000
  20
4668227.500
  0
VERTEX
  8
Unknown_Area_Type
  10
316335.000
  20
4668555.500
  0
VERTEX
  8
Unknown_Area_Type
  10
316336.500
  20
4668556.000
  0
VERTEX
  8
Unknown_Area_Type
  10
316366.000
  20
4668550.500
  0
VERTEX
  8
Unknown_Area_Type
  10
318199.000
  20
4668156.500
  0
VERTEX
  8
Unknown_Area_Type
  10
318145.000
  20
4666785.500
  0
VERTEX
  8
Unknown_Area_Type
  10
317360.000
  20
4664551.500
  0
VERTEX
  8
Unknown_Area_Type
  10
315267.500
  20
4666426.500
  0
VERTEX
  8
Unknown_Area_Type
  10
315287.000
  20
4668227.500
  0
SEQEND
  8
Unknown_Area_Type
  0
INSERT
  8
FeatureAttribs
  2
FEATURE
  41
1
  42
1
  43
1
  50
0
  10
316755.426
  20
4666900.516
 66
1
  0
ATTRIB
  8
FeatureAttribs
 70
0
  1
PNOA-H_AMS_1956-57_33k_ES_PAN_2
  2
NAME
  10
316755.426
  20
4666900.516
 40
34.05590
  0
SEQEND
  0
POLYLINE
  8
Unknown_Area_Type
  70
1
  66
1
  0
VERTEX
  8
Unknown_Area_Type
  10
315287.000
  20
4668227.500
  0
VERTEX
  8
Unknown_Area_Type
  10
315267.500
  20
4666426.500
  0
VERTEX
  8
Unknown_Area_Type
  10
317360.000
  20
4664551.500
  0
VERTEX
  8
Unknown_Area_Type
  10
318145.000
  20
4666785.500
  0
VERTEX
  8
Unknown_Area_Type
  10
318199.000
  20
4668156.500
  0
VERTEX
  8
Unknown_Area_Type
  10
316366.000
  20
4668550.500
  0
VERTEX
  8
Unknown_Area_Type
  10
316336.500
  20
4668556.000
  0
VERTEX
  8
Unknown_Area_Type
  10
316335.000
  20
4668555.500
  0
VERTEX
  8
Unknown_Area_Type
  10
315287.000
  20
4668227.500
  0
SEQEND
  8
Unknown_Area_Type
  0
INSERT
  8
FeatureAttribs
  2
FEATURE
  41
1
  42
1
  43
1
  50
0
  10
299695.082
  20
4667210.935
 66
1
  0
ATTRIB
  8
FeatureAttribs
 70
0
  1
PNOA-H_AMS_1956-57_33k_ES_PAN_2
  2
NAME
  10
299695.082
  20
4667210.935
 40
34.05590
  0
SEQEND
  0
POLYLINE
  8
Unknown_Area_Type
  70
1
  66
1
  0
VERTEX
  8
Unknown_Area_Type
  10
300690.000
  20
4668648.500
  0
VERTEX
  8
Unknown_Area_Type
  10
301108.500
  20
4668540.000
  0
VERTEX
  8
Unknown_Area_Type
  10
301117.500
  20
4665727.000
  0
VERTEX
  8
Unknown_Area_Type
  10
301117.500
  20
4665669.500
  0
VERTEX
  8
Unknown_Area_Type
  10
301111.000
  20
4665618.500
  0
VERTEX
  8
Unknown_Area_Type
  10
298329.500
  20
4665733.000
  0
VERTEX
  8
Unknown_Area_Type
  10
298282.500
  20
4666269.000
  0
VERTEX
  8
Unknown_Area_Type
  10
298231.000
  20
4668589.500
  0
VERTEX
  8
Unknown_Area_Type
  10
299746.500
  20
4668893.000
  0
VERTEX
  8
Unknown_Area_Type
  10
299751.000
  20
4668893.000
  0
VERTEX
  8
Unknown_Area_Type
  10
299761.000
  20
4668890.500
  0
VERTEX
  8
Unknown_Area_Type
  10
300687.500
  20
4668649.000
  0
VERTEX
  8
Unknown_Area_Type
  10
300690.000
  20
4668648.500
  0
SEQEND
  8
Unknown_Area_Type
  0
INSERT
  8
FeatureAttribs
  2
FEATURE
  41
1
  42
1
  43
1
  50
0
  10
299695.082
  20
4667210.935
 66
1
  0
ATTRIB
  8
FeatureAttribs
 70
0
  1
PNOA-H_AMS_1956-57_33k_ES_PAN_2
  2
NAME
  10
299695.082
  20
4667210.935
 40
34.05590
  0
SEQEND
  0
POLYLINE
  8
Unknown_Area_Type
  70
1
  66
1
  0
VERTEX
  8
Unknown_Area_Type
  10
300690.000
  20
4668648.500
  0
VERTEX
  8
Unknown_Area_Type
  10
300687.500
  20
4668649.000
  0
VERTEX
  8
Unknown_Area_Type
  10
299761.000
  20
4668890.500
  0
VERTEX
  8
Unknown_Area_Type
  10
299751.000
  20
4668893.000
  0
VERTEX
  8
Unknown_Area_Type
  10
299746.500
  20
4668893.000
  0
VERTEX
  8
Unknown_Area_Type
  10
298231.000
  20
4668589.500
  0
VERTEX
  8
Unknown_Area_Type
  10
298282.500
  20
4666269.000
  0
VERTEX
  8
Unknown_Area_Type
  10
298329.500
  20
4665733.000
  0
VERTEX
  8
Unknown_Area_Type
  10
301111.000
  20
4665618.500
  0
VERTEX
  8
Unknown_Area_Type
  10
301117.500
  20
4665669.500
  0
VERTEX
  8
Unknown_Area_Type
  10
301117.500
  20
4665727.000
  0
VERTEX
  8
Unknown_Area_Type
  10
301108.500
  20
4668540.000
  0
VERTEX
  8
Unknown_Area_Type
  10
300690.000
  20
4668648.500
  0
SEQEND
  8
Unknown_Area_Type
  0
INSERT
  8
FeatureAttribs
  2
FEATURE
  41
1
  42
1
  43
1
  50
0
  10
292121.510
  20
4667701.197
 66
1
  0
ATTRIB
  8
FeatureAttribs
 70
0
  1
PNOA-H_AMS_1956-57_33k_ES_PAN_2
  2
NAME
  10
292121.510
  20
4667701.197
 40
34.05590
  0
SEQEND
  0
POLYLINE
  8
Unknown_Area_Type
  70
1
  66
1
  0
VERTEX
  8
Unknown_Area_Type
  10
291696.013
  20
4668870.567
  0
VERTEX
  8
Unknown_Area_Type
  10
292497.000
  20
4668665.500
  0
VERTEX
  8
Unknown_Area_Type
  10
292498.000
  20
4668665.500
  0
VERTEX
  8
Unknown_Area_Type
  10
292743.500
  20
4668603.000
  0
VERTEX
  8
Unknown_Area_Type
  10
292710.500
  20
4667379.000
  0
VERTEX
  8
Unknown_Area_Type
  10
291613.833
  20
4666087.938
  0
VERTEX
  8
Unknown_Area_Type
  10
291632.806
  20
4666730.584
  0
VERTEX
  8
Unknown_Area_Type
  10
291696.013
  20
4668870.567
  0
SEQEND
  8
Unknown_Area_Type
  0
INSERT
  8
FeatureAttribs
  2
FEATURE
  41
1
  42
1
  43
1
  50
0
  10
292121.510
  20
4667701.197
 66
1
  0
ATTRIB
  8
FeatureAttribs
 70
0
  1
PNOA-H_AMS_1956-57_33k_ES_PAN_2
  2
NAME
  10
292121.510
  20
4667701.197
 40
34.05590
  0
SEQEND
  0
POLYLINE
  8
Unknown_Area_Type
  70
1
  66
1
  0
VERTEX
  8
Unknown_Area_Type
  10
291696.013
  20
4668870.567
  0
VERTEX
  8
Unknown_Area_Type
  10
291632.806
  20
4666730.584
  0
VERTEX
  8
Unknown_Area_Type
  10
291613.833
  20
4666087.938
  0
VERTEX
  8
Unknown_Area_Type
  10
292710.500
  20
4667379.000
  0
VERTEX
  8
Unknown_Area_Type
  10
292743.500
  20
4668603.000
  0
VERTEX
  8
Unknown_Area_Type
  10
292498.000
  20
4668665.500
  0
VERTEX
  8
Unknown_Area_Type
  10
292497.000
  20
4668665.500
  0
VERTEX
  8
Unknown_Area_Type
  10
291696.013
  20
4668870.567
  0
SEQEND
  8
Unknown_Area_Type
  0
INSERT
  8
FeatureAttribs
  2
FEATURE
  41
1
  42
1
  43
1
  50
0
  10
308219.501
  20
4667073.178
 66
1
  0
ATTRIB
  8
FeatureAttribs
 70
0
  1
PNOA-H_AMS_1956-57_33k_ES_PAN_2
  2
NAME
  10
308219.501
  20
4667073.178
 40
34.05590
  0
SEQEND
  0
POLYLINE
  8
Unknown_Area_Type
  70
1
  66
1
  0
VERTEX
  8
Unknown_Area_Type
  10
308882.000
  20
4668516.500
  0
VERTEX
  8
Unknown_Area_Type
  10
309596.000
  20
4668332.500
  0
VERTEX
  8
Unknown_Area_Type
  10
309582.000
  20
4666137.000
  0
VERTEX
  8
Unknown_Area_Type
  10
309388.500
  20
4665289.000
  0
VERTEX
  8
Unknown_Area_Type
  10
309387.000
  20
4665282.500
  0
VERTEX
  8
Unknown_Area_Type
  10
309385.000
  20
4665281.500
  0
VERTEX
  8
Unknown_Area_Type
  10
306783.000
  20
4665935.500
  0
VERTEX
  8
Unknown_Area_Type
  10
306776.000
  20
4668395.000
  0
VERTEX
  8
Unknown_Area_Type
  10
308132.500
  20
4668709.500
  0
VERTEX
  8
Unknown_Area_Type
  10
308148.000
  20
4668706.500
  0
VERTEX
  8
Unknown_Area_Type
  10
308880.000
  20
4668517.000
  0
VERTEX
  8
Unknown_Area_Type
  10
308882.000
  20
4668516.500
  0
SEQEND
  8
Unknown_Area_Type
  0
INSERT
  8
FeatureAttribs
  2
FEATURE
  41
1
  42
1
  43
1
  50
0
  10
308219.501
  20
4667073.178
 66
1
  0
ATTRIB
  8
FeatureAttribs
 70
0
  1
PNOA-H_AMS_1956-57_33k_ES_PAN_2
  2
NAME
  10
308219.501
  20
4667073.178
 40
34.05590
  0
SEQEND
  0
POLYLINE
  8
Unknown_Area_Type
  70
1
  66
1
  0
VERTEX
  8
Unknown_Area_Type
  10
308882.000
  20
4668516.500
  0
VERTEX
  8
Unknown_Area_Type
  10
308880.000
  20
4668517.000
  0
VERTEX
  8
Unknown_Area_Type
  10
308148.000
  20
4668706.500
  0
VERTEX
  8
Unknown_Area_Type
  10
308132.500
  20
4668709.500
  0
VERTEX
  8
Unknown_Area_Type
  10
306776.000
  20
4668395.000
  0
VERTEX
  8
Unknown_Area_Type
  10
306783.000
  20
4665935.500
  0
VERTEX
  8
Unknown_Area_Type
  10
309385.000
  20
4665281.500
  0
VERTEX
  8
Unknown_Area_Type
  10
309387.000
  20
4665282.500
  0
VERTEX
  8
Unknown_Area_Type
  10
309388.500
  20
4665289.000
  0
VERTEX
  8
Unknown_Area_Type
  10
309582.000
  20
4666137.000
  0
VERTEX
  8
Unknown_Area_Type
  10
309596.000
  20
4668332.500
  0
VERTEX
  8
Unknown_Area_Type
  10
308882.000
  20
4668516.500
  0
SEQEND
  8
Unknown_Area_Type
  0
INSERT
  8
FeatureAttribs
  2
FEATURE
  41
1
  42
1
  43
1
  50
0
  10
319198.470
  20
4662238.403
 66
1
  0
ATTRIB
  8
FeatureAttribs
 70
0
  1
PNOA-H_AMS_1956-57_33k_ES_PAN_2
  2
NAME
  10
319198.470
  20
4662238.403
 40
34.05590
  0
SEQEND
  0
POLYLINE
  8
Unknown_Area_Type
  70
1
  66
1
  0
VERTEX
  8
Unknown_Area_Type
  10
319305.575
  20
4661168.500
  0
VERTEX
  8
Unknown_Area_Type
  10
319064.352
  20
4661183.371
  0
VERTEX
  8
Unknown_Area_Type
  10
319068.467
  20
4661344.133
  0
VERTEX
  8
Unknown_Area_Type
  10
319117.420
  20
4663255.919
  0
VERTEX
  8
Unknown_Area_Type
  10
319119.500
  20
4663256.500
  0
VERTEX
  8
Unknown_Area_Type
  10
319121.500
  20
4663257.000
  0
VERTEX
  8
Unknown_Area_Type
  10
319305.575
  20
4663308.306
  0
VERTEX
  8
Unknown_Area_Type
  10
319305.575
  20
4661168.500
  0
SEQEND
  8
Unknown_Area_Type
  0
INSERT
  8
FeatureAttribs
  2
FEATURE
  41
1
  42
1
  43
1
  50
0
  10
318599.568
  20
4662210.101
 66
1
  0
ATTRIB
  8
FeatureAttribs
 70
0
  1
PNOA-H_AMS_1956-57_33k_ES_PAN_2
  2
NAME
  10
318599.568
  20
4662210.101
 40
34.05590
  0
SEQEND
  0
POLYLINE
  8
Unknown_Area_Type
  70
1
  66
1
  0
VERTEX
  8
Unknown_Area_Type
  10
319064.352
  20
4661183.371
  0
VERTEX
  8
Unknown_Area_Type
  10
318235.000
  20
4661234.500
  0
VERTEX
  8
Unknown_Area_Type
  10
317938.000
  20
4662926.500
  0
VERTEX
  8
Unknown_Area_Type
  10
319117.420
  20
4663255.919
  0
VERTEX
  8
Unknown_Area_Type
  10
319068.467
  20
4661344.133
  0
VERTEX
  8
Unknown_Area_Type
  10
319064.352
  20
4661183.371
  0
SEQEND
  8
Unknown_Area_Type
  0
INSERT
  8
FeatureAttribs
  2
FEATURE
  41
1
  42
1
  43
1
  50
0
  10
318599.568
  20
4662210.101
 66
1
  0
ATTRIB
  8
FeatureAttribs
 70
0
  1
PNOA-H_AMS_1956-57_33k_ES_PAN_2
  2
NAME
  10
318599.568
  20
4662210.101
 40
34.05590
  0
SEQEND
  0
POLYLINE
  8
Unknown_Area_Type
  70
1
  66
1
  0
VERTEX
  8
Unknown_Area_Type
  10
319064.352
  20
4661183.371
  0
VERTEX
  8
Unknown_Area_Type
  10
319068.467
  20
4661344.133
  0
VERTEX
  8
Unknown_Area_Type
  10
319117.420
  20
4663255.919
  0
VERTEX
  8
Unknown_Area_Type
  10
317938.000
  20
4662926.500
  0
VERTEX
  8
Unknown_Area_Type
  10
318235.000
  20
4661234.500
  0
VERTEX
  8
Unknown_Area_Type
  10
319064.352
  20
4661183.371
  0
SEQEND
  8
Unknown_Area_Type
  0
INSERT
  8
FeatureAttribs
  2
FEATURE
  41
1
  42
1
  43
1
  50
0
  10
319224.475
  20
4664269.335
 66
1
  0
ATTRIB
  8
FeatureAttribs
 70
0
  1
PNOA-H_AMS_1956-57_33k_ES_PAN_2
  2
NAME
  10
319224.475
  20
4664269.335
 40
34.05590
  0
SEQEND
  0
POLYLINE
  8
Unknown_Area_Type
  70
1
  66
1
  0
VERTEX
  8
Unknown_Area_Type
  10
319305.575
  20
4663307.847
  0
VERTEX
  8
Unknown_Area_Type
  10
319117.405
  20
4663255.337
  0
VERTEX
  8
Unknown_Area_Type
  10
319127.701
  20
4663657.445
  0
VERTEX
  8
Unknown_Area_Type
  10
319169.350
  20
4665283.332
  0
VERTEX
  8
Unknown_Area_Type
  10
319305.575
  20
4665083.474
  0
VERTEX
  8
Unknown_Area_Type
  10
319305.575
  20
4663307.847
  0
SEQEND
  8
Unknown_Area_Type
  0
INSERT
  8
FeatureAttribs
  2
FEATURE
  41
1
  42
1
  43
1
  50
0
  10
318270.463
  20
4664541.821
 66
1
  0
ATTRIB
  8
FeatureAttribs
 70
0
  1
PNOA-H_AMS_1956-57_33k_ES_PAN_2
  2
NAME
  10
318270.463
  20
4664541.821
 40
34.05590
  0
SEQEND
  0
POLYLINE
  8
Unknown_Area_Type
  70
1
  66
1
  0
VERTEX
  8
Unknown_Area_Type
  10
319117.405
  20
4663255.337
  0
VERTEX
  8
Unknown_Area_Type
  10
317939.000
  20
4662926.500
  0
VERTEX
  8
Unknown_Area_Type
  10
317937.000
  20
4662926.500
  0
VERTEX
  8
Unknown_Area_Type
  10
317917.000
  20
4662935.500
  0
VERTEX
  8
Unknown_Area_Type
  10
317353.500
  20
4663191.000
  0
VERTEX
  8
Unknown_Area_Type
  10
317360.000
  20
4664552.500
  0
VERTEX
  8
Unknown_Area_Type
  10
318144.500
  20
4666785.500
  0
VERTEX
  8
Unknown_Area_Type
  10
318147.500
  20
4666782.500
  0
VERTEX
  8
Unknown_Area_Type
  10
319169.350
  20
4665283.332
  0
VERTEX
  8
Unknown_Area_Type
  10
319127.701
  20
4663657.445
  0
VERTEX
  8
Unknown_Area_Type
  10
319117.405
  20
4663255.337
  0
SEQEND
  8
Unknown_Area_Type
  0
INSERT
  8
FeatureAttribs
  2
FEATURE
  41
1
  42
1
  43
1
  50
0
  10
318270.463
  20
4664541.821
 66
1
  0
ATTRIB
  8
FeatureAttribs
 70
0
  1
PNOA-H_AMS_1956-57_33k_ES_PAN_2
  2
NAME
  10
318270.463
  20
4664541.821
 40
34.05590
  0
SEQEND
  0
POLYLINE
  8
Unknown_Area_Type
  70
1
  66
1
  0
VERTEX
  8
Unknown_Area_Type
  10
319117.405
  20
4663255.337
  0
VERTEX
  8
Unknown_Area_Type
  10
319127.701
  20
4663657.445
  0
VERTEX
  8
Unknown_Area_Type
  10
319169.350
  20
4665283.332
  0
VERTEX
  8
Unknown_Area_Type
  10
318147.500
  20
4666782.500
  0
VERTEX
  8
Unknown_Area_Type
  10
318144.500
  20
4666785.500
  0
VERTEX
  8
Unknown_Area_Type
  10
317360.000
  20
4664552.500
  0
VERTEX
  8
Unknown_Area_Type
  10
317353.500
  20
4663191.000
  0
VERTEX
  8
Unknown_Area_Type
  10
317917.000
  20
4662935.500
  0
VERTEX
  8
Unknown_Area_Type
  10
317937.000
  20
4662926.500
  0
VERTEX
  8
Unknown_Area_Type
  10
317939.000
  20
4662926.500
  0
VERTEX
  8
Unknown_Area_Type
  10
319117.405
  20
4663255.337
  0
SEQEND
  8
Unknown_Area_Type
  0
ENDSEC
  0
EOF
