  0
SECTION
  2
HEADER
  9
$ACADVER
  1
AC1009
  9
$LUNITS
  70
2
  9
$LIMMIN
  10
313722.725
  20
4447904.030
  9
$LIMMAX
  10
342496.645
  20
4467051.520
  9
$EXTMIN
  10
313722.725
  20
4447904.030
  9
$EXTMAX
  10
342496.645
  20
4467051.520
  999
Created by Global Mapper
  999
Projection: UTM
  999
Datum: ETRS89
  999
Ground Units: meters
  999
ZONE: 30
  0
ENDSEC
  0
SECTION
  2
TABLES
  0
ENDSEC
  0
SECTION
  2
BLOCKS
  0
BLOCK
  8
FeatureAttribs
  70
0
  2
FEATURE
  3
FEATURE
  10
0.00000000
  20
0.00000000
  0
ATTDEF
  8
FeatureAttribs
  70
0
  1
 
  2
NAME
  3
NAME
  10
0.00000000
  20
0.00000000
  40
1.00000000
  0
ENDBLK
  0
ENDSEC
  0
SECTION
  2
ENTITIES
  0
INSERT
  8
FeatureAttribs
  2
FEATURE
  41
1
  42
1
  43
1
  50
0
  10
337548.231
  20
4464405.250
 66
1
  0
ATTRIB
  8
FeatureAttribs
 70
0
  1
PNOA-H_AMS_1956-57_33k_ES_PAN_21mic_H50_0578_fot_71B-22021_W.tif
  2
NAME
  10
337548.231
  20
4464405.250
 40
34.56248
  0
SEQEND
  0
POLYLINE
  8
LC_OH_2021_05_O7
  70
1
  66
1
  0
VERTEX
  8
LC_OH_2021_05_O7
  10
337447.003
  20
4465831.500
  0
VERTEX
  8
LC_OH_2021_05_O7
  10
337447.003
  20
4465832.500
  0
VERTEX
  8
LC_OH_2021_05_O7
  10
337448.003
  20
4465832.500
  0
VERTEX
  8
LC_OH_2021_05_O7
  10
337454.503
  20
4465823.000
  0
VERTEX
  8
LC_OH_2021_05_O7
  10
338703.003
  20
4463983.500
  0
VERTEX
  8
LC_OH_2021_05_O7
  10
338726.003
  20
4462982.000
  0
VERTEX
  8
LC_OH_2021_05_O7
  10
338726.003
  20
4462978.000
  0
VERTEX
  8
LC_OH_2021_05_O7
  10
338680.503
  20
4462978.000
  0
VERTEX
  8
LC_OH_2021_05_O7
  10
336554.003
  20
4462988.000
  0
VERTEX
  8
LC_OH_2021_05_O7
  10
336530.003
  20
4464127.000
  0
VERTEX
  8
LC_OH_2021_05_O7
  10
337447.003
  20
4465831.500
  0
SEQEND
  8
LC_OH_2021_05_O7
  0
INSERT
  8
FeatureAttribs
  2
FEATURE
  41
1
  42
1
  43
1
  50
0
  10
333175.626
  20
4464167.250
 66
1
  0
ATTRIB
  8
FeatureAttribs
 70
0
  1
PNOA-H_AMS_1956-57_33k_ES_PAN_21mic_H50_0578_fot_71B-22023_W.tif
  2
NAME
  10
333175.626
  20
4464167.250
 40
34.56248
  0
SEQEND
  0
POLYLINE
  8
LC_OH_2021_05_O7
  70
1
  66
1
  0
VERTEX
  8
LC_OH_2021_05_O7
  10
332911.503
  20
4465491.000
  0
VERTEX
  8
LC_OH_2021_05_O7
  10
334314.003
  20
4464229.000
  0
VERTEX
  8
LC_OH_2021_05_O7
  10
334310.003
  20
4463081.000
  0
VERTEX
  8
LC_OH_2021_05_O7
  10
333835.003
  20
4462769.000
  0
VERTEX
  8
LC_OH_2021_05_O7
  10
333822.003
  20
4462761.500
  0
VERTEX
  8
LC_OH_2021_05_O7
  10
332009.503
  20
4463209.500
  0
VERTEX
  8
LC_OH_2021_05_O7
  10
332039.503
  20
4464238.000
  0
VERTEX
  8
LC_OH_2021_05_O7
  10
332819.003
  20
4465573.000
  0
VERTEX
  8
LC_OH_2021_05_O7
  10
332821.503
  20
4465572.500
  0
VERTEX
  8
LC_OH_2021_05_O7
  10
332910.503
  20
4465491.500
  0
VERTEX
  8
LC_OH_2021_05_O7
  10
332911.503
  20
4465491.000
  0
SEQEND
  8
LC_OH_2021_05_O7
  0
INSERT
  8
FeatureAttribs
  2
FEATURE
  41
1
  42
1
  43
1
  50
0
  10
335363.776
  20
4464298.500
 66
1
  0
ATTRIB
  8
FeatureAttribs
 70
0
  1
PNOA-H_AMS_1956-57_33k_ES_PAN_21mic_H50_0578_fot_71B-22022_W.tif
  2
NAME
  10
335363.776
  20
4464298.500
 40
34.56248
  0
SEQEND
  0
POLYLINE
  8
LC_OH_2021_05_O7
  70
1
  66
1
  0
VERTEX
  8
LC_OH_2021_05_O7
  10
334314.003
  20
4464229.500
  0
VERTEX
  8
LC_OH_2021_05_O7
  10
335112.003
  20
4465701.000
  0
VERTEX
  8
LC_OH_2021_05_O7
  10
335112.503
  20
4465702.500
  0
VERTEX
  8
LC_OH_2021_05_O7
  10
336530.003
  20
4464127.500
  0
VERTEX
  8
LC_OH_2021_05_O7
  10
336554.003
  20
4462987.500
  0
VERTEX
  8
LC_OH_2021_05_O7
  10
336423.003
  20
4462895.000
  0
VERTEX
  8
LC_OH_2021_05_O7
  10
336418.503
  20
4462894.500
  0
VERTEX
  8
LC_OH_2021_05_O7
  10
334310.003
  20
4463081.000
  0
VERTEX
  8
LC_OH_2021_05_O7
  10
334314.003
  20
4464229.500
  0
SEQEND
  8
LC_OH_2021_05_O7
  0
INSERT
  8
FeatureAttribs
  2
FEATURE
  41
1
  42
1
  43
1
  50
0
  10
321735.205
  20
4465047.751
 66
1
  0
ATTRIB
  8
FeatureAttribs
 70
0
  1
PNOA-H_AMS_1956-57_33k_ES_PAN_21mic_H50_0578_fot_71B-22028_W.tif
  2
NAME
  10
321735.205
  20
4465047.751
 40
34.56248
  0
SEQEND
  0
POLYLINE
  8
LC_OH_2021_05_O7
  70
1
  66
1
  0
VERTEX
  8
LC_OH_2021_05_O7
  10
320718.502
  20
4465026.000
  0
VERTEX
  8
LC_OH_2021_05_O7
  10
321611.002
  20
4466611.500
  0
VERTEX
  8
LC_OH_2021_05_O7
  10
322671.502
  20
4465143.000
  0
VERTEX
  8
LC_OH_2021_05_O7
  10
322671.502
  20
4465142.000
  0
VERTEX
  8
LC_OH_2021_05_O7
  10
322932.502
  20
4464781.000
  0
VERTEX
  8
LC_OH_2021_05_O7
  10
322816.002
  20
4463720.000
  0
VERTEX
  8
LC_OH_2021_05_O7
  10
321238.502
  20
4463484.000
  0
VERTEX
  8
LC_OH_2021_05_O7
  10
320624.002
  20
4463797.000
  0
SEQEND
  8
LC_OH_2021_05_O7
  0
INSERT
  8
FeatureAttribs
  2
FEATURE
  41
1
  42
1
  43
1
  50
0
  10
326240.855
  20
4464668.500
 66
1
  0
ATTRIB
  8
FeatureAttribs
 70
0
  1
PNOA-H_AMS_1956-57_33k_ES_PAN_21mic_H50_0578_fot_71B-22026_W.tif
  2
NAME
  10
326240.855
  20
4464668.500
 40
34.56248
  0
SEQEND
  0
POLYLINE
  8
LC_OH_2021_05_O7
  70
1
  66
1
  0
VERTEX
  8
LC_OH_2021_05_O7
  10
325173.502
  20
4464486.000
  0
VERTEX
  8
LC_OH_2021_05_O7
  10
326198.002
  20
4466185.500
  0
VERTEX
  8
LC_OH_2021_05_O7
  10
326199.502
  20
4466186.500
  0
VERTEX
  8
LC_OH_2021_05_O7
  10
326206.502
  20
4466176.000
  0
VERTEX
  8
LC_OH_2021_05_O7
  10
326767.002
  20
4465324.000
  0
VERTEX
  8
LC_OH_2021_05_O7
  10
326767.502
  20
4465322.500
  0
VERTEX
  8
LC_OH_2021_05_O7
  10
327414.502
  20
4464340.000
  0
VERTEX
  8
LC_OH_2021_05_O7
  10
327349.002
  20
4463523.000
  0
VERTEX
  8
LC_OH_2021_05_O7
  10
326116.002
  20
4463150.500
  0
VERTEX
  8
LC_OH_2021_05_O7
  10
325114.002
  20
4463639.500
  0
SEQEND
  8
LC_OH_2021_05_O7
  0
INSERT
  8
FeatureAttribs
  2
FEATURE
  41
1
  42
1
  43
1
  50
0
  10
330869.404
  20
4464201.999
 66
1
  0
ATTRIB
  8
FeatureAttribs
 70
0
  1
PNOA-H_AMS_1956-57_33k_ES_PAN_21mic_H50_0578_fot_71B-22024_W.tif
  2
NAME
  10
330869.404
  20
4464201.999
 40
34.56248
  0
SEQEND
  0
POLYLINE
  8
LC_OH_2021_05_O7
  70
1
  66
1
  0
VERTEX
  8
LC_OH_2021_05_O7
  10
330863.503
  20
4465406.500
  0
VERTEX
  8
LC_OH_2021_05_O7
  10
332039.503
  20
4464237.500
  0
VERTEX
  8
LC_OH_2021_05_O7
  10
332009.503
  20
4463209.500
  0
VERTEX
  8
LC_OH_2021_05_O7
  10
331181.503
  20
4462788.000
  0
VERTEX
  8
LC_OH_2021_05_O7
  10
329627.503
  20
4463353.000
  0
VERTEX
  8
LC_OH_2021_05_O7
  10
329702.003
  20
4464221.500
  0
VERTEX
  8
LC_OH_2021_05_O7
  10
330652.503
  20
4465616.000
  0
VERTEX
  8
LC_OH_2021_05_O7
  10
330683.003
  20
4465587.000
  0
VERTEX
  8
LC_OH_2021_05_O7
  10
330863.003
  20
4465407.500
  0
VERTEX
  8
LC_OH_2021_05_O7
  10
330863.503
  20
4465406.500
  0
SEQEND
  8
LC_OH_2021_05_O7
  0
INSERT
  8
FeatureAttribs
  2
FEATURE
  41
1
  42
1
  43
1
  50
0
  10
323956.114
  20
4464836.500
 66
1
  0
ATTRIB
  8
FeatureAttribs
 70
0
  1
PNOA-H_AMS_1956-57_33k_ES_PAN_21mic_H50_0578_fot_71B-22027_W.tif
  2
NAME
  10
323956.114
  20
4464836.500
 40
34.56248
  0
SEQEND
  0
POLYLINE
  8
LC_OH_2021_05_O7
  70
1
  66
1
  0
VERTEX
  8
LC_OH_2021_05_O7
  10
322932.502
  20
4464781.000
  0
VERTEX
  8
LC_OH_2021_05_O7
  10
323938.502
  20
4466376.500
  0
VERTEX
  8
LC_OH_2021_05_O7
  10
324719.002
  20
4465182.500
  0
VERTEX
  8
LC_OH_2021_05_O7
  10
324719.502
  20
4465181.000
  0
VERTEX
  8
LC_OH_2021_05_O7
  10
325173.502
  20
4464486.500
  0
VERTEX
  8
LC_OH_2021_05_O7
  10
325114.002
  20
4463639.500
  0
VERTEX
  8
LC_OH_2021_05_O7
  10
323619.002
  20
4463296.500
  0
VERTEX
  8
LC_OH_2021_05_O7
  10
322816.002
  20
4463720.000
  0
SEQEND
  8
LC_OH_2021_05_O7
  0
INSERT
  8
FeatureAttribs
  2
FEATURE
  41
1
  42
1
  43
1
  50
0
  10
328511.988
  20
4464492.751
 66
1
  0
ATTRIB
  8
FeatureAttribs
 70
0
  1
PNOA-H_AMS_1956-57_33k_ES_PAN_21mic_H50_0578_fot_71B-22025_W.tif
  2
NAME
  10
328511.988
  20
4464492.751
 40
34.56248
  0
SEQEND
  0
POLYLINE
  8
LC_OH_2021_05_O7
  70
1
  66
1
  0
VERTEX
  8
LC_OH_2021_05_O7
  10
328815.503
  20
4465503.500
  0
VERTEX
  8
LC_OH_2021_05_O7
  10
329702.003
  20
4464221.500
  0
VERTEX
  8
LC_OH_2021_05_O7
  10
329627.503
  20
4463353.000
  0
VERTEX
  8
LC_OH_2021_05_O7
  10
328643.503
  20
4462966.500
  0
VERTEX
  8
LC_OH_2021_05_O7
  10
327349.002
  20
4463523.000
  0
VERTEX
  8
LC_OH_2021_05_O7
  10
327414.502
  20
4464340.000
  0
VERTEX
  8
LC_OH_2021_05_O7
  10
328459.003
  20
4466019.000
  0
VERTEX
  8
LC_OH_2021_05_O7
  10
328815.003
  20
4465505.000
  0
VERTEX
  8
LC_OH_2021_05_O7
  10
328815.503
  20
4465503.500
  0
SEQEND
  8
LC_OH_2021_05_O7
  0
INSERT
  8
FeatureAttribs
  2
FEATURE
  41
1
  42
1
  43
1
  50
0
  10
317340.280
  20
4465209.251
 66
1
  0
ATTRIB
  8
FeatureAttribs
 70
0
  1
PNOA-H_AMS_1956-57_33k_ES_PAN_21mic_H50_0578_fot_71B-22030_W.tif
  2
NAME
  10
317340.280
  20
4465209.251
 40
34.56248
  0
SEQEND
  0
POLYLINE
  8
LC_OH_2021_05_O7
  70
1
  66
1
  0
VERTEX
  8
LC_OH_2021_05_O7
  10
316206.002
  20
4465251.500
  0
VERTEX
  8
LC_OH_2021_05_O7
  10
316527.002
  20
4465985.500
  0
VERTEX
  8
LC_OH_2021_05_O7
  10
316527.002
  20
4465986.500
  0
VERTEX
  8
LC_OH_2021_05_O7
  10
316885.002
  20
4466805.500
  0
VERTEX
  8
LC_OH_2021_05_O7
  10
316887.002
  20
4466810.000
  0
VERTEX
  8
LC_OH_2021_05_O7
  10
316888.002
  20
4466810.000
  0
VERTEX
  8
LC_OH_2021_05_O7
  10
318479.002
  20
4465236.500
  0
VERTEX
  8
LC_OH_2021_05_O7
  10
318397.502
  20
4463880.500
  0
VERTEX
  8
LC_OH_2021_05_O7
  10
316888.502
  20
4463608.500
  0
VERTEX
  8
LC_OH_2021_05_O7
  10
316117.002
  20
4463921.000
  0
SEQEND
  8
LC_OH_2021_05_O7
  0
INSERT
  8
FeatureAttribs
  2
FEATURE
  41
1
  42
1
  43
1
  50
0
  10
319536.392
  20
4465165.999
 66
1
  0
ATTRIB
  8
FeatureAttribs
 70
0
  1
PNOA-H_AMS_1956-57_33k_ES_PAN_21mic_H50_0578_fot_71B-22029_W.tif
  2
NAME
  10
319536.392
  20
4465165.999
 40
34.56248
  0
SEQEND
  0
POLYLINE
  8
LC_OH_2021_05_O7
  70
1
  66
1
  0
VERTEX
  8
LC_OH_2021_05_O7
  10
318478.502
  20
4465233.500
  0
VERTEX
  8
LC_OH_2021_05_O7
  10
318479.002
  20
4465237.000
  0
VERTEX
  8
LC_OH_2021_05_O7
  10
318486.002
  20
4465251.000
  0
VERTEX
  8
LC_OH_2021_05_O7
  10
318575.002
  20
4465422.500
  0
VERTEX
  8
LC_OH_2021_05_O7
  10
318575.002
  20
4465423.500
  0
VERTEX
  8
LC_OH_2021_05_O7
  10
319253.502
  20
4466738.000
  0
VERTEX
  8
LC_OH_2021_05_O7
  10
320718.502
  20
4465025.500
  0
VERTEX
  8
LC_OH_2021_05_O7
  10
320624.002
  20
4463797.000
  0
VERTEX
  8
LC_OH_2021_05_O7
  10
319066.502
  20
4463594.000
  0
VERTEX
  8
LC_OH_2021_05_O7
  10
318397.502
  20
4463880.500
  0
SEQEND
  8
LC_OH_2021_05_O7
  0
INSERT
  8
FeatureAttribs
  2
FEATURE
  41
1
  42
1
  43
1
  50
0
  10
315030.245
  20
4465341.251
 66
1
  0
ATTRIB
  8
FeatureAttribs
 70
0
  1
PNOA-H_AMS_1956-57_33k_ES_PAN_21mic_H50_0578_fot_71B-22031_W.tif
  2
NAME
  10
315030.245
  20
4465341.251
 40
34.56248
  0
SEQEND
  0
POLYLINE
  8
LC_OH_2021_05_O7
  70
1
  66
1
  0
VERTEX
  8
LC_OH_2021_05_O7
  10
314152.647
  20
4465971.207
  0
VERTEX
  8
LC_OH_2021_05_O7
  10
314479.002
  20
4466912.500
  0
VERTEX
  8
LC_OH_2021_05_O7
  10
314479.002
  20
4466914.000
  0
VERTEX
  8
LC_OH_2021_05_O7
  10
314519.002
  20
4467029.500
  0
VERTEX
  8
LC_OH_2021_05_O7
  10
314521.502
  20
4467034.000
  0
VERTEX
  8
LC_OH_2021_05_O7
  10
316206.502
  20
4465252.500
  0
VERTEX
  8
LC_OH_2021_05_O7
  10
316117.002
  20
4463921.000
  0
VERTEX
  8
LC_OH_2021_05_O7
  10
314581.002
  20
4463649.500
  0
VERTEX
  8
LC_OH_2021_05_O7
  10
314571.002
  20
4463648.500
  0
VERTEX
  8
LC_OH_2021_05_O7
  10
314100.084
  20
4463844.293
  0
VERTEX
  8
LC_OH_2021_05_O7
  10
314122.185
  20
4464738.817
  0
SEQEND
  8
LC_OH_2021_05_O7
  0
INSERT
  8
FeatureAttribs
  2
FEATURE
  41
1
  42
1
  43
1
  50
0
  10
339711.587
  20
4464305.000
 66
1
  0
ATTRIB
  8
FeatureAttribs
 70
0
  1
PNOA-H_AMS_1956-57_33k_ES_PAN_21mic_H50_0579_fot_71B-22020_W.tif
  2
NAME
  10
339711.587
  20
4464305.000
 40
34.56248
  0
SEQEND
  0
POLYLINE
  8
LC_OH_2021_05_O7
  70
1
  66
1
  0
VERTEX
  8
LC_OH_2021_05_O7
  10
339618.003
  20
4465738.500
  0
VERTEX
  8
LC_OH_2021_05_O7
  10
339618.503
  20
4465740.000
  0
VERTEX
  8
LC_OH_2021_05_O7
  10
340920.003
  20
4463740.000
  0
VERTEX
  8
LC_OH_2021_05_O7
  10
340947.003
  20
4463053.500
  0
VERTEX
  8
LC_OH_2021_05_O7
  10
338886.003
  20
4462870.000
  0
VERTEX
  8
LC_OH_2021_05_O7
  10
338882.503
  20
4462870.000
  0
VERTEX
  8
LC_OH_2021_05_O7
  10
338879.503
  20
4462872.000
  0
VERTEX
  8
LC_OH_2021_05_O7
  10
338726.003
  20
4462978.000
  0
VERTEX
  8
LC_OH_2021_05_O7
  10
338703.003
  20
4463983.000
  0
VERTEX
  8
LC_OH_2021_05_O7
  10
339618.003
  20
4465738.500
  0
SEQEND
  8
LC_OH_2021_05_O7
  0
INSERT
  8
FeatureAttribs
  2
FEATURE
  41
1
  42
1
  43
1
  50
0
  10
341880.260
  20
4464522.499
 66
1
  0
ATTRIB
  8
FeatureAttribs
 70
0
  1
PNOA-H_AMS_1956-57_33k_ES_PAN_21mic_H50_0579_fot_71B-22019_W.tif
  2
NAME
  10
341880.260
  20
4464522.499
 40
34.56248
  0
SEQEND
  0
POLYLINE
  8
LC_OH_2021_05_O7
  70
1
  66
1
  0
VERTEX
  8
LC_OH_2021_05_O7
  10
342425.704
  20
4463017.848
  0
VERTEX
  8
LC_OH_2021_05_O7
  10
341317.003
  20
4462838.500
  0
VERTEX
  8
LC_OH_2021_05_O7
  10
340947.003
  20
4463053.500
  0
VERTEX
  8
LC_OH_2021_05_O7
  10
340920.003
  20
4463736.500
  0
VERTEX
  8
LC_OH_2021_05_O7
  10
340920.003
  20
4463740.000
  0
VERTEX
  8
LC_OH_2021_05_O7
  10
340927.503
  20
4463763.000
  0
VERTEX
  8
LC_OH_2021_05_O7
  10
341731.003
  20
4466200.000
  0
VERTEX
  8
LC_OH_2021_05_O7
  10
341734.003
  20
4466206.500
  0
VERTEX
  8
LC_OH_2021_05_O7
  10
342462.218
  20
4464761.373
  0
VERTEX
  8
LC_OH_2021_05_O7
  10
342448.200
  20
4464092.194
  0
SEQEND
  8
LC_OH_2021_05_O7
  0
INSERT
  8
FeatureAttribs
  2
FEATURE
  41
1
  42
1
  43
1
  50
0
  10
314327.416
  20
4461815.087
 66
1
  0
ATTRIB
  8
FeatureAttribs
 70
0
  1
PNOA-H_AMS_1956-57_33k_ES_PAN_21mic_H50_0577_fot_72C-47898_W.tif
  2
NAME
  10
314327.416
  20
4461815.087
 40
34.56248
  0
SEQEND
  0
POLYLINE
  8
LC_OH_2021_05_O7
  70
1
  66
1
  0
VERTEX
  8
LC_OH_2021_05_O7
  10
314100.097
  20
4463844.832
  0
VERTEX
  8
LC_OH_2021_05_O7
  10
314572.502
  20
4463648.500
  0
VERTEX
  8
LC_OH_2021_05_O7
  10
314655.002
  20
4459878.000
  0
VERTEX
  8
LC_OH_2021_05_O7
  10
314555.002
  20
4459819.000
  0
VERTEX
  8
LC_OH_2021_05_O7
  10
313999.831
  20
4459785.341
  0
VERTEX
  8
LC_OH_2021_05_O7
  10
314007.930
  20
4460113.433
  0
VERTEX
  8
LC_OH_2021_05_O7
  10
314065.045
  20
4462426.121
  0
SEQEND
  8
LC_OH_2021_05_O7
  0
INSERT
  8
FeatureAttribs
  2
FEATURE
  41
1
  42
1
  43
1
  50
0
  10
341899.138
  20
4460870.399
 66
1
  0
ATTRIB
  8
FeatureAttribs
 70
0
  1
PNOA-H_AMS_1956-57_33k_ES_PAN_21mic_H50_0578_fot_000-47886_R.tif
  2
NAME
  10
341899.138
  20
4460870.399
 40
34.56248
  0
SEQEND
  0
POLYLINE
  8
LC_OH_2021_05_O7
  70
1
  66
1
  0
VERTEX
  8
LC_OH_2021_05_O7
  10
342425.708
  20
4463018.059
  0
VERTEX
  8
LC_OH_2021_05_O7
  10
342399.775
  20
4461779.577
  0
VERTEX
  8
LC_OH_2021_05_O7
  10
342351.372
  20
4459466.967
  0
VERTEX
  8
LC_OH_2021_05_O7
  10
342336.234
  20
4458743.392
  0
VERTEX
  8
LC_OH_2021_05_O7
  10
341281.003
  20
4459103.500
  0
VERTEX
  8
LC_OH_2021_05_O7
  10
341317.503
  20
4462838.500
  0
SEQEND
  8
LC_OH_2021_05_O7
  0
INSERT
  8
FeatureAttribs
  2
FEATURE
  41
1
  42
1
  43
1
  50
0
  10
337589.754
  20
4460939.750
 66
1
  0
ATTRIB
  8
FeatureAttribs
 70
0
  1
PNOA-H_AMS_1956-57_33k_ES_PAN_21mic_H50_0578_fot_000-47888_R.tif
  2
NAME
  10
337589.754
  20
4460939.750
 40
34.56248
  0
SEQEND
  0
POLYLINE
  8
LC_OH_2021_05_O7
  70
1
  66
1
  0
VERTEX
  8
LC_OH_2021_05_O7
  10
336421.503
  20
4462894.500
  0
VERTEX
  8
LC_OH_2021_05_O7
  10
336554.003
  20
4462988.000
  0
VERTEX
  8
LC_OH_2021_05_O7
  10
336897.503
  20
4462986.000
  0
VERTEX
  8
LC_OH_2021_05_O7
  10
337007.503
  20
4462986.000
  0
VERTEX
  8
LC_OH_2021_05_O7
  10
338726.503
  20
4462978.000
  0
VERTEX
  8
LC_OH_2021_05_O7
  10
338883.003
  20
4462870.000
  0
VERTEX
  8
LC_OH_2021_05_O7
  10
338743.003
  20
4459087.500
  0
VERTEX
  8
LC_OH_2021_05_O7
  10
338742.503
  20
4459084.000
  0
VERTEX
  8
LC_OH_2021_05_O7
  10
338737.003
  20
4459083.500
  0
VERTEX
  8
LC_OH_2021_05_O7
  10
336461.503
  20
4458891.500
  0
VERTEX
  8
LC_OH_2021_05_O7
  10
336454.503
  20
4458891.500
  0
VERTEX
  8
LC_OH_2021_05_O7
  10
336452.503
  20
4458892.500
  0
VERTEX
  8
LC_OH_2021_05_O7
  10
336314.003
  20
4458970.500
  0
VERTEX
  8
LC_OH_2021_05_O7
  10
336421.503
  20
4462894.500
  0
SEQEND
  8
LC_OH_2021_05_O7
  0
INSERT
  8
FeatureAttribs
  2
FEATURE
  41
1
  42
1
  43
1
  50
0
  10
335089.755
  20
4461025.749
 66
1
  0
ATTRIB
  8
FeatureAttribs
 70
0
  1
PNOA-H_AMS_1956-57_33k_ES_PAN_21mic_H50_0578_fot_000-47889_R.tif
  2
NAME
  10
335089.755
  20
4461025.749
 40
34.56248
  0
SEQEND
  0
POLYLINE
  8
LC_OH_2021_05_O7
  70
1
  66
1
  0
VERTEX
  8
LC_OH_2021_05_O7
  10
333823.003
  20
4462761.500
  0
VERTEX
  8
LC_OH_2021_05_O7
  10
334309.503
  20
4463081.000
  0
VERTEX
  8
LC_OH_2021_05_O7
  10
334958.503
  20
4463023.500
  0
VERTEX
  8
LC_OH_2021_05_O7
  10
334959.503
  20
4463023.500
  0
VERTEX
  8
LC_OH_2021_05_O7
  10
336421.503
  20
4462894.500
  0
VERTEX
  8
LC_OH_2021_05_O7
  10
336314.003
  20
4458970.500
  0
VERTEX
  8
LC_OH_2021_05_O7
  10
333794.003
  20
4459114.000
  0
VERTEX
  8
LC_OH_2021_05_O7
  10
333823.003
  20
4462761.500
  0
SEQEND
  8
LC_OH_2021_05_O7
  0
INSERT
  8
FeatureAttribs
  2
FEATURE
  41
1
  42
1
  43
1
  50
0
  10
327289.052
  20
4461342.500
 66
1
  0
ATTRIB
  8
FeatureAttribs
 70
0
  1
PNOA-H_AMS_1956-57_33k_ES_PAN_21mic_H50_0578_fot_000-47892_R.tif
  2
NAME
  10
327289.052
  20
4461342.500
 40
34.56248
  0
SEQEND
  0
POLYLINE
  8
LC_OH_2021_05_O7
  70
1
  66
1
  0
VERTEX
  8
LC_OH_2021_05_O7
  10
328386.003
  20
4459198.500
  0
VERTEX
  8
LC_OH_2021_05_O7
  10
328308.503
  20
4459165.000
  0
VERTEX
  8
LC_OH_2021_05_O7
  10
328299.003
  20
4459162.000
  0
VERTEX
  8
LC_OH_2021_05_O7
  10
325965.502
  20
4459433.000
  0
VERTEX
  8
LC_OH_2021_05_O7
  10
326117.002
  20
4463150.500
  0
VERTEX
  8
LC_OH_2021_05_O7
  10
327348.002
  20
4463523.000
  0
VERTEX
  8
LC_OH_2021_05_O7
  10
327389.502
  20
4463506.000
  0
VERTEX
  8
LC_OH_2021_05_O7
  10
328644.003
  20
4462966.500
  0
VERTEX
  8
LC_OH_2021_05_O7
  10
328392.003
  20
4459219.000
  0
VERTEX
  8
LC_OH_2021_05_O7
  10
328390.503
  20
4459200.000
  0
VERTEX
  8
LC_OH_2021_05_O7
  10
328387.003
  20
4459198.500
  0
VERTEX
  8
LC_OH_2021_05_O7
  10
328386.003
  20
4459198.500
  0
SEQEND
  8
LC_OH_2021_05_O7
  0
INSERT
  8
FeatureAttribs
  2
FEATURE
  41
1
  42
1
  43
1
  50
0
  10
332467.345
  20
4461120.000
 66
1
  0
ATTRIB
  8
FeatureAttribs
 70
0
  1
PNOA-H_AMS_1956-57_33k_ES_PAN_21mic_H50_0578_fot_000-47890_R.tif
  2
NAME
  10
332467.345
  20
4461120.000
 40
34.56248
  0
SEQEND
  0
POLYLINE
  8
LC_OH_2021_05_O7
  70
1
  66
1
  0
VERTEX
  8
LC_OH_2021_05_O7
  10
332911.503
  20
4462986.500
  0
VERTEX
  8
LC_OH_2021_05_O7
  10
333823.003
  20
4462761.500
  0
VERTEX
  8
LC_OH_2021_05_O7
  10
333794.003
  20
4459114.000
  0
VERTEX
  8
LC_OH_2021_05_O7
  10
333626.003
  20
4459030.500
  0
VERTEX
  8
LC_OH_2021_05_O7
  10
331055.503
  20
4459085.500
  0
VERTEX
  8
LC_OH_2021_05_O7
  10
331181.503
  20
4462788.000
  0
VERTEX
  8
LC_OH_2021_05_O7
  10
332008.503
  20
4463209.500
  0
VERTEX
  8
LC_OH_2021_05_O7
  10
332909.503
  20
4462987.000
  0
VERTEX
  8
LC_OH_2021_05_O7
  10
332911.503
  20
4462986.500
  0
SEQEND
  8
LC_OH_2021_05_O7
  0
INSERT
  8
FeatureAttribs
  2
FEATURE
  41
1
  42
1
  43
1
  50
0
  10
340054.522
  20
4460912.250
 66
1
  0
ATTRIB
  8
FeatureAttribs
 70
0
  1
PNOA-H_AMS_1956-57_33k_ES_PAN_21mic_H50_0578_fot_000-47887_R.tif
  2
NAME
  10
340054.522
  20
4460912.250
 40
34.56248
  0
SEQEND
  0
POLYLINE
  8
LC_OH_2021_05_O7
  70
1
  66
1
  0
VERTEX
  8
LC_OH_2021_05_O7
  10
338883.003
  20
4462870.000
  0
VERTEX
  8
LC_OH_2021_05_O7
  10
339049.003
  20
4462885.000
  0
VERTEX
  8
LC_OH_2021_05_O7
  10
339055.003
  20
4462885.500
  0
VERTEX
  8
LC_OH_2021_05_O7
  10
340947.503
  20
4463053.500
  0
VERTEX
  8
LC_OH_2021_05_O7
  10
341317.503
  20
4462838.500
  0
VERTEX
  8
LC_OH_2021_05_O7
  10
341281.003
  20
4459103.500
  0
VERTEX
  8
LC_OH_2021_05_O7
  10
339469.503
  20
4458771.000
  0
VERTEX
  8
LC_OH_2021_05_O7
  10
339464.503
  20
4458771.500
  0
VERTEX
  8
LC_OH_2021_05_O7
  10
338742.503
  20
4459084.000
  0
SEQEND
  8
LC_OH_2021_05_O7
  0
INSERT
  8
FeatureAttribs
  2
FEATURE
  41
1
  42
1
  43
1
  50
0
  10
322429.797
  20
4461542.499
 66
1
  0
ATTRIB
  8
FeatureAttribs
 70
0
  1
PNOA-H_AMS_1956-57_33k_ES_PAN_21mic_H50_0578_fot_000-47894_R.tif
  2
NAME
  10
322429.797
  20
4461542.499
 40
34.56248
  0
SEQEND
  0
POLYLINE
  8
LC_OH_2021_05_O7
  70
1
  66
1
  0
VERTEX
  8
LC_OH_2021_05_O7
  10
322813.002
  20
4463720.000
  0
VERTEX
  8
LC_OH_2021_05_O7
  10
322817.002
  20
4463720.000
  0
VERTEX
  8
LC_OH_2021_05_O7
  10
322822.002
  20
4463717.500
  0
VERTEX
  8
LC_OH_2021_05_O7
  10
323619.002
  20
4463297.000
  0
VERTEX
  8
LC_OH_2021_05_O7
  10
323601.502
  20
4459692.500
  0
VERTEX
  8
LC_OH_2021_05_O7
  10
322577.002
  20
4459365.000
  0
VERTEX
  8
LC_OH_2021_05_O7
  10
321258.002
  20
4459752.500
  0
VERTEX
  8
LC_OH_2021_05_O7
  10
321239.502
  20
4463484.000
  0
VERTEX
  8
LC_OH_2021_05_O7
  10
322809.502
  20
4463719.500
  0
VERTEX
  8
LC_OH_2021_05_O7
  10
322813.002
  20
4463720.000
  0
SEQEND
  8
LC_OH_2021_05_O7
  0
INSERT
  8
FeatureAttribs
  2
FEATURE
  41
1
  42
1
  43
1
  50
0
  10
324829.208
  20
4461465.000
 66
1
  0
ATTRIB
  8
FeatureAttribs
 70
0
  1
PNOA-H_AMS_1956-57_33k_ES_PAN_21mic_H50_0578_fot_000-47893_R.tif
  2
NAME
  10
324829.208
  20
4461465.000
 40
34.56248
  0
SEQEND
  0
POLYLINE
  8
LC_OH_2021_05_O7
  70
1
  66
1
  0
VERTEX
  8
LC_OH_2021_05_O7
  10
325112.002
  20
4463639.500
  0
VERTEX
  8
LC_OH_2021_05_O7
  10
325115.002
  20
4463639.500
  0
VERTEX
  8
LC_OH_2021_05_O7
  10
325122.502
  20
4463636.000
  0
VERTEX
  8
LC_OH_2021_05_O7
  10
326117.002
  20
4463150.500
  0
VERTEX
  8
LC_OH_2021_05_O7
  10
325965.502
  20
4459433.000
  0
VERTEX
  8
LC_OH_2021_05_O7
  10
325587.002
  20
4459290.500
  0
VERTEX
  8
LC_OH_2021_05_O7
  10
323601.502
  20
4459692.500
  0
VERTEX
  8
LC_OH_2021_05_O7
  10
323619.002
  20
4463296.500
  0
VERTEX
  8
LC_OH_2021_05_O7
  10
325109.502
  20
4463639.000
  0
VERTEX
  8
LC_OH_2021_05_O7
  10
325112.002
  20
4463639.500
  0
SEQEND
  8
LC_OH_2021_05_O7
  0
INSERT
  8
FeatureAttribs
  2
FEATURE
  41
1
  42
1
  43
1
  50
0
  10
320165.790
  20
4461625.251
 66
1
  0
ATTRIB
  8
FeatureAttribs
 70
0
  1
PNOA-H_AMS_1956-57_33k_ES_PAN_21mic_H50_0578_fot_000-47895_R.tif
  2
NAME
  10
320165.790
  20
4461625.251
 40
34.56248
  0
SEQEND
  0
POLYLINE
  8
LC_OH_2021_05_O7
  70
1
  66
1
  0
VERTEX
  8
LC_OH_2021_05_O7
  10
320623.502
  20
4463797.000
  0
VERTEX
  8
LC_OH_2021_05_O7
  10
320638.002
  20
4463790.500
  0
VERTEX
  8
LC_OH_2021_05_O7
  10
321239.502
  20
4463484.000
  0
VERTEX
  8
LC_OH_2021_05_O7
  10
321258.002
  20
4459752.500
  0
VERTEX
  8
LC_OH_2021_05_O7
  10
319839.502
  20
4459453.500
  0
VERTEX
  8
LC_OH_2021_05_O7
  10
319712.502
  20
4459498.500
  0
VERTEX
  8
LC_OH_2021_05_O7
  10
319097.002
  20
4459814.500
  0
VERTEX
  8
LC_OH_2021_05_O7
  10
319067.502
  20
4463594.000
  0
VERTEX
  8
LC_OH_2021_05_O7
  10
320621.002
  20
4463797.000
  0
VERTEX
  8
LC_OH_2021_05_O7
  10
320623.502
  20
4463797.000
  0
SEQEND
  8
LC_OH_2021_05_O7
  0
INSERT
  8
FeatureAttribs
  2
FEATURE
  41
1
  42
1
  43
1
  50
0
  10
329825.578
  20
4461189.750
 66
1
  0
ATTRIB
  8
FeatureAttribs
 70
0
  1
PNOA-H_AMS_1956-57_33k_ES_PAN_21mic_H50_0578_fot_000-47891_R.tif
  2
NAME
  10
329825.578
  20
4461189.750
 40
34.56248
  0
SEQEND
  0
POLYLINE
  8
LC_OH_2021_05_O7
  70
1
  66
1
  0
VERTEX
  8
LC_OH_2021_05_O7
  10
331059.503
  20
4459198.500
  0
VERTEX
  8
LC_OH_2021_05_O7
  10
331055.503
  20
4459085.500
  0
VERTEX
  8
LC_OH_2021_05_O7
  10
330939.003
  20
4459026.500
  0
VERTEX
  8
LC_OH_2021_05_O7
  10
330936.503
  20
4459026.500
  0
VERTEX
  8
LC_OH_2021_05_O7
  10
328390.503
  20
4459200.000
  0
VERTEX
  8
LC_OH_2021_05_O7
  10
328643.503
  20
4462965.500
  0
VERTEX
  8
LC_OH_2021_05_O7
  10
328644.003
  20
4462967.000
  0
VERTEX
  8
LC_OH_2021_05_O7
  10
328651.503
  20
4462970.000
  0
VERTEX
  8
LC_OH_2021_05_O7
  10
329626.503
  20
4463353.000
  0
VERTEX
  8
LC_OH_2021_05_O7
  10
329630.503
  20
4463352.500
  0
VERTEX
  8
LC_OH_2021_05_O7
  10
331181.503
  20
4462788.500
  0
VERTEX
  8
LC_OH_2021_05_O7
  10
331059.503
  20
4459211.000
  0
VERTEX
  8
LC_OH_2021_05_O7
  10
331059.503
  20
4459198.500
  0
SEQEND
  8
LC_OH_2021_05_O7
  0
INSERT
  8
FeatureAttribs
  2
FEATURE
  41
1
  42
1
  43
1
  50
0
  10
318008.080
  20
4461847.500
 66
1
  0
ATTRIB
  8
FeatureAttribs
 70
0
  1
PNOA-H_AMS_1956-57_33k_ES_PAN_21mic_H50_0578_fot_000-47896_R.tif
  2
NAME
  10
318008.080
  20
4461847.500
 40
34.56248
  0
SEQEND
  0
POLYLINE
  8
LC_OH_2021_05_O7
  70
1
  66
1
  0
VERTEX
  8
LC_OH_2021_05_O7
  10
318575.502
  20
4463804.500
  0
VERTEX
  8
LC_OH_2021_05_O7
  10
319067.502
  20
4463594.000
  0
VERTEX
  8
LC_OH_2021_05_O7
  10
319097.002
  20
4459814.500
  0
VERTEX
  8
LC_OH_2021_05_O7
  10
316987.502
  20
4459840.500
  0
VERTEX
  8
LC_OH_2021_05_O7
  10
316889.002
  20
4463608.500
  0
VERTEX
  8
LC_OH_2021_05_O7
  10
318395.002
  20
4463880.500
  0
VERTEX
  8
LC_OH_2021_05_O7
  10
318398.502
  20
4463880.500
  0
VERTEX
  8
LC_OH_2021_05_O7
  10
318573.502
  20
4463805.000
  0
VERTEX
  8
LC_OH_2021_05_O7
  10
318575.502
  20
4463804.500
  0
SEQEND
  8
LC_OH_2021_05_O7
  0
INSERT
  8
FeatureAttribs
  2
FEATURE
  41
1
  42
1
  43
1
  50
0
  10
315773.064
  20
4461864.001
 66
1
  0
ATTRIB
  8
FeatureAttribs
 70
0
  1
PNOA-H_AMS_1956-57_33k_ES_PAN_21mic_H50_0578_fot_000-47897_R.tif
  2
NAME
  10
315773.064
  20
4461864.001
 40
34.56248
  0
SEQEND
  0
POLYLINE
  8
LC_OH_2021_05_O7
  70
1
  66
1
  0
VERTEX
  8
LC_OH_2021_05_O7
  10
316115.002
  20
4463921.000
  0
VERTEX
  8
LC_OH_2021_05_O7
  10
316121.502
  20
4463919.500
  0
VERTEX
  8
LC_OH_2021_05_O7
  10
316526.502
  20
4463755.000
  0
VERTEX
  8
LC_OH_2021_05_O7
  10
316527.502
  20
4463754.500
  0
VERTEX
  8
LC_OH_2021_05_O7
  10
316889.002
  20
4463608.500
  0
VERTEX
  8
LC_OH_2021_05_O7
  10
316987.502
  20
4459840.500
  0
VERTEX
  8
LC_OH_2021_05_O7
  10
316927.002
  20
4459807.000
  0
VERTEX
  8
LC_OH_2021_05_O7
  10
316915.502
  20
4459807.000
  0
VERTEX
  8
LC_OH_2021_05_O7
  10
314655.002
  20
4459878.000
  0
VERTEX
  8
LC_OH_2021_05_O7
  10
314572.502
  20
4463648.500
  0
SEQEND
  8
LC_OH_2021_05_O7
  0
INSERT
  8
FeatureAttribs
  2
FEATURE
  41
1
  42
1
  43
1
  50
0
  10
316315.314
  20
4451925.999
 66
1
  0
ATTRIB
  8
FeatureAttribs
 70
0
  1
PNOA-H_AMS_1956-57_33k_ES_PAN_21mic_H50_0578_fot_000-47955_R.tif
  2
NAME
  10
316315.314
  20
4451925.999
 40
34.56248
  0
SEQEND
  0
POLYLINE
  8
LC_OH_2021_05_O7
  70
1
  66
1
  0
VERTEX
  8
LC_OH_2021_05_O7
  10
315033.502
  20
4453683.000
  0
VERTEX
  8
LC_OH_2021_05_O7
  10
317003.502
  20
4454149.500
  0
VERTEX
  8
LC_OH_2021_05_O7
  10
317005.502
  20
4454150.000
  0
VERTEX
  8
LC_OH_2021_05_O7
  10
317008.002
  20
4454150.000
  0
VERTEX
  8
LC_OH_2021_05_O7
  10
317012.002
  20
4454147.500
  0
VERTEX
  8
LC_OH_2021_05_O7
  10
317875.502
  20
4453544.000
  0
VERTEX
  8
LC_OH_2021_05_O7
  10
317628.502
  20
4449829.000
  0
VERTEX
  8
LC_OH_2021_05_O7
  10
317362.002
  20
4449702.000
  0
VERTEX
  8
LC_OH_2021_05_O7
  10
315759.002
  20
4449790.000
  0
VERTEX
  8
LC_OH_2021_05_O7
  10
314670.502
  20
4449949.500
  0
SEQEND
  8
LC_OH_2021_05_O7
  0
INSERT
  8
FeatureAttribs
  2
FEATURE
  41
1
  42
1
  43
1
  50
0
  10
314394.270
  20
4452028.000
 66
1
  0
ATTRIB
  8
FeatureAttribs
 70
0
  1
PNOA-H_AMS_1956-57_33k_ES_PAN_21mic_H50_0577_fot_000-47954_R.tif
  2
NAME
  10
314394.270
  20
4452028.000
 40
34.56248
  0
SEQEND
  0
POLYLINE
  8
LC_OH_2021_05_O7
  70
1
  66
1
  0
VERTEX
  8
LC_OH_2021_05_O7
  10
313861.249
  20
4454169.377
  0
VERTEX
  8
LC_OH_2021_05_O7
  10
314273.002
  20
4454253.000
  0
VERTEX
  8
LC_OH_2021_05_O7
  10
314276.502
  20
4454252.500
  0
VERTEX
  8
LC_OH_2021_05_O7
  10
315033.502
  20
4453683.000
  0
VERTEX
  8
LC_OH_2021_05_O7
  10
314671.002
  20
4449950.500
  0
VERTEX
  8
LC_OH_2021_05_O7
  10
314670.002
  20
4449949.000
  0
VERTEX
  8
LC_OH_2021_05_O7
  10
314649.502
  20
4449942.000
  0
VERTEX
  8
LC_OH_2021_05_O7
  10
314238.002
  20
4449803.000
  0
VERTEX
  8
LC_OH_2021_05_O7
  10
313755.037
  20
4449861.286
  0
VERTEX
  8
LC_OH_2021_05_O7
  10
313779.717
  20
4450862.750
  0
VERTEX
  8
LC_OH_2021_05_O7
  10
313836.733
  20
4453175.410
  0
SEQEND
  8
LC_OH_2021_05_O7
  0
INSERT
  8
FeatureAttribs
  2
FEATURE
  41
1
  42
1
  43
1
  50
0
  10
319293.716
  20
4451854.750
 66
1
  0
ATTRIB
  8
FeatureAttribs
 70
0
  1
PNOA-H_AMS_1956-57_33k_ES_PAN_21mic_H50_0578_fot_000-47956_R.tif
  2
NAME
  10
319293.716
  20
4451854.750
 40
34.56248
  0
SEQEND
  0
POLYLINE
  8
LC_OH_2021_05_O7
  70
1
  66
1
  0
VERTEX
  8
LC_OH_2021_05_O7
  10
318574.002
  20
4453756.500
  0
VERTEX
  8
LC_OH_2021_05_O7
  10
319721.002
  20
4454105.000
  0
VERTEX
  8
LC_OH_2021_05_O7
  10
320901.002
  20
4453503.000
  0
VERTEX
  8
LC_OH_2021_05_O7
  10
320724.002
  20
4449704.000
  0
VERTEX
  8
LC_OH_2021_05_O7
  10
320723.002
  20
4449699.500
  0
VERTEX
  8
LC_OH_2021_05_O7
  10
320541.502
  20
4449604.500
  0
VERTEX
  8
LC_OH_2021_05_O7
  10
319432.002
  20
4449640.500
  0
VERTEX
  8
LC_OH_2021_05_O7
  10
317628.502
  20
4449829.000
  0
VERTEX
  8
LC_OH_2021_05_O7
  10
317875.502
  20
4453543.500
  0
VERTEX
  8
LC_OH_2021_05_O7
  10
318572.502
  20
4453756.000
  0
VERTEX
  8
LC_OH_2021_05_O7
  10
318574.002
  20
4453756.500
  0
SEQEND
  8
LC_OH_2021_05_O7
  0
INSERT
  8
FeatureAttribs
  2
FEATURE
  41
1
  42
1
  43
1
  50
0
  10
322344.768
  20
4451819.999
 66
1
  0
ATTRIB
  8
FeatureAttribs
 70
0
  1
PNOA-H_AMS_1956-57_33k_ES_PAN_21mic_H50_0578_fot_000-47957_R.tif
  2
NAME
  10
322344.768
  20
4451819.999
 40
34.56248
  0
SEQEND
  0
POLYLINE
  8
LC_OH_2021_05_O7
  70
1
  66
1
  0
VERTEX
  8
LC_OH_2021_05_O7
  10
322671.502
  20
4454050.500
  0
VERTEX
  8
LC_OH_2021_05_O7
  10
323872.502
  20
4453484.500
  0
VERTEX
  8
LC_OH_2021_05_O7
  10
323860.002
  20
4449647.000
  0
VERTEX
  8
LC_OH_2021_05_O7
  10
323616.502
  20
4449508.000
  0
VERTEX
  8
LC_OH_2021_05_O7
  10
323609.502
  20
4449508.000
  0
VERTEX
  8
LC_OH_2021_05_O7
  10
320723.502
  20
4449700.000
  0
VERTEX
  8
LC_OH_2021_05_O7
  10
320901.002
  20
4453503.000
  0
VERTEX
  8
LC_OH_2021_05_O7
  10
322499.502
  20
4454132.000
  0
VERTEX
  8
LC_OH_2021_05_O7
  10
322670.502
  20
4454051.000
  0
VERTEX
  8
LC_OH_2021_05_O7
  10
322671.502
  20
4454050.500
  0
SEQEND
  8
LC_OH_2021_05_O7
  0
INSERT
  8
FeatureAttribs
  2
FEATURE
  41
1
  42
1
  43
1
  50
0
  10
328376.614
  20
4451847.000
 66
1
  0
ATTRIB
  8
FeatureAttribs
 70
0
  1
PNOA-H_AMS_1956-57_33k_ES_PAN_21mic_H50_0578_fot_000-47959_R.tif
  2
NAME
  10
328376.614
  20
4451847.000
 40
34.56248
  0
SEQEND
  0
POLYLINE
  8
LC_OH_2021_05_O7
  70
1
  66
1
  0
VERTEX
  8
LC_OH_2021_05_O7
  10
328815.503
  20
4454124.500
  0
VERTEX
  8
LC_OH_2021_05_O7
  10
329908.003
  20
4453615.500
  0
VERTEX
  8
LC_OH_2021_05_O7
  10
329740.003
  20
4449525.500
  0
VERTEX
  8
LC_OH_2021_05_O7
  10
326869.002
  20
4449571.000
  0
VERTEX
  8
LC_OH_2021_05_O7
  10
326953.002
  20
4453485.000
  0
VERTEX
  8
LC_OH_2021_05_O7
  10
328717.503
  20
4454167.500
  0
VERTEX
  8
LC_OH_2021_05_O7
  10
328721.503
  20
4454168.500
  0
VERTEX
  8
LC_OH_2021_05_O7
  10
328814.503
  20
4454124.500
  0
VERTEX
  8
LC_OH_2021_05_O7
  10
328815.503
  20
4454124.500
  0
SEQEND
  8
LC_OH_2021_05_O7
  0
INSERT
  8
FeatureAttribs
  2
FEATURE
  41
1
  42
1
  43
1
  50
0
  10
331253.022
  20
4451784.750
 66
1
  0
ATTRIB
  8
FeatureAttribs
 70
0
  1
PNOA-H_AMS_1956-57_33k_ES_PAN_21mic_H50_0578_fot_000-47960_R.tif
  2
NAME
  10
331253.022
  20
4451784.750
 40
34.56248
  0
SEQEND
  0
POLYLINE
  8
LC_OH_2021_05_O7
  70
1
  66
1
  0
VERTEX
  8
LC_OH_2021_05_O7
  10
332053.503
  20
4454189.500
  0
VERTEX
  8
LC_OH_2021_05_O7
  10
332728.003
  20
4454027.500
  0
VERTEX
  8
LC_OH_2021_05_O7
  10
332619.503
  20
4449585.000
  0
VERTEX
  8
LC_OH_2021_05_O7
  10
329992.503
  20
4449380.000
  0
VERTEX
  8
LC_OH_2021_05_O7
  10
329985.003
  20
4449381.000
  0
VERTEX
  8
LC_OH_2021_05_O7
  10
329740.003
  20
4449525.500
  0
VERTEX
  8
LC_OH_2021_05_O7
  10
329908.003
  20
4453615.500
  0
VERTEX
  8
LC_OH_2021_05_O7
  10
332053.503
  20
4454189.500
  0
SEQEND
  8
LC_OH_2021_05_O7
  0
INSERT
  8
FeatureAttribs
  2
FEATURE
  41
1
  42
1
  43
1
  50
0
  10
325392.557
  20
4451851.000
 66
1
  0
ATTRIB
  8
FeatureAttribs
 70
0
  1
PNOA-H_AMS_1956-57_33k_ES_PAN_21mic_H50_0578_fot_000-47958_R.tif
  2
NAME
  10
325392.557
  20
4451851.000
 40
34.56248
  0
SEQEND
  0
POLYLINE
  8
LC_OH_2021_05_O7
  70
1
  66
1
  0
VERTEX
  8
LC_OH_2021_05_O7
  10
324718.002
  20
4453831.000
  0
VERTEX
  8
LC_OH_2021_05_O7
  10
325544.002
  20
4454168.500
  0
VERTEX
  8
LC_OH_2021_05_O7
  10
326953.002
  20
4453485.500
  0
VERTEX
  8
LC_OH_2021_05_O7
  10
326869.002
  20
4449571.000
  0
VERTEX
  8
LC_OH_2021_05_O7
  10
326807.502
  20
4449534.000
  0
VERTEX
  8
LC_OH_2021_05_O7
  10
326793.002
  20
4449533.500
  0
VERTEX
  8
LC_OH_2021_05_O7
  10
323860.002
  20
4449647.000
  0
VERTEX
  8
LC_OH_2021_05_O7
  10
323872.502
  20
4453484.500
  0
VERTEX
  8
LC_OH_2021_05_O7
  10
324717.002
  20
4453830.500
  0
VERTEX
  8
LC_OH_2021_05_O7
  10
324718.002
  20
4453831.000
  0
SEQEND
  8
LC_OH_2021_05_O7
  0
INSERT
  8
FeatureAttribs
  2
FEATURE
  41
1
  42
1
  43
1
  50
0
  10
333946.772
  20
4451797.749
 66
1
  0
ATTRIB
  8
FeatureAttribs
 70
0
  1
PNOA-H_AMS_1956-57_33k_ES_PAN_21mic_H50_0578_fot_000-47961_R.tif
  2
NAME
  10
333946.772
  20
4451797.749
 40
34.56248
  0
SEQEND
  0
POLYLINE
  8
LC_OH_2021_05_O7
  70
1
  66
1
  0
VERTEX
  8
LC_OH_2021_05_O7
  10
335320.003
  20
4454085.937
  0
VERTEX
  8
LC_OH_2021_05_O7
  10
335320.003
  20
4452580.000
  0
VERTEX
  8
LC_OH_2021_05_O7
  10
335220.003
  20
4452580.000
  0
VERTEX
  8
LC_OH_2021_05_O7
  10
335220.003
  20
4449504.972
  0
VERTEX
  8
LC_OH_2021_05_O7
  10
333322.003
  20
4449241.500
  0
VERTEX
  8
LC_OH_2021_05_O7
  10
333275.003
  20
4449237.000
  0
VERTEX
  8
LC_OH_2021_05_O7
  10
332619.503
  20
4449585.000
  0
VERTEX
  8
LC_OH_2021_05_O7
  10
332728.003
  20
4454027.500
  0
VERTEX
  8
LC_OH_2021_05_O7
  10
332908.503
  20
4454095.000
  0
VERTEX
  8
LC_OH_2021_05_O7
  10
332910.003
  20
4454095.500
  0
VERTEX
  8
LC_OH_2021_05_O7
  10
333603.003
  20
4454354.000
  0
VERTEX
  8
LC_OH_2021_05_O7
  10
333615.503
  20
4454358.500
  0
VERTEX
  8
LC_OH_2021_05_O7
  10
333620.003
  20
4454358.500
  0
VERTEX
  8
LC_OH_2021_05_O7
  10
335320.003
  20
4454085.937
  0
SEQEND
  8
LC_OH_2021_05_O7
  0
INSERT
  8
FeatureAttribs
  2
FEATURE
  41
1
  42
1
  43
1
  50
0
  10
314319.901
  20
4458075.750
 66
1
  0
ATTRIB
  8
FeatureAttribs
 70
0
  1
PNOA-H_AMS_1956-57_33k_ES_PAN_21mic_H50_0577_fot_73B-40753_W.tif
  2
NAME
  10
314319.901
  20
4458075.750
 40
34.56248
  0
SEQEND
  0
POLYLINE
  8
LC_OH_2021_05_O7
  70
1
  66
1
  0
VERTEX
  8
LC_OH_2021_05_O7
  10
313999.835
  20
4459785.501
  0
VERTEX
  8
LC_OH_2021_05_O7
  10
314542.502
  20
4459818.500
  0
VERTEX
  8
LC_OH_2021_05_O7
  10
314551.002
  20
4459819.000
  0
VERTEX
  8
LC_OH_2021_05_O7
  10
314555.002
  20
4459819.000
  0
VERTEX
  8
LC_OH_2021_05_O7
  10
314555.502
  20
4459811.000
  0
VERTEX
  8
LC_OH_2021_05_O7
  10
314722.502
  20
4456979.000
  0
VERTEX
  8
LC_OH_2021_05_O7
  10
314695.502
  20
4456618.500
  0
VERTEX
  8
LC_OH_2021_05_O7
  10
314334.002
  20
4456332.500
  0
VERTEX
  8
LC_OH_2021_05_O7
  10
313917.301
  20
4456441.524
  0
VERTEX
  8
LC_OH_2021_05_O7
  10
313950.840
  20
4457800.751
  0
SEQEND
  8
LC_OH_2021_05_O7
  0
INSERT
  8
FeatureAttribs
  2
FEATURE
  41
1
  42
1
  43
1
  50
0
  10
316151.254
  20
4457411.000
 66
1
  0
ATTRIB
  8
FeatureAttribs
 70
0
  1
PNOA-H_AMS_1956-57_33k_ES_PAN_21mic_H50_0578_fot_73B-40752_W.tif
  2
NAME
  10
316151.254
  20
4457411.000
 40
34.56248
  0
SEQEND
  0
POLYLINE
  8
LC_OH_2021_05_O7
  70
1
  66
1
  0
VERTEX
  8
LC_OH_2021_05_O7
  10
314722.502
  20
4456981.500
  0
VERTEX
  8
LC_OH_2021_05_O7
  10
316526.002
  20
4458269.000
  0
VERTEX
  8
LC_OH_2021_05_O7
  10
316526.502
  20
4458270.000
  0
VERTEX
  8
LC_OH_2021_05_O7
  10
316873.002
  20
4458517.500
  0
VERTEX
  8
LC_OH_2021_05_O7
  10
316875.502
  20
4458519.000
  0
VERTEX
  8
LC_OH_2021_05_O7
  10
316876.502
  20
4458517.500
  0
VERTEX
  8
LC_OH_2021_05_O7
  10
317066.502
  20
4456453.500
  0
VERTEX
  8
LC_OH_2021_05_O7
  10
316937.002
  20
4456306.000
  0
VERTEX
  8
LC_OH_2021_05_O7
  10
316934.002
  20
4456303.000
  0
VERTEX
  8
LC_OH_2021_05_O7
  10
316932.502
  20
4456303.000
  0
VERTEX
  8
LC_OH_2021_05_O7
  10
314695.502
  20
4456619.000
  0
SEQEND
  8
LC_OH_2021_05_O7
  0
INSERT
  8
FeatureAttribs
  2
FEATURE
  41
1
  42
1
  43
1
  50
0
  10
319145.631
  20
4457916.250
 66
1
  0
ATTRIB
  8
FeatureAttribs
 70
0
  1
PNOA-H_AMS_1956-57_33k_ES_PAN_21mic_H50_0578_fot_73B-40751_W.tif
  2
NAME
  10
319145.631
  20
4457916.250
 40
34.56248
  0
SEQEND
  0
POLYLINE
  8
LC_OH_2021_05_O7
  70
1
  66
1
  0
VERTEX
  8
LC_OH_2021_05_O7
  10
319712.002
  20
4459498.500
  0
VERTEX
  8
LC_OH_2021_05_O7
  10
319838.502
  20
4459453.500
  0
VERTEX
  8
LC_OH_2021_05_O7
  10
319755.502
  20
4456469.000
  0
VERTEX
  8
LC_OH_2021_05_O7
  10
319653.502
  20
4456334.500
  0
VERTEX
  8
LC_OH_2021_05_O7
  10
319652.002
  20
4456334.000
  0
VERTEX
  8
LC_OH_2021_05_O7
  10
317409.502
  20
4456504.000
  0
VERTEX
  8
LC_OH_2021_05_O7
  10
319711.502
  20
4459497.500
  0
VERTEX
  8
LC_OH_2021_05_O7
  10
319712.002
  20
4459498.500
  0
SEQEND
  8
LC_OH_2021_05_O7
  0
INSERT
  8
FeatureAttribs
  2
FEATURE
  41
1
  42
1
  43
1
  50
0
  10
329532.097
  20
4457214.501
 66
1
  0
ATTRIB
  8
FeatureAttribs
 70
0
  1
PNOA-H_AMS_1956-57_33k_ES_PAN_21mic_H50_0578_fot_73B-40747_W.tif
  2
NAME
  10
329532.097
  20
4457214.501
 40
34.56248
  0
SEQEND
  0
POLYLINE
  8
LC_OH_2021_05_O7
  70
1
  66
1
  0
VERTEX
  8
LC_OH_2021_05_O7
  10
330922.003
  20
4457150.500
  0
VERTEX
  8
LC_OH_2021_05_O7
  10
330921.503
  20
4457070.500
  0
VERTEX
  8
LC_OH_2021_05_O7
  10
330920.503
  20
4457069.500
  0
VERTEX
  8
LC_OH_2021_05_O7
  10
328662.503
  20
4455229.000
  0
VERTEX
  8
LC_OH_2021_05_O7
  10
328087.502
  20
4456549.500
  0
VERTEX
  8
LC_OH_2021_05_O7
  10
328300.503
  20
4459162.000
  0
VERTEX
  8
LC_OH_2021_05_O7
  10
328389.503
  20
4459200.000
  0
VERTEX
  8
LC_OH_2021_05_O7
  10
330939.003
  20
4459026.500
  0
VERTEX
  8
LC_OH_2021_05_O7
  10
330922.003
  20
4457163.500
  0
VERTEX
  8
LC_OH_2021_05_O7
  10
330922.003
  20
4457150.500
  0
SEQEND
  8
LC_OH_2021_05_O7
  0
INSERT
  8
FeatureAttribs
  2
FEATURE
  41
1
  42
1
  43
1
  50
0
  10
326777.447
  20
4457629.499
 66
1
  0
ATTRIB
  8
FeatureAttribs
 70
0
  1
PNOA-H_AMS_1956-57_33k_ES_PAN_21mic_H50_0578_fot_73B-40748_W.tif
  2
NAME
  10
326777.447
  20
4457629.499
 40
34.56248
  0
SEQEND
  0
POLYLINE
  8
LC_OH_2021_05_O7
  70
1
  66
1
  0
VERTEX
  8
LC_OH_2021_05_O7
  10
326767.502
  20
4459340.000
  0
VERTEX
  8
LC_OH_2021_05_O7
  10
328300.503
  20
4459162.000
  0
VERTEX
  8
LC_OH_2021_05_O7
  10
328087.502
  20
4456550.500
  0
VERTEX
  8
LC_OH_2021_05_O7
  10
325525.502
  20
4455826.000
  0
VERTEX
  8
LC_OH_2021_05_O7
  10
325523.502
  20
4455826.000
  0
VERTEX
  8
LC_OH_2021_05_O7
  10
325520.002
  20
4455833.000
  0
VERTEX
  8
LC_OH_2021_05_O7
  10
325233.002
  20
4456436.500
  0
VERTEX
  8
LC_OH_2021_05_O7
  10
325231.502
  20
4456443.500
  0
VERTEX
  8
LC_OH_2021_05_O7
  10
325586.502
  20
4459290.500
  0
VERTEX
  8
LC_OH_2021_05_O7
  10
325964.502
  20
4459433.000
  0
VERTEX
  8
LC_OH_2021_05_O7
  10
326765.502
  20
4459340.000
  0
VERTEX
  8
LC_OH_2021_05_O7
  10
326767.502
  20
4459340.000
  0
SEQEND
  8
LC_OH_2021_05_O7
  0
INSERT
  8
FeatureAttribs
  2
FEATURE
  41
1
  42
1
  43
1
  50
0
  10
321155.854
  20
4458071.249
 66
1
  0
ATTRIB
  8
FeatureAttribs
 70
0
  1
PNOA-H_AMS_1956-57_33k_ES_PAN_21mic_H50_0578_fot_73B-40750_W.tif
  2
NAME
  10
321155.854
  20
4458071.249
 40
34.56248
  0
SEQEND
  0
POLYLINE
  8
LC_OH_2021_05_O7
  70
1
  66
1
  0
VERTEX
  8
LC_OH_2021_05_O7
  10
321257.502
  20
4459752.500
  0
VERTEX
  8
LC_OH_2021_05_O7
  10
322576.002
  20
4459365.000
  0
VERTEX
  8
LC_OH_2021_05_O7
  10
322428.002
  20
4456390.000
  0
VERTEX
  8
LC_OH_2021_05_O7
  10
319755.502
  20
4456469.000
  0
VERTEX
  8
LC_OH_2021_05_O7
  10
319838.502
  20
4459453.500
  0
VERTEX
  8
LC_OH_2021_05_O7
  10
321255.502
  20
4459752.000
  0
VERTEX
  8
LC_OH_2021_05_O7
  10
321257.502
  20
4459752.500
  0
SEQEND
  8
LC_OH_2021_05_O7
  0
INSERT
  8
FeatureAttribs
  2
FEATURE
  41
1
  42
1
  43
1
  50
0
  10
323966.409
  20
4457995.999
 66
1
  0
ATTRIB
  8
FeatureAttribs
 70
0
  1
PNOA-H_AMS_1956-57_33k_ES_PAN_21mic_H50_0578_fot_73B-40749_W.tif
  2
NAME
  10
323966.409
  20
4457995.999
 40
34.56248
  0
SEQEND
  0
POLYLINE
  8
LC_OH_2021_05_O7
  70
1
  66
1
  0
VERTEX
  8
LC_OH_2021_05_O7
  10
322671.002
  20
4459395.500
  0
VERTEX
  8
LC_OH_2021_05_O7
  10
323578.502
  20
4459685.500
  0
VERTEX
  8
LC_OH_2021_05_O7
  10
323603.002
  20
4459692.500
  0
VERTEX
  8
LC_OH_2021_05_O7
  10
325586.502
  20
4459291.000
  0
VERTEX
  8
LC_OH_2021_05_O7
  10
325231.502
  20
4456440.500
  0
VERTEX
  8
LC_OH_2021_05_O7
  10
322480.502
  20
4456299.500
  0
VERTEX
  8
LC_OH_2021_05_O7
  10
322429.002
  20
4456387.500
  0
VERTEX
  8
LC_OH_2021_05_O7
  10
322428.002
  20
4456395.500
  0
VERTEX
  8
LC_OH_2021_05_O7
  10
322575.502
  20
4459362.000
  0
VERTEX
  8
LC_OH_2021_05_O7
  10
322577.002
  20
4459365.500
  0
VERTEX
  8
LC_OH_2021_05_O7
  10
322669.502
  20
4459395.000
  0
VERTEX
  8
LC_OH_2021_05_O7
  10
322671.002
  20
4459395.500
  0
SEQEND
  8
LC_OH_2021_05_O7
  0
INSERT
  8
FeatureAttribs
  2
FEATURE
  41
1
  42
1
  43
1
  50
0
  10
337959.924
  20
4458067.000
 66
1
  0
ATTRIB
  8
FeatureAttribs
 70
0
  1
PNOA-H_AMS_1956-57_33k_ES_PAN_21mic_H50_0578_fot_73B-40744_W.tif
  2
NAME
  10
337959.924
  20
4458067.000
 40
34.56248
  0
SEQEND
  0
POLYLINE
  8
LC_OH_2021_05_O7
  70
1
  66
1
  0
VERTEX
  8
LC_OH_2021_05_O7
  10
339467.748
  20
4457050.000
  0
VERTEX
  8
LC_OH_2021_05_O7
  10
336448.904
  20
4457050.000
  0
VERTEX
  8
LC_OH_2021_05_O7
  10
336455.503
  20
4458891.500
  0
VERTEX
  8
LC_OH_2021_05_O7
  10
337000.503
  20
4458937.500
  0
VERTEX
  8
LC_OH_2021_05_O7
  10
337006.503
  20
4458938.000
  0
VERTEX
  8
LC_OH_2021_05_O7
  10
338743.503
  20
4459084.000
  0
VERTEX
  8
LC_OH_2021_05_O7
  10
339467.003
  20
4458771.000
  0
VERTEX
  8
LC_OH_2021_05_O7
  10
339467.748
  20
4457050.000
  0
SEQEND
  8
LC_OH_2021_05_O7
  0
INSERT
  8
FeatureAttribs
  2
FEATURE
  41
1
  42
1
  43
1
  50
0
  10
334470.291
  20
4456599.742
 66
1
  0
ATTRIB
  8
FeatureAttribs
 70
0
  1
PNOA-H_AMS_1956-57_33k_ES_PAN_21mic_H50_0578_fot_73B-40745_W.tif
  2
NAME
  10
334470.291
  20
4456599.742
 40
34.56248
  0
SEQEND
  0
POLYLINE
  8
LC_OH_2021_05_O7
  70
1
  66
1
  0
VERTEX
  8
LC_OH_2021_05_O7
  10
336448.904
  20
4457050.000
  0
VERTEX
  8
LC_OH_2021_05_O7
  10
335320.003
  20
4457050.000
  0
VERTEX
  8
LC_OH_2021_05_O7
  10
335320.003
  20
4454085.484
  0
VERTEX
  8
LC_OH_2021_05_O7
  10
333616.503
  20
4454358.500
  0
VERTEX
  8
LC_OH_2021_05_O7
  10
333625.003
  20
4459030.500
  0
VERTEX
  8
LC_OH_2021_05_O7
  10
333793.503
  20
4459114.000
  0
VERTEX
  8
LC_OH_2021_05_O7
  10
334955.003
  20
4459047.500
  0
VERTEX
  8
LC_OH_2021_05_O7
  10
334959.503
  20
4459047.500
  0
VERTEX
  8
LC_OH_2021_05_O7
  10
336314.503
  20
4458970.500
  0
VERTEX
  8
LC_OH_2021_05_O7
  10
336455.503
  20
4458891.500
  0
VERTEX
  8
LC_OH_2021_05_O7
  10
336448.904
  20
4457050.000
  0
SEQEND
  8
LC_OH_2021_05_O7
  0
INSERT
  8
FeatureAttribs
  2
FEATURE
  41
1
  42
1
  43
1
  50
0
  10
332371.868
  20
4456556.500
 66
1
  0
ATTRIB
  8
FeatureAttribs
 70
0
  1
PNOA-H_AMS_1956-57_33k_ES_PAN_21mic_H50_0578_fot_73B-40746_W.tif
  2
NAME
  10
332371.868
  20
4456556.500
 40
34.56248
  0
SEQEND
  0
POLYLINE
  8
LC_OH_2021_05_O7
  70
1
  66
1
  0
VERTEX
  8
LC_OH_2021_05_O7
  10
332911.503
  20
4459045.500
  0
VERTEX
  8
LC_OH_2021_05_O7
  10
333625.003
  20
4459030.500
  0
VERTEX
  8
LC_OH_2021_05_O7
  10
333616.503
  20
4454358.500
  0
VERTEX
  8
LC_OH_2021_05_O7
  10
332729.003
  20
4454027.500
  0
VERTEX
  8
LC_OH_2021_05_O7
  10
332053.503
  20
4454189.500
  0
VERTEX
  8
LC_OH_2021_05_O7
  10
330922.003
  20
4457068.500
  0
VERTEX
  8
LC_OH_2021_05_O7
  10
330921.503
  20
4457107.500
  0
VERTEX
  8
LC_OH_2021_05_O7
  10
330938.503
  20
4459021.000
  0
VERTEX
  8
LC_OH_2021_05_O7
  10
330939.003
  20
4459027.000
  0
VERTEX
  8
LC_OH_2021_05_O7
  10
331055.003
  20
4459085.500
  0
VERTEX
  8
LC_OH_2021_05_O7
  10
332907.503
  20
4459045.500
  0
VERTEX
  8
LC_OH_2021_05_O7
  10
332911.503
  20
4459045.500
  0
SEQEND
  8
LC_OH_2021_05_O7
  0
INSERT
  8
FeatureAttribs
  2
FEATURE
  41
1
  42
1
  43
1
  50
0
  10
340974.007
  20
4458076.749
 66
1
  0
ATTRIB
  8
FeatureAttribs
 70
0
  1
PNOA-H_AMS_1956-57_33k_ES_PAN_21mic_H50_0579_fot_73B-40743_W.tif
  2
NAME
  10
340974.007
  20
4458076.749
 40
34.56248
  0
SEQEND
  0
POLYLINE
  8
LC_OH_2021_05_O7
  70
1
  66
1
  0
VERTEX
  8
LC_OH_2021_05_O7
  10
342300.807
  20
4457050.000
  0
VERTEX
  8
LC_OH_2021_05_O7
  10
339467.748
  20
4457050.000
  0
VERTEX
  8
LC_OH_2021_05_O7
  10
339467.003
  20
4458771.000
  0
VERTEX
  8
LC_OH_2021_05_O7
  10
341276.003
  20
4459103.000
  0
VERTEX
  8
LC_OH_2021_05_O7
  10
341278.503
  20
4459103.500
  0
VERTEX
  8
LC_OH_2021_05_O7
  10
341282.003
  20
4459103.500
  0
VERTEX
  8
LC_OH_2021_05_O7
  10
341292.503
  20
4459100.000
  0
VERTEX
  8
LC_OH_2021_05_O7
  10
342336.232
  20
4458743.294
  0
VERTEX
  8
LC_OH_2021_05_O7
  10
342302.989
  20
4457154.365
  0
SEQEND
  8
LC_OH_2021_05_O7
  0
INSERT
  8
FeatureAttribs
  2
FEATURE
  41
1
  42
1
  43
1
  50
0
  10
313980.114
  20
4449199.620
 66
1
  0
ATTRIB
  8
FeatureAttribs
 70
0
  1
PNOA-H_AMS_1956-57_33k_ES_PAN_21mic_H50_0577_fot_75B-29318_E.tif
  2
NAME
  10
313980.114
  20
4449199.620
 40
34.56248
  0
SEQEND
  0
POLYLINE
  8
LC_OH_2021_05_O7
  70
1
  66
1
  0
VERTEX
  8
LC_OH_2021_05_O7
  10
314219.508
  20
4448537.974
  0
VERTEX
  8
LC_OH_2021_05_O7
  10
313722.725
  20
4448550.097
  0
VERTEX
  8
LC_OH_2021_05_O7
  10
313755.037
  20
4449861.266
  0
VERTEX
  8
LC_OH_2021_05_O7
  10
314237.502
  20
4449803.000
  0
SEQEND
  8
LC_OH_2021_05_O7
  0
INSERT
  8
FeatureAttribs
  2
FEATURE
  41
1
  42
1
  43
1
  50
0
  10
314336.922
  20
4466511.336
 66
1
  0
ATTRIB
  8
FeatureAttribs
 70
0
  1
PNOA-H_AMS_1956-57_33k_ES_PAN_21mic_H50_0577_fot_71C-29356_E.tif
  2
NAME
  10
314336.922
  20
4466511.336
 40
34.56248
  0
SEQEND
  0
POLYLINE
  8
LC_OH_2021_05_O7
  70
1
  66
1
  0
VERTEX
  8
LC_OH_2021_05_O7
  10
314521.198
  20
4467043.149
  0
VERTEX
  8
LC_OH_2021_05_O7
  10
314521.002
  20
4467033.500
  0
VERTEX
  8
LC_OH_2021_05_O7
  10
314152.645
  20
4465971.152
  0
VERTEX
  8
LC_OH_2021_05_O7
  10
314179.349
  20
4467051.520
  0
SEQEND
  8
LC_OH_2021_05_O7
  0
INSERT
  8
FeatureAttribs
  2
FEATURE
  41
1
  42
1
  43
1
  50
0
  10
315815.962
  20
4466787.250
 66
1
  0
ATTRIB
  8
FeatureAttribs
 70
0
  1
PNOA-H_AMS_1956-57_33k_ES_PAN_21mic_H50_0578_fot_000-29357_R.tif
  2
NAME
  10
315815.962
  20
4466787.250
 40
34.56248
  0
SEQEND
  0
POLYLINE
  8
LC_OH_2021_05_O7
  70
1
  66
1
  0
VERTEX
  8
LC_OH_2021_05_O7
  10
316891.002
  20
4466985.119
  0
VERTEX
  8
LC_OH_2021_05_O7
  10
316887.502
  20
4466810.000
  0
VERTEX
  8
LC_OH_2021_05_O7
  10
316246.002
  20
4465344.000
  0
VERTEX
  8
LC_OH_2021_05_O7
  10
316245.502
  20
4465342.500
  0
VERTEX
  8
LC_OH_2021_05_O7
  10
316206.002
  20
4465252.500
  0
VERTEX
  8
LC_OH_2021_05_O7
  10
314521.002
  20
4467034.000
  0
VERTEX
  8
LC_OH_2021_05_O7
  10
314521.188
  20
4467043.149
  0
SEQEND
  8
LC_OH_2021_05_O7
  0
INSERT
  8
FeatureAttribs
  2
FEATURE
  41
1
  42
1
  43
1
  50
0
  10
318110.433
  20
4466723.750
 66
1
  0
ATTRIB
  8
FeatureAttribs
 70
0
  1
PNOA-H_AMS_1956-57_33k_ES_PAN_21mic_H50_0578_fot_000-29358_R.tif
  2
NAME
  10
318110.433
  20
4466723.750
 40
34.56248
  0
SEQEND
  0
POLYLINE
  8
LC_OH_2021_05_O7
  70
1
  66
1
  0
VERTEX
  8
LC_OH_2021_05_O7
  10
319266.102
  20
4466927.689
  0
VERTEX
  8
LC_OH_2021_05_O7
  10
319253.502
  20
4466738.000
  0
VERTEX
  8
LC_OH_2021_05_O7
  10
318534.002
  20
4465344.000
  0
VERTEX
  8
LC_OH_2021_05_O7
  10
318533.502
  20
4465342.500
  0
VERTEX
  8
LC_OH_2021_05_O7
  10
318478.502
  20
4465236.500
  0
VERTEX
  8
LC_OH_2021_05_O7
  10
316887.502
  20
4466810.000
  0
VERTEX
  8
LC_OH_2021_05_O7
  10
316891.002
  20
4466985.119
  0
VERTEX
  8
LC_OH_2021_05_O7
  10
317719.064
  20
4466964.842
  0
SEQEND
  8
LC_OH_2021_05_O7
  0
INSERT
  8
FeatureAttribs
  2
FEATURE
  41
1
  42
1
  43
1
  50
0
  10
320492.403
  20
4466569.250
 66
1
  0
ATTRIB
  8
FeatureAttribs
 70
0
  1
PNOA-H_AMS_1956-57_33k_ES_PAN_21mic_H50_0578_fot_000-29359_R.tif
  2
NAME
  10
320492.403
  20
4466569.250
 40
34.56248
  0
SEQEND
  0
POLYLINE
  8
LC_OH_2021_05_O7
  70
1
  66
1
  0
VERTEX
  8
LC_OH_2021_05_O7
  10
321635.333
  20
4466870.967
  0
VERTEX
  8
LC_OH_2021_05_O7
  10
321611.502
  20
4466611.500
  0
VERTEX
  8
LC_OH_2021_05_O7
  10
320718.502
  20
4465025.500
  0
VERTEX
  8
LC_OH_2021_05_O7
  10
319253.502
  20
4466737.000
  0
VERTEX
  8
LC_OH_2021_05_O7
  10
319266.163
  20
4466927.687
  0
VERTEX
  8
LC_OH_2021_05_O7
  10
321258.764
  20
4466879.833
  0
SEQEND
  8
LC_OH_2021_05_O7
  0
INSERT
  8
FeatureAttribs
  2
FEATURE
  41
1
  42
1
  43
1
  50
0
  10
322859.849
  20
4466376.499
 66
1
  0
ATTRIB
  8
FeatureAttribs
 70
0
  1
PNOA-H_AMS_1956-57_33k_ES_PAN_21mic_H50_0578_fot_000-29360_R.tif
  2
NAME
  10
322859.849
  20
4466376.499
 40
34.56248
  0
SEQEND
  0
POLYLINE
  8
LC_OH_2021_05_O7
  70
1
  66
1
  0
VERTEX
  8
LC_OH_2021_05_O7
  10
323984.292
  20
4466815.662
  0
VERTEX
  8
LC_OH_2021_05_O7
  10
323939.002
  20
4466376.500
  0
VERTEX
  8
LC_OH_2021_05_O7
  10
322933.002
  20
4464781.000
  0
VERTEX
  8
LC_OH_2021_05_O7
  10
322932.002
  20
4464781.000
  0
VERTEX
  8
LC_OH_2021_05_O7
  10
322911.002
  20
4464810.000
  0
VERTEX
  8
LC_OH_2021_05_O7
  10
321611.502
  20
4466611.000
  0
VERTEX
  8
LC_OH_2021_05_O7
  10
321635.379
  20
4466870.966
  0
SEQEND
  8
LC_OH_2021_05_O7
  0
INSERT
  8
FeatureAttribs
  2
FEATURE
  41
1
  42
1
  43
1
  50
0
  10
325131.718
  20
4466158.500
 66
1
  0
ATTRIB
  8
FeatureAttribs
 70
0
  1
PNOA-H_AMS_1956-57_33k_ES_PAN_21mic_H50_0578_fot_000-29361_R.tif
  2
NAME
  10
325131.718
  20
4466158.500
 40
34.56248
  0
SEQEND
  0
POLYLINE
  8
LC_OH_2021_05_O7
  70
1
  66
1
  0
VERTEX
  8
LC_OH_2021_05_O7
  10
326238.307
  20
4466763.271
  0
VERTEX
  8
LC_OH_2021_05_O7
  10
326199.002
  20
4466186.000
  0
VERTEX
  8
LC_OH_2021_05_O7
  10
325174.002
  20
4464486.000
  0
VERTEX
  8
LC_OH_2021_05_O7
  10
325167.502
  20
4464494.500
  0
VERTEX
  8
LC_OH_2021_05_O7
  10
323939.002
  20
4466376.000
  0
VERTEX
  8
LC_OH_2021_05_O7
  10
323984.328
  20
4466815.661
  0
VERTEX
  8
LC_OH_2021_05_O7
  10
324798.448
  20
4466796.493
  0
SEQEND
  8
LC_OH_2021_05_O7
  0
INSERT
  8
FeatureAttribs
  2
FEATURE
  41
1
  42
1
  43
1
  50
0
  10
331748.170
  20
4465937.749
 66
1
  0
ATTRIB
  8
FeatureAttribs
 70
0
  1
PNOA-H_AMS_1956-57_33k_ES_PAN_21mic_H50_0578_fot_000-29364_R.tif
  2
NAME
  10
331748.170
  20
4465937.749
 40
34.56248
  0
SEQEND
  0
POLYLINE
  8
LC_OH_2021_05_O7
  70
1
  66
1
  0
VERTEX
  8
LC_OH_2021_05_O7
  10
332848.251
  20
4466613.341
  0
VERTEX
  8
LC_OH_2021_05_O7
  10
332819.503
  20
4465573.000
  0
VERTEX
  8
LC_OH_2021_05_O7
  10
332039.503
  20
4464237.500
  0
VERTEX
  8
LC_OH_2021_05_O7
  10
330653.003
  20
4465616.000
  0
VERTEX
  8
LC_OH_2021_05_O7
  10
330697.662
  20
4466661.491
  0
VERTEX
  8
LC_OH_2021_05_O7
  10
331877.770
  20
4466634.819
  0
SEQEND
  8
LC_OH_2021_05_O7
  0
INSERT
  8
FeatureAttribs
  2
FEATURE
  41
1
  42
1
  43
1
  50
0
  10
340631.995
  20
4465535.749
 66
1
  0
ATTRIB
  8
FeatureAttribs
 70
0
  1
PNOA-H_AMS_1956-57_33k_ES_PAN_21mic_H50_0578_fot_000-29368_R.tif
  2
NAME
  10
340631.995
  20
4465535.749
 40
34.56248
  0
SEQEND
  0
POLYLINE
  8
LC_OH_2021_05_O7
  70
1
  66
1
  0
VERTEX
  8
LC_OH_2021_05_O7
  10
341738.934
  20
4466420.874
  0
VERTEX
  8
LC_OH_2021_05_O7
  10
341734.003
  20
4466215.000
  0
VERTEX
  8
LC_OH_2021_05_O7
  10
341733.503
  20
4466206.000
  0
VERTEX
  8
LC_OH_2021_05_O7
  10
341731.003
  20
4466198.000
  0
VERTEX
  8
LC_OH_2021_05_O7
  10
340920.503
  20
4463740.000
  0
VERTEX
  8
LC_OH_2021_05_O7
  10
340919.503
  20
4463740.000
  0
VERTEX
  8
LC_OH_2021_05_O7
  10
340912.003
  20
4463751.500
  0
VERTEX
  8
LC_OH_2021_05_O7
  10
339618.503
  20
4465740.000
  0
VERTEX
  8
LC_OH_2021_05_O7
  10
339643.585
  20
4466465.271
  0
SEQEND
  8
LC_OH_2021_05_O7
  0
INSERT
  8
FeatureAttribs
  2
FEATURE
  41
1
  42
1
  43
1
  50
0
  10
329583.331
  20
4465961.500
 66
1
  0
ATTRIB
  8
FeatureAttribs
 70
0
  1
PNOA-H_AMS_1956-57_33k_ES_PAN_21mic_H50_0578_fot_000-29363_R.tif
  2
NAME
  10
329583.331
  20
4465961.500
 40
34.56248
  0
SEQEND
  0
POLYLINE
  8
LC_OH_2021_05_O7
  70
1
  66
1
  0
VERTEX
  8
LC_OH_2021_05_O7
  10
330697.662
  20
4466661.491
  0
VERTEX
  8
LC_OH_2021_05_O7
  10
330653.003
  20
4465616.000
  0
VERTEX
  8
LC_OH_2021_05_O7
  10
329702.503
  20
4464221.500
  0
VERTEX
  8
LC_OH_2021_05_O7
  10
329701.003
  20
4464222.000
  0
VERTEX
  8
LC_OH_2021_05_O7
  10
329679.503
  20
4464253.000
  0
VERTEX
  8
LC_OH_2021_05_O7
  10
328459.503
  20
4466018.500
  0
VERTEX
  8
LC_OH_2021_05_O7
  10
328492.316
  20
4466711.336
  0
SEQEND
  8
LC_OH_2021_05_O7
  0
INSERT
  8
FeatureAttribs
  2
FEATURE
  41
1
  42
1
  43
1
  50
0
  10
327378.621
  20
4466037.749
 66
1
  0
ATTRIB
  8
FeatureAttribs
 70
0
  1
PNOA-H_AMS_1956-57_33k_ES_PAN_21mic_H50_0578_fot_000-29362_R.tif
  2
NAME
  10
327378.621
  20
4466037.749
 40
34.56248
  0
SEQEND
  0
POLYLINE
  8
LC_OH_2021_05_O7
  70
1
  66
1
  0
VERTEX
  8
LC_OH_2021_05_O7
  10
328492.303
  20
4466711.337
  0
VERTEX
  8
LC_OH_2021_05_O7
  10
328459.503
  20
4466019.000
  0
VERTEX
  8
LC_OH_2021_05_O7
  10
327415.002
  20
4464340.000
  0
VERTEX
  8
LC_OH_2021_05_O7
  10
327413.502
  20
4464340.500
  0
VERTEX
  8
LC_OH_2021_05_O7
  10
327405.502
  20
4464352.500
  0
VERTEX
  8
LC_OH_2021_05_O7
  10
326199.002
  20
4466186.500
  0
VERTEX
  8
LC_OH_2021_05_O7
  10
326238.285
  20
4466763.272
  0
VERTEX
  8
LC_OH_2021_05_O7
  10
328338.116
  20
4466714.822
  0
SEQEND
  8
LC_OH_2021_05_O7
  0
INSERT
  8
FeatureAttribs
  2
FEATURE
  41
1
  42
1
  43
1
  50
0
  10
336280.740
  20
4465829.500
 66
1
  0
ATTRIB
  8
FeatureAttribs
 70
0
  1
PNOA-H_AMS_1956-57_33k_ES_PAN_21mic_H50_0578_fot_000-29366_R.tif
  2
NAME
  10
336280.740
  20
4465829.500
 40
34.56248
  0
SEQEND
  0
POLYLINE
  8
LC_OH_2021_05_O7
  70
1
  66
1
  0
VERTEX
  8
LC_OH_2021_05_O7
  10
337462.438
  20
4466512.190
  0
VERTEX
  8
LC_OH_2021_05_O7
  10
337447.503
  20
4465832.500
  0
VERTEX
  8
LC_OH_2021_05_O7
  10
337184.003
  20
4465343.500
  0
VERTEX
  8
LC_OH_2021_05_O7
  10
337183.503
  20
4465342.500
  0
VERTEX
  8
LC_OH_2021_05_O7
  10
336530.003
  20
4464127.000
  0
VERTEX
  8
LC_OH_2021_05_O7
  10
335112.503
  20
4465702.500
  0
VERTEX
  8
LC_OH_2021_05_O7
  10
335133.506
  20
4466562.767
  0
VERTEX
  8
LC_OH_2021_05_O7
  10
335417.409
  20
4466556.484
  0
SEQEND
  8
LC_OH_2021_05_O7
  0
INSERT
  8
FeatureAttribs
  2
FEATURE
  41
1
  42
1
  43
1
  50
0
  10
338565.595
  20
4465726.249
 66
1
  0
ATTRIB
  8
FeatureAttribs
 70
0
  1
PNOA-H_AMS_1956-57_33k_ES_PAN_21mic_H50_0578_fot_000-29367_R.tif
  2
NAME
  10
338565.595
  20
4465726.249
 40
34.56248
  0
SEQEND
  0
POLYLINE
  8
LC_OH_2021_05_O7
  70
1
  66
1
  0
VERTEX
  8
LC_OH_2021_05_O7
  10
339643.830
  20
4466465.265
  0
VERTEX
  8
LC_OH_2021_05_O7
  10
339618.503
  20
4465739.500
  0
VERTEX
  8
LC_OH_2021_05_O7
  10
339412.003
  20
4465344.000
  0
VERTEX
  8
LC_OH_2021_05_O7
  10
339411.503
  20
4465342.500
  0
VERTEX
  8
LC_OH_2021_05_O7
  10
338703.003
  20
4463983.000
  0
VERTEX
  8
LC_OH_2021_05_O7
  10
337447.503
  20
4465832.500
  0
VERTEX
  8
LC_OH_2021_05_O7
  10
337462.285
  20
4466512.193
  0
VERTEX
  8
LC_OH_2021_05_O7
  10
338957.034
  20
4466479.817
  0
SEQEND
  8
LC_OH_2021_05_O7
  0
INSERT
  8
FeatureAttribs
  2
FEATURE
  41
1
  42
1
  43
1
  50
0
  10
342260.563
  20
4465834.151
 66
1
  0
ATTRIB
  8
FeatureAttribs
 70
0
  1
PNOA-H_AMS_1956-57_33k_ES_PAN_21mic_H50_0578_fot_000-29369_R.tif
  2
NAME
  10
342260.563
  20
4465834.151
 40
34.56248
  0
SEQEND
  0
POLYLINE
  8
LC_OH_2021_05_O7
  70
1
  66
1
  0
VERTEX
  8
LC_OH_2021_05_O7
  10
342462.196
  20
4464760.303
  0
VERTEX
  8
LC_OH_2021_05_O7
  10
341733.503
  20
4466206.500
  0
VERTEX
  8
LC_OH_2021_05_O7
  10
341738.711
  20
4466420.878
  0
VERTEX
  8
LC_OH_2021_05_O7
  10
342496.645
  20
4466404.819
  0
SEQEND
  8
LC_OH_2021_05_O7
  0
INSERT
  8
FeatureAttribs
  2
FEATURE
  41
1
  42
1
  43
1
  50
0
  10
319932.381
  20
4448955.250
 66
1
  0
ATTRIB
  8
FeatureAttribs
 70
0
  1
PNOA-H_AMS_1956-57_33k_ES_PAN_21mic_H50_0601_fot_000-29320_R.tif
  2
NAME
  10
319932.381
  20
4448955.250
 40
34.56248
  0
SEQEND
  0
POLYLINE
  8
LC_OH_2021_05_O7
  70
1
  66
1
  0
VERTEX
  8
LC_OH_2021_05_O7
  10
320564.353
  20
4448384.686
  0
VERTEX
  8
LC_OH_2021_05_O7
  10
319214.983
  20
4448416.982
  0
VERTEX
  8
LC_OH_2021_05_O7
  10
319433.002
  20
4449638.000
  0
VERTEX
  8
LC_OH_2021_05_O7
  10
319433.002
  20
4449640.500
  0
VERTEX
  8
LC_OH_2021_05_O7
  10
320541.502
  20
4449604.500
  0
SEQEND
  8
LC_OH_2021_05_O7
  0
INSERT
  8
FeatureAttribs
  2
FEATURE
  41
1
  42
1
  43
1
  50
0
  10
333972.672
  20
4465891.749
 66
1
  0
ATTRIB
  8
FeatureAttribs
 70
0
  1
PNOA-H_AMS_1956-57_33k_ES_PAN_21mic_H50_0578_fot_000-29365_R.tif
  2
NAME
  10
333972.672
  20
4465891.749
 40
34.56248
  0
SEQEND
  0
POLYLINE
  8
LC_OH_2021_05_O7
  70
1
  66
1
  0
VERTEX
  8
LC_OH_2021_05_O7
  10
335133.511
  20
4466562.767
  0
VERTEX
  8
LC_OH_2021_05_O7
  10
335112.503
  20
4465702.000
  0
VERTEX
  8
LC_OH_2021_05_O7
  10
334314.003
  20
4464229.000
  0
VERTEX
  8
LC_OH_2021_05_O7
  10
332819.503
  20
4465573.500
  0
VERTEX
  8
LC_OH_2021_05_O7
  10
332847.971
  20
4466613.347
  0
SEQEND
  8
LC_OH_2021_05_O7
  0
INSERT
  8
FeatureAttribs
  2
FEATURE
  41
1
  42
1
  43
1
  50
0
  10
316557.606
  20
4449030.000
 66
1
  0
ATTRIB
  8
FeatureAttribs
 70
0
  1
PNOA-H_AMS_1956-57_33k_ES_PAN_21mic_H50_0601_fot_000-29319_R.tif
  2
NAME
  10
316557.606
  20
4449030.000
 40
34.56248
  0
SEQEND
  0
POLYLINE
  8
LC_OH_2021_05_O7
  70
1
  66
1
  0
VERTEX
  8
LC_OH_2021_05_O7
  10
317370.448
  20
4448461.128
  0
VERTEX
  8
LC_OH_2021_05_O7
  10
317271.148
  20
4448463.504
  0
VERTEX
  8
LC_OH_2021_05_O7
  10
315742.187
  20
4448500.816
  0
VERTEX
  8
LC_OH_2021_05_O7
  10
315759.002
  20
4449790.000
  0
VERTEX
  8
LC_OH_2021_05_O7
  10
316519.002
  20
4449748.000
  0
VERTEX
  8
LC_OH_2021_05_O7
  10
316527.502
  20
4449748.000
  0
VERTEX
  8
LC_OH_2021_05_O7
  10
317361.002
  20
4449702.000
  0
SEQEND
  8
LC_OH_2021_05_O7
  0
INSERT
  8
FeatureAttribs
  2
FEATURE
  41
1
  42
1
  43
1
  50
0
  10
323453.445
  20
4448546.500
 66
1
  0
ATTRIB
  8
FeatureAttribs
 70
0
  1
PNOA-H_AMS_1956-57_33k_ES_PAN_21mic_H50_0601_fot_000-29321_R.tif
  2
NAME
  10
323453.445
  20
4448546.500
 40
34.56248
  0
SEQEND
  0
POLYLINE
  8
LC_OH_2021_05_O7
  70
1
  66
1
  0
VERTEX
  8
LC_OH_2021_05_O7
  10
323641.937
  20
4448312.355
  0
VERTEX
  8
LC_OH_2021_05_O7
  10
323103.006
  20
4448325.000
  0
VERTEX
  8
LC_OH_2021_05_O7
  10
323612.502
  20
4448982.000
  0
VERTEX
  8
LC_OH_2021_05_O7
  10
323613.002
  20
4448983.000
  0
VERTEX
  8
LC_OH_2021_05_O7
  10
323614.002
  20
4448978.000
  0
SEQEND
  8
LC_OH_2021_05_O7
  0
INSERT
  8
FeatureAttribs
  2
FEATURE
  41
1
  42
1
  43
1
  50
0
  10
333467.101
  20
4448595.748
 66
1
  0
ATTRIB
  8
FeatureAttribs
 70
0
  1
PNOA-H_AMS_1956-57_33k_ES_PAN_21mic_H50_0601_fot_000-29325_R.tif
  2
NAME
  10
333467.101
  20
4448595.748
 40
34.56248
  0
SEQEND
  0
POLYLINE
  8
LC_OH_2021_05_O7
  70
1
  66
1
  0
VERTEX
  8
LC_OH_2021_05_O7
  10
334015.007
  20
4448077.557
  0
VERTEX
  8
LC_OH_2021_05_O7
  10
333192.935
  20
4448095.687
  0
VERTEX
  8
LC_OH_2021_05_O7
  10
333275.503
  20
4449237.000
  0
VERTEX
  8
LC_OH_2021_05_O7
  10
333318.003
  20
4449241.500
  0
VERTEX
  8
LC_OH_2021_05_O7
  10
333320.003
  20
4449239.500
  0
SEQEND
  8
LC_OH_2021_05_O7
  0
INSERT
  8
FeatureAttribs
  2
FEATURE
  41
1
  42
1
  43
1
  50
0
  10
317791.515
  20
4458147.251
 66
1
  0
ATTRIB
  8
FeatureAttribs
 70
0
  1
PNOA-H_AMS_1956-57_33k_ES_PAN_21mic_H50_0578_fot_000-52073_R.tif
  2
NAME
  10
317791.515
  20
4458147.251
 40
34.56248
  0
SEQEND
  0
POLYLINE
  8
LC_OH_2021_05_O7
  70
1
  66
1
  0
VERTEX
  8
LC_OH_2021_05_O7
  10
317906.502
  20
4457150.500
  0
VERTEX
  8
LC_OH_2021_05_O7
  10
317409.502
  20
4456504.000
  0
VERTEX
  8
LC_OH_2021_05_O7
  10
317066.502
  20
4456454.000
  0
VERTEX
  8
LC_OH_2021_05_O7
  10
316876.002
  20
4458517.500
  0
VERTEX
  8
LC_OH_2021_05_O7
  10
316926.502
  20
4459807.000
  0
VERTEX
  8
LC_OH_2021_05_O7
  10
316987.002
  20
4459840.500
  0
VERTEX
  8
LC_OH_2021_05_O7
  10
319096.502
  20
4459815.000
  0
VERTEX
  8
LC_OH_2021_05_O7
  10
319712.502
  20
4459499.000
  0
VERTEX
  8
LC_OH_2021_05_O7
  10
317907.002
  20
4457151.500
  0
VERTEX
  8
LC_OH_2021_05_O7
  10
317906.502
  20
4457150.500
  0
SEQEND
  8
LC_OH_2021_05_O7
  0
INSERT
  8
FeatureAttribs
  2
FEATURE
  41
1
  42
1
  43
1
  50
0
  10
315693.823
  20
4458429.749
 66
1
  0
ATTRIB
  8
FeatureAttribs
 70
0
  1
PNOA-H_AMS_1956-57_33k_ES_PAN_21mic_H50_0578_fot_000-52074_R.tif
  2
NAME
  10
315693.823
  20
4458429.749
 40
34.56248
  0
SEQEND
  0
POLYLINE
  8
LC_OH_2021_05_O7
  70
1
  66
1
  0
VERTEX
  8
LC_OH_2021_05_O7
  10
314654.502
  20
4459878.000
  0
VERTEX
  8
LC_OH_2021_05_O7
  10
316926.502
  20
4459807.000
  0
VERTEX
  8
LC_OH_2021_05_O7
  10
316876.002
  20
4458519.000
  0
VERTEX
  8
LC_OH_2021_05_O7
  10
314960.002
  20
4457150.500
  0
VERTEX
  8
LC_OH_2021_05_O7
  10
314959.002
  20
4457150.500
  0
VERTEX
  8
LC_OH_2021_05_O7
  10
314723.502
  20
4456981.500
  0
VERTEX
  8
LC_OH_2021_05_O7
  10
314722.502
  20
4456981.500
  0
VERTEX
  8
LC_OH_2021_05_O7
  10
314722.002
  20
4456984.000
  0
VERTEX
  8
LC_OH_2021_05_O7
  10
314555.002
  20
4459811.000
  0
VERTEX
  8
LC_OH_2021_05_O7
  10
314555.002
  20
4459819.500
  0
SEQEND
  8
LC_OH_2021_05_O7
  0
INSERT
  8
FeatureAttribs
  2
FEATURE
  41
1
  42
1
  43
1
  50
0
  10
314097.370
  20
4455305.252
 66
1
  0
ATTRIB
  8
FeatureAttribs
 70
0
  1
PNOA-H_AMS_1956-57_33k_ES_PAN_21mic_H50_0577_fot_000-52430_R.tif
  2
NAME
  10
314097.370
  20
4455305.252
 40
34.56248
  0
SEQEND
  0
POLYLINE
  8
LC_OH_2021_05_O7
  70
1
  66
1
  0
VERTEX
  8
LC_OH_2021_05_O7
  10
313917.301
  20
4456441.534
  0
VERTEX
  8
LC_OH_2021_05_O7
  10
314333.502
  20
4456332.500
  0
VERTEX
  8
LC_OH_2021_05_O7
  10
314275.002
  20
4454253.000
  0
VERTEX
  8
LC_OH_2021_05_O7
  10
313861.239
  20
4454168.970
  0
VERTEX
  8
LC_OH_2021_05_O7
  10
313893.774
  20
4455488.077
  0
SEQEND
  8
LC_OH_2021_05_O7
  0
INSERT
  8
FeatureAttribs
  2
FEATURE
  41
1
  42
1
  43
1
  50
0
  10
327103.655
  20
4455017.750
 66
1
  0
ATTRIB
  8
FeatureAttribs
 70
0
  1
PNOA-H_AMS_1956-57_33k_ES_PAN_21mic_H50_0578_fot_000-52425_R.tif
  2
NAME
  10
327103.655
  20
4455017.750
 40
34.56248
  0
SEQEND
  0
POLYLINE
  8
LC_OH_2021_05_O7
  70
1
  66
1
  0
VERTEX
  8
LC_OH_2021_05_O7
  10
326767.002
  20
4456177.500
  0
VERTEX
  8
LC_OH_2021_05_O7
  10
328087.502
  20
4456550.500
  0
VERTEX
  8
LC_OH_2021_05_O7
  10
328660.503
  20
4455233.500
  0
VERTEX
  8
LC_OH_2021_05_O7
  10
328662.503
  20
4455226.500
  0
VERTEX
  8
LC_OH_2021_05_O7
  10
328721.003
  20
4454168.500
  0
VERTEX
  8
LC_OH_2021_05_O7
  10
326956.502
  20
4453486.000
  0
VERTEX
  8
LC_OH_2021_05_O7
  10
326953.002
  20
4453485.000
  0
VERTEX
  8
LC_OH_2021_05_O7
  10
326949.502
  20
4453486.500
  0
VERTEX
  8
LC_OH_2021_05_O7
  10
325543.002
  20
4454168.500
  0
VERTEX
  8
LC_OH_2021_05_O7
  10
325524.002
  20
4455826.000
  0
VERTEX
  8
LC_OH_2021_05_O7
  10
326765.502
  20
4456177.000
  0
VERTEX
  8
LC_OH_2021_05_O7
  10
326767.002
  20
4456177.500
  0
SEQEND
  8
LC_OH_2021_05_O7
  0
INSERT
  8
FeatureAttribs
  2
FEATURE
  41
1
  42
1
  43
1
  50
0
  10
321092.929
  20
4454986.000
 66
1
  0
ATTRIB
  8
FeatureAttribs
 70
0
  1
PNOA-H_AMS_1956-57_33k_ES_PAN_21mic_H50_0578_fot_000-52427_R.tif
  2
NAME
  10
321092.929
  20
4454986.000
 40
34.56248
  0
SEQEND
  0
POLYLINE
  8
LC_OH_2021_05_O7
  70
1
  66
1
  0
VERTEX
  8
LC_OH_2021_05_O7
  10
319755.002
  20
4456469.000
  0
VERTEX
  8
LC_OH_2021_05_O7
  10
322428.002
  20
4456390.000
  0
VERTEX
  8
LC_OH_2021_05_O7
  10
322481.002
  20
4456299.500
  0
VERTEX
  8
LC_OH_2021_05_O7
  10
322499.502
  20
4454131.500
  0
VERTEX
  8
LC_OH_2021_05_O7
  10
320901.502
  20
4453503.000
  0
VERTEX
  8
LC_OH_2021_05_O7
  10
319721.002
  20
4454104.500
  0
VERTEX
  8
LC_OH_2021_05_O7
  10
319719.002
  20
4454144.000
  0
VERTEX
  8
LC_OH_2021_05_O7
  10
319653.002
  20
4456334.500
  0
VERTEX
  8
LC_OH_2021_05_O7
  10
319754.502
  20
4456467.500
  0
VERTEX
  8
LC_OH_2021_05_O7
  10
319755.002
  20
4456469.000
  0
SEQEND
  8
LC_OH_2021_05_O7
  0
INSERT
  8
FeatureAttribs
  2
FEATURE
  41
1
  42
1
  43
1
  50
0
  10
318335.180
  20
4455023.749
 66
1
  0
ATTRIB
  8
FeatureAttribs
 70
0
  1
PNOA-H_AMS_1956-57_33k_ES_PAN_21mic_H50_0578_fot_000-52428_R.tif
  2
NAME
  10
318335.180
  20
4455023.749
 40
34.56248
  0
SEQEND
  0
POLYLINE
  8
LC_OH_2021_05_O7
  70
1
  66
1
  0
VERTEX
  8
LC_OH_2021_05_O7
  10
317407.002
  20
4456504.000
  0
VERTEX
  8
LC_OH_2021_05_O7
  10
319653.002
  20
4456334.000
  0
VERTEX
  8
LC_OH_2021_05_O7
  10
319720.502
  20
4454105.000
  0
VERTEX
  8
LC_OH_2021_05_O7
  10
317876.002
  20
4453543.500
  0
VERTEX
  8
LC_OH_2021_05_O7
  10
317007.502
  20
4454150.000
  0
VERTEX
  8
LC_OH_2021_05_O7
  10
316934.002
  20
4456303.500
  0
VERTEX
  8
LC_OH_2021_05_O7
  10
317066.502
  20
4456454.000
  0
VERTEX
  8
LC_OH_2021_05_O7
  10
317403.502
  20
4456503.500
  0
VERTEX
  8
LC_OH_2021_05_O7
  10
317407.002
  20
4456504.000
  0
SEQEND
  8
LC_OH_2021_05_O7
  0
INSERT
  8
FeatureAttribs
  2
FEATURE
  41
1
  42
1
  43
1
  50
0
  10
330201.142
  20
4455342.999
 66
1
  0
ATTRIB
  8
FeatureAttribs
 70
0
  1
PNOA-H_AMS_1956-57_33k_ES_PAN_21mic_H50_0578_fot_000-52424_R.tif
  2
NAME
  10
330201.142
  20
4455342.999
 40
34.56248
  0
SEQEND
  0
POLYLINE
  8
LC_OH_2021_05_O7
  70
1
  66
1
  0
VERTEX
  8
LC_OH_2021_05_O7
  10
330921.003
  20
4457070.500
  0
VERTEX
  8
LC_OH_2021_05_O7
  10
330924.003
  20
4457065.000
  0
VERTEX
  8
LC_OH_2021_05_O7
  10
332053.503
  20
4454189.500
  0
VERTEX
  8
LC_OH_2021_05_O7
  10
329909.003
  20
4453615.500
  0
VERTEX
  8
LC_OH_2021_05_O7
  10
329906.003
  20
4453616.000
  0
VERTEX
  8
LC_OH_2021_05_O7
  10
328721.003
  20
4454168.500
  0
VERTEX
  8
LC_OH_2021_05_O7
  10
328662.003
  20
4455229.000
  0
VERTEX
  8
LC_OH_2021_05_O7
  10
330920.503
  20
4457069.500
  0
VERTEX
  8
LC_OH_2021_05_O7
  10
330921.003
  20
4457070.500
  0
SEQEND
  8
LC_OH_2021_05_O7
  0
INSERT
  8
FeatureAttribs
  2
FEATURE
  41
1
  42
1
  43
1
  50
0
  10
324013.166
  20
4454962.500
 66
1
  0
ATTRIB
  8
FeatureAttribs
 70
0
  1
PNOA-H_AMS_1956-57_33k_ES_PAN_21mic_H50_0578_fot_000-52426_R.tif
  2
NAME
  10
324013.166
  20
4454962.500
 40
34.56248
  0
SEQEND
  0
POLYLINE
  8
LC_OH_2021_05_O7
  70
1
  66
1
  0
VERTEX
  8
LC_OH_2021_05_O7
  10
325223.502
  20
4456440.500
  0
VERTEX
  8
LC_OH_2021_05_O7
  10
325231.502
  20
4456440.500
  0
VERTEX
  8
LC_OH_2021_05_O7
  10
325233.002
  20
4456438.000
  0
VERTEX
  8
LC_OH_2021_05_O7
  10
325524.002
  20
4455826.000
  0
VERTEX
  8
LC_OH_2021_05_O7
  10
325543.002
  20
4454168.500
  0
VERTEX
  8
LC_OH_2021_05_O7
  10
323873.002
  20
4453484.500
  0
VERTEX
  8
LC_OH_2021_05_O7
  10
322499.502
  20
4454132.000
  0
VERTEX
  8
LC_OH_2021_05_O7
  10
322481.002
  20
4456299.000
  0
VERTEX
  8
LC_OH_2021_05_O7
  10
325213.502
  20
4456440.000
  0
VERTEX
  8
LC_OH_2021_05_O7
  10
325223.502
  20
4456440.500
  0
SEQEND
  8
LC_OH_2021_05_O7
  0
INSERT
  8
FeatureAttribs
  2
FEATURE
  41
1
  42
1
  43
1
  50
0
  10
315636.801
  20
4455150.998
 66
1
  0
ATTRIB
  8
FeatureAttribs
 70
0
  1
PNOA-H_AMS_1956-57_33k_ES_PAN_21mic_H50_0577_fot_000-52429_R.tif
  2
NAME
  10
315636.801
  20
4455150.998
 40
34.56248
  0
SEQEND
  0
POLYLINE
  8
LC_OH_2021_05_O7
  70
1
  66
1
  0
VERTEX
  8
LC_OH_2021_05_O7
  10
314333.502
  20
4456332.500
  0
VERTEX
  8
LC_OH_2021_05_O7
  10
314695.502
  20
4456619.000
  0
VERTEX
  8
LC_OH_2021_05_O7
  10
316525.002
  20
4456360.500
  0
VERTEX
  8
LC_OH_2021_05_O7
  10
316527.502
  20
4456360.500
  0
VERTEX
  8
LC_OH_2021_05_O7
  10
316934.002
  20
4456303.000
  0
VERTEX
  8
LC_OH_2021_05_O7
  10
317007.502
  20
4454150.000
  0
VERTEX
  8
LC_OH_2021_05_O7
  10
315035.502
  20
4453683.000
  0
VERTEX
  8
LC_OH_2021_05_O7
  10
315031.502
  20
4453684.000
  0
VERTEX
  8
LC_OH_2021_05_O7
  10
314275.002
  20
4454253.000
  0
SEQEND
  8
LC_OH_2021_05_O7
  0
INSERT
  8
FeatureAttribs
  2
FEATURE
  41
1
  42
1
  43
1
  50
0
  10
328393.733
  20
4448760.499
 66
1
  0
ATTRIB
  8
FeatureAttribs
 70
0
  1
PNOA-H_AMS_1956-57_33k_ES_PAN_21mic_H50_0601_fot_000-40713_R.tif
  2
NAME
  10
328393.733
  20
4448760.499
 40
34.56248
  0
SEQEND
  0
POLYLINE
  8
LC_OH_2021_05_O7
  70
1
  66
1
  0
VERTEX
  8
LC_OH_2021_05_O7
  10
329988.343
  20
4448167.057
  0
VERTEX
  8
LC_OH_2021_05_O7
  10
327916.320
  20
4448213.728
  0
VERTEX
  8
LC_OH_2021_05_O7
  10
326795.489
  20
4448239.501
  0
VERTEX
  8
LC_OH_2021_05_O7
  10
326805.502
  20
4449533.500
  0
VERTEX
  8
LC_OH_2021_05_O7
  10
326868.502
  20
4449571.000
  0
VERTEX
  8
LC_OH_2021_05_O7
  10
328810.503
  20
4449540.000
  0
VERTEX
  8
LC_OH_2021_05_O7
  10
328815.503
  20
4449540.000
  0
VERTEX
  8
LC_OH_2021_05_O7
  10
329740.503
  20
4449525.500
  0
VERTEX
  8
LC_OH_2021_05_O7
  10
329987.503
  20
4449380.000
  0
SEQEND
  8
LC_OH_2021_05_O7
  0
INSERT
  8
FeatureAttribs
  2
FEATURE
  41
1
  42
1
  43
1
  50
0
  10
318346.772
  20
4449049.499
 66
1
  0
ATTRIB
  8
FeatureAttribs
 70
0
  1
PNOA-H_AMS_1956-57_33k_ES_PAN_21mic_H50_0601_fot_000-40710_R.tif
  2
NAME
  10
318346.772
  20
4449049.499
 40
34.56248
  0
SEQEND
  0
POLYLINE
  8
LC_OH_2021_05_O7
  70
1
  66
1
  0
VERTEX
  8
LC_OH_2021_05_O7
  10
319214.726
  20
4448416.988
  0
VERTEX
  8
LC_OH_2021_05_O7
  10
317370.447
  20
4448461.128
  0
VERTEX
  8
LC_OH_2021_05_O7
  10
317361.002
  20
4449702.000
  0
VERTEX
  8
LC_OH_2021_05_O7
  10
317627.502
  20
4449829.000
  0
VERTEX
  8
LC_OH_2021_05_O7
  10
318570.002
  20
4449730.500
  0
VERTEX
  8
LC_OH_2021_05_O7
  10
318575.502
  20
4449730.000
  0
VERTEX
  8
LC_OH_2021_05_O7
  10
319433.002
  20
4449640.500
  0
SEQEND
  8
LC_OH_2021_05_O7
  0
INSERT
  8
FeatureAttribs
  2
FEATURE
  41
1
  42
1
  43
1
  50
0
  10
325209.036
  20
4448878.500
 66
1
  0
ATTRIB
  8
FeatureAttribs
 70
0
  1
PNOA-H_AMS_1956-57_33k_ES_PAN_21mic_H50_0601_fot_000-40712_R.tif
  2
NAME
  10
325209.036
  20
4448878.500
 40
34.56248
  0
SEQEND
  0
POLYLINE
  8
LC_OH_2021_05_O7
  70
1
  66
1
  0
VERTEX
  8
LC_OH_2021_05_O7
  10
326795.365
  20
4448239.504
  0
VERTEX
  8
LC_OH_2021_05_O7
  10
324367.946
  20
4448295.320
  0
VERTEX
  8
LC_OH_2021_05_O7
  10
323641.557
  20
4448312.364
  0
VERTEX
  8
LC_OH_2021_05_O7
  10
323613.502
  20
4448978.000
  0
VERTEX
  8
LC_OH_2021_05_O7
  10
323615.502
  20
4449508.000
  0
VERTEX
  8
LC_OH_2021_05_O7
  10
323858.502
  20
4449646.500
  0
VERTEX
  8
LC_OH_2021_05_O7
  10
323859.502
  20
4449647.000
  0
VERTEX
  8
LC_OH_2021_05_O7
  10
326805.502
  20
4449533.500
  0
SEQEND
  8
LC_OH_2021_05_O7
  0
INSERT
  8
FeatureAttribs
  2
FEATURE
  41
1
  42
1
  43
1
  50
0
  10
334422.840
  20
4448727.456
 66
1
  0
ATTRIB
  8
FeatureAttribs
 70
0
  1
PNOA-H_AMS_1956-57_33k_ES_PAN_21mic_H50_0601_fot_000-40715_R.tif
  2
NAME
  10
334422.840
  20
4448727.456
 40
34.56248
  0
SEQEND
  0
POLYLINE
  8
LC_OH_2021_05_O7
  70
1
  66
1
  0
VERTEX
  8
LC_OH_2021_05_O7
  10
335220.003
  20
4448051.078
  0
VERTEX
  8
LC_OH_2021_05_O7
  10
335013.024
  20
4448055.546
  0
VERTEX
  8
LC_OH_2021_05_O7
  10
334014.380
  20
4448077.571
  0
VERTEX
  8
LC_OH_2021_05_O7
  10
333318.503
  20
4449241.000
  0
VERTEX
  8
LC_OH_2021_05_O7
  10
335220.003
  20
4449504.912
  0
SEQEND
  8
LC_OH_2021_05_O7
  0
INSERT
  8
FeatureAttribs
  2
FEATURE
  41
1
  42
1
  43
1
  50
0
  10
314988.892
  20
4449109.748
 66
1
  0
ATTRIB
  8
FeatureAttribs
 70
0
  1
PNOA-H_AMS_1956-57_33k_ES_PAN_21mic_H50_0600_fot_000-40709_R.tif
  2
NAME
  10
314988.892
  20
4449109.748
 40
34.56248
  0
SEQEND
  0
POLYLINE
  8
LC_OH_2021_05_O7
  70
1
  66
1
  0
VERTEX
  8
LC_OH_2021_05_O7
  10
315742.182
  20
4448500.816
  0
VERTEX
  8
LC_OH_2021_05_O7
  10
314219.510
  20
4448537.974
  0
VERTEX
  8
LC_OH_2021_05_O7
  10
314237.502
  20
4449803.000
  0
VERTEX
  8
LC_OH_2021_05_O7
  10
314668.502
  20
4449949.000
  0
VERTEX
  8
LC_OH_2021_05_O7
  10
314670.002
  20
4449949.500
  0
VERTEX
  8
LC_OH_2021_05_O7
  10
315759.002
  20
4449790.500
  0
SEQEND
  8
LC_OH_2021_05_O7
  0
INSERT
  8
FeatureAttribs
  2
FEATURE
  41
1
  42
1
  43
1
  50
0
  10
322053.569
  20
4448905.000
 66
1
  0
ATTRIB
  8
FeatureAttribs
 70
0
  1
PNOA-H_AMS_1956-57_33k_ES_PAN_21mic_H50_0601_fot_000-40711_R.tif
  2
NAME
  10
322053.569
  20
4448905.000
 40
34.56248
  0
SEQEND
  0
POLYLINE
  8
LC_OH_2021_05_O7
  70
1
  66
1
  0
VERTEX
  8
LC_OH_2021_05_O7
  10
323103.123
  20
4448324.998
  0
VERTEX
  8
LC_OH_2021_05_O7
  10
320819.555
  20
4448378.579
  0
VERTEX
  8
LC_OH_2021_05_O7
  10
320563.876
  20
4448384.698
  0
VERTEX
  8
LC_OH_2021_05_O7
  10
320541.502
  20
4449579.500
  0
VERTEX
  8
LC_OH_2021_05_O7
  10
320541.502
  20
4449605.000
  0
VERTEX
  8
LC_OH_2021_05_O7
  10
320621.502
  20
4449647.000
  0
VERTEX
  8
LC_OH_2021_05_O7
  10
320622.502
  20
4449647.500
  0
VERTEX
  8
LC_OH_2021_05_O7
  10
320723.002
  20
4449700.000
  0
VERTEX
  8
LC_OH_2021_05_O7
  10
320729.002
  20
4449700.000
  0
VERTEX
  8
LC_OH_2021_05_O7
  10
323615.502
  20
4449508.000
  0
VERTEX
  8
LC_OH_2021_05_O7
  10
323613.502
  20
4448983.000
  0
SEQEND
  8
LC_OH_2021_05_O7
  0
INSERT
  8
FeatureAttribs
  2
FEATURE
  41
1
  42
1
  43
1
  50
0
  10
331614.762
  20
4448767.499
 66
1
  0
ATTRIB
  8
FeatureAttribs
 70
0
  1
PNOA-H_AMS_1956-57_33k_ES_PAN_21mic_H50_0601_fot_000-40714_R.tif
  2
NAME
  10
331614.762
  20
4448767.499
 40
34.56248
  0
SEQEND
  0
POLYLINE
  8
LC_OH_2021_05_O7
  70
1
  66
1
  0
VERTEX
  8
LC_OH_2021_05_O7
  10
333193.000
  20
4448095.686
  0
VERTEX
  8
LC_OH_2021_05_O7
  10
331464.680
  20
4448133.804
  0
VERTEX
  8
LC_OH_2021_05_O7
  10
329988.347
  20
4448167.057
  0
VERTEX
  8
LC_OH_2021_05_O7
  10
329987.503
  20
4449380.000
  0
VERTEX
  8
LC_OH_2021_05_O7
  10
330852.003
  20
4449447.500
  0
VERTEX
  8
LC_OH_2021_05_O7
  10
330858.503
  20
4449448.000
  0
VERTEX
  8
LC_OH_2021_05_O7
  10
332620.003
  20
4449585.000
  0
VERTEX
  8
LC_OH_2021_05_O7
  10
333275.503
  20
4449237.000
  0
SEQEND
  8
LC_OH_2021_05_O7
  0
ENDSEC
  0
EOF
