  0
SECTION
  2
HEADER
  9
$ACADVER
  1
AC1009
  9
$LUNITS
  70
2
  9
$LIMMIN
  10
285334.713
  20
4448550.097
  9
$LIMMAX
  10
314179.349
  20
4467805.033
  9
$EXTMIN
  10
285334.713
  20
4448550.097
  9
$EXTMAX
  10
314179.349
  20
4467805.033
  999
Created by Global Mapper
  999
Projection: UTM
  999
Datum: ETRS89
  999
Ground Units: meters
  999
ZONE: 30
  0
ENDSEC
  0
SECTION
  2
TABLES
  0
ENDSEC
  0
SECTION
  2
BLOCKS
  0
BLOCK
  8
FeatureAttribs
  70
0
  2
FEATURE
  3
FEATURE
  10
0.00000000
  20
0.00000000
  0
ATTDEF
  8
FeatureAttribs
  70
0
  1
 
  2
NAME
  3
NAME
  10
0.00000000
  20
0.00000000
  40
1.00000000
  0
ENDBLK
  0
ENDSEC
  0
SECTION
  2
ENTITIES
  0
INSERT
  8
FeatureAttribs
  2
FEATURE
  41
1
  42
1
  43
1
  50
0
  10
312784.955
  20
4465453.750
 66
1
  0
ATTRIB
  8
FeatureAttribs
 70
0
  1
PNOA-H_AMS_1956-57_33k_ES_PAN_21mic_H50_0577_fot_71B-22032_W.tif
  2
NAME
  10
312784.955
  20
4465453.750
 40
34.68091
  0
SEQEND
  0
POLYLINE
  8
LC_OH_2021_05_O7
  70
1
  66
1
  0
VERTEX
  8
LC_OH_2021_05_O7
  10
312190.935
  20
4467101.148
  0
VERTEX
  8
LC_OH_2021_05_O7
  10
313939.002
  20
4465355.500
  0
VERTEX
  8
LC_OH_2021_05_O7
  10
313828.502
  20
4463957.500
  0
VERTEX
  8
LC_OH_2021_05_O7
  10
312223.002
  20
4463748.000
  0
VERTEX
  8
LC_OH_2021_05_O7
  10
311578.002
  20
4464006.000
  0
VERTEX
  8
LC_OH_2021_05_O7
  10
311578.502
  20
4464026.000
  0
VERTEX
  8
LC_OH_2021_05_O7
  10
311653.502
  20
4465133.500
  0
VERTEX
  8
LC_OH_2021_05_O7
  10
312119.472
  20
4467102.931
  0
SEQEND
  8
LC_OH_2021_05_O7
  0
INSERT
  8
FeatureAttribs
  2
FEATURE
  41
1
  42
1
  43
1
  50
0
  10
310349.699
  20
4465692.001
 66
1
  0
ATTRIB
  8
FeatureAttribs
 70
0
  1
PNOA-H_AMS_1956-57_33k_ES_PAN_21mic_H50_0577_fot_71B-22033_W.tif
  2
NAME
  10
310349.699
  20
4465692.001
 40
34.68091
  0
SEQEND
  0
POLYLINE
  8
LC_OH_2021_05_O7
  70
1
  66
1
  0
VERTEX
  8
LC_OH_2021_05_O7
  10
310101.452
  20
4467153.552
  0
VERTEX
  8
LC_OH_2021_05_O7
  10
311492.002
  20
4465343.500
  0
VERTEX
  8
LC_OH_2021_05_O7
  10
311492.502
  20
4465342.500
  0
VERTEX
  8
LC_OH_2021_05_O7
  10
311653.502
  20
4465133.500
  0
VERTEX
  8
LC_OH_2021_05_O7
  10
311577.502
  20
4464006.500
  0
VERTEX
  8
LC_OH_2021_05_O7
  10
309971.002
  20
4463802.000
  0
VERTEX
  8
LC_OH_2021_05_O7
  10
309318.002
  20
4464047.000
  0
VERTEX
  8
LC_OH_2021_05_O7
  10
309366.002
  20
4464995.000
  0
VERTEX
  8
LC_OH_2021_05_O7
  10
309705.504
  20
4467163.621
  0
SEQEND
  8
LC_OH_2021_05_O7
  0
INSERT
  8
FeatureAttribs
  2
FEATURE
  41
1
  42
1
  43
1
  50
0
  10
303267.474
  20
4466340.500
 66
1
  0
ATTRIB
  8
FeatureAttribs
 70
0
  1
PNOA-H_AMS_1956-57_33k_ES_PAN_21mic_H50_0577_fot_71B-22036_W.tif
  2
NAME
  10
303267.474
  20
4466340.500
 40
34.68091
  0
SEQEND
  0
POLYLINE
  8
LC_OH_2021_05_O7
  70
1
  66
1
  0
VERTEX
  8
LC_OH_2021_05_O7
  10
304011.670
  20
4467309.871
  0
VERTEX
  8
LC_OH_2021_05_O7
  10
303396.001
  20
4464049.000
  0
VERTEX
  8
LC_OH_2021_05_O7
  10
302772.001
  20
4464226.000
  0
VERTEX
  8
LC_OH_2021_05_O7
  10
302675.109
  20
4467344.907
  0
VERTEX
  8
LC_OH_2021_05_O7
  10
303560.106
  20
4467321.567
  0
SEQEND
  8
LC_OH_2021_05_O7
  0
INSERT
  8
FeatureAttribs
  2
FEATURE
  41
1
  42
1
  43
1
  50
0
  10
308053.949
  20
4465760.750
 66
1
  0
ATTRIB
  8
FeatureAttribs
 70
0
  1
PNOA-H_AMS_1956-57_33k_ES_PAN_21mic_H50_0577_fot_71B-22034_W.tif
  2
NAME
  10
308053.949
  20
4465760.750
 40
34.68091
  0
SEQEND
  0
POLYLINE
  8
LC_OH_2021_05_O7
  70
1
  66
1
  0
VERTEX
  8
LC_OH_2021_05_O7
  10
307834.744
  20
4467211.194
  0
VERTEX
  8
LC_OH_2021_05_O7
  10
309124.002
  20
4465343.500
  0
VERTEX
  8
LC_OH_2021_05_O7
  10
309124.502
  20
4465342.500
  0
VERTEX
  8
LC_OH_2021_05_O7
  10
309366.002
  20
4464993.000
  0
VERTEX
  8
LC_OH_2021_05_O7
  10
309318.002
  20
4464047.000
  0
VERTEX
  8
LC_OH_2021_05_O7
  10
307647.002
  20
4463829.000
  0
VERTEX
  8
LC_OH_2021_05_O7
  10
307068.502
  20
4464056.500
  0
VERTEX
  8
LC_OH_2021_05_O7
  10
307446.231
  20
4467221.074
  0
SEQEND
  8
LC_OH_2021_05_O7
  0
INSERT
  8
FeatureAttribs
  2
FEATURE
  41
1
  42
1
  43
1
  50
0
  10
301025.554
  20
4466863.501
 66
1
  0
ATTRIB
  8
FeatureAttribs
 70
0
  1
PNOA-H_AMS_1956-57_33k_ES_PAN_21mic_H50_0577_fot_71B-22037_W.tif
  2
NAME
  10
301025.554
  20
4466863.501
 40
34.68091
  0
SEQEND
  0
POLYLINE
  8
LC_OH_2021_05_O7
  70
1
  66
1
  0
VERTEX
  8
LC_OH_2021_05_O7
  10
302073.246
  20
4467360.780
  0
VERTEX
  8
LC_OH_2021_05_O7
  10
300499.001
  20
4464980.000
  0
VERTEX
  8
LC_OH_2021_05_O7
  10
300272.001
  20
4467203.000
  0
VERTEX
  8
LC_OH_2021_05_O7
  10
300284.868
  20
4467407.944
  0
SEQEND
  8
LC_OH_2021_05_O7
  0
INSERT
  8
FeatureAttribs
  2
FEATURE
  41
1
  42
1
  43
1
  50
0
  10
305630.847
  20
4466209.501
 66
1
  0
ATTRIB
  8
FeatureAttribs
 70
0
  1
PNOA-H_AMS_1956-57_33k_ES_PAN_21mic_H50_0577_fot_71B-22035_W.tif
  2
NAME
  10
305630.847
  20
4466209.501
 40
34.68091
  0
SEQEND
  0
POLYLINE
  8
LC_OH_2021_05_O7
  70
1
  66
1
  0
VERTEX
  8
LC_OH_2021_05_O7
  10
306044.765
  20
4467257.211
  0
VERTEX
  8
LC_OH_2021_05_O7
  10
306434.002
  20
4465344.000
  0
VERTEX
  8
LC_OH_2021_05_O7
  10
306434.002
  20
4465342.500
  0
VERTEX
  8
LC_OH_2021_05_O7
  10
306696.502
  20
4464053.000
  0
VERTEX
  8
LC_OH_2021_05_O7
  10
305499.501
  20
4463941.500
  0
VERTEX
  8
LC_OH_2021_05_O7
  10
304928.501
  20
4464141.000
  0
VERTEX
  8
LC_OH_2021_05_O7
  10
305042.875
  20
4467283.161
  0
SEQEND
  8
LC_OH_2021_05_O7
  0
INSERT
  8
FeatureAttribs
  2
FEATURE
  41
1
  42
1
  43
1
  50
0
  10
299080.419
  20
4466731.591
 66
1
  0
ATTRIB
  8
FeatureAttribs
 70
0
  1
PNOA-H_AMS_1956-57_33k_ES_PAN_21mic_H50_0577_fot_71B-22038_W.tif
  2
NAME
  10
299080.419
  20
4466731.591
 40
34.68091
  0
SEQEND
  0
POLYLINE
  8
LC_OH_2021_05_O7
  70
1
  66
1
  0
VERTEX
  8
LC_OH_2021_05_O7
  10
300284.837
  20
4467407.945
  0
VERTEX
  8
LC_OH_2021_05_O7
  10
300272.001
  20
4467203.500
  0
VERTEX
  8
LC_OH_2021_05_O7
  10
297972.501
  20
4465991.500
  0
VERTEX
  8
LC_OH_2021_05_O7
  10
297876.001
  20
4466576.000
  0
VERTEX
  8
LC_OH_2021_05_O7
  10
297905.865
  20
4467471.682
  0
VERTEX
  8
LC_OH_2021_05_O7
  10
300020.325
  20
4467414.921
  0
SEQEND
  8
LC_OH_2021_05_O7
  0
INSERT
  8
FeatureAttribs
  2
FEATURE
  41
1
  42
1
  43
1
  50
0
  10
294268.985
  20
4467358.001
 66
1
  0
ATTRIB
  8
FeatureAttribs
 70
0
  1
PNOA-H_AMS_1956-57_33k_ES_PAN_21mic_H50_0577_fot_71B-22040_W.tif
  2
NAME
  10
294268.985
  20
4467358.001
 40
34.68091
  0
SEQEND
  0
POLYLINE
  8
LC_OH_2021_05_O7
  70
1
  66
1
  0
VERTEX
  8
LC_OH_2021_05_O7
  10
295478.073
  20
4467537.327
  0
VERTEX
  8
LC_OH_2021_05_O7
  10
295494.501
  20
4466719.500
  0
VERTEX
  8
LC_OH_2021_05_O7
  10
295317.501
  20
4465756.500
  0
VERTEX
  8
LC_OH_2021_05_O7
  10
293056.501
  20
4467354.000
  0
VERTEX
  8
LC_OH_2021_05_O7
  10
293042.503
  20
4467603.857
  0
SEQEND
  8
LC_OH_2021_05_O7
  0
INSERT
  8
FeatureAttribs
  2
FEATURE
  41
1
  42
1
  43
1
  50
0
  10
296691.973
  20
4467056.913
 66
1
  0
ATTRIB
  8
FeatureAttribs
 70
0
  1
PNOA-H_AMS_1956-57_33k_ES_PAN_21mic_H50_0577_fot_71B-22039_W.tif
  2
NAME
  10
296691.973
  20
4467056.913
 40
34.68091
  0
SEQEND
  0
POLYLINE
  8
LC_OH_2021_05_O7
  70
1
  66
1
  0
VERTEX
  8
LC_OH_2021_05_O7
  10
297905.855
  20
4467471.682
  0
VERTEX
  8
LC_OH_2021_05_O7
  10
297876.001
  20
4466576.500
  0
VERTEX
  8
LC_OH_2021_05_O7
  10
295494.501
  20
4466721.000
  0
VERTEX
  8
LC_OH_2021_05_O7
  10
295478.090
  20
4467537.327
  0
VERTEX
  8
LC_OH_2021_05_O7
  10
296480.526
  20
4467509.944
  0
SEQEND
  8
LC_OH_2021_05_O7
  0
INSERT
  8
FeatureAttribs
  2
FEATURE
  41
1
  42
1
  43
1
  50
0
  10
292077.449
  20
4467026.750
 66
1
  0
ATTRIB
  8
FeatureAttribs
 70
0
  1
PNOA-H_AMS_1956-57_33k_ES_PAN_21mic_H50_0577_fot_71B-22041_W.tif
  2
NAME
  10
292077.449
  20
4467026.750
 40
34.68091
  0
SEQEND
  0
POLYLINE
  8
LC_OH_2021_05_O7
  70
1
  66
1
  0
VERTEX
  8
LC_OH_2021_05_O7
  10
293042.435
  20
4467603.859
  0
VERTEX
  8
LC_OH_2021_05_O7
  10
293056.501
  20
4467352.500
  0
VERTEX
  8
LC_OH_2021_05_O7
  10
292677.001
  20
4465113.500
  0
VERTEX
  8
LC_OH_2021_05_O7
  10
290640.986
  20
4467670.541
  0
VERTEX
  8
LC_OH_2021_05_O7
  10
292940.710
  20
4467606.638
  0
SEQEND
  8
LC_OH_2021_05_O7
  0
INSERT
  8
FeatureAttribs
  2
FEATURE
  41
1
  42
1
  43
1
  50
0
  10
289643.002
  20
4466786.500
 66
1
  0
ATTRIB
  8
FeatureAttribs
 70
0
  1
PNOA-H_AMS_1956-57_33k_ES_PAN_21mic_H50_0577_fot_71B-22042_W.tif
  2
NAME
  10
289643.002
  20
4466786.500
 40
34.68091
  0
SEQEND
  0
POLYLINE
  8
LC_OH_2021_05_O7
  70
1
  66
1
  0
VERTEX
  8
LC_OH_2021_05_O7
  10
290619.441
  20
4467671.139
  0
VERTEX
  8
LC_OH_2021_05_O7
  10
290026.001
  20
4464695.000
  0
VERTEX
  8
LC_OH_2021_05_O7
  10
290025.501
  20
4464693.500
  0
VERTEX
  8
LC_OH_2021_05_O7
  10
290018.001
  20
4464691.500
  0
VERTEX
  8
LC_OH_2021_05_O7
  10
289895.501
  20
4464663.000
  0
VERTEX
  8
LC_OH_2021_05_O7
  10
288373.300
  20
4467734.038
  0
VERTEX
  8
LC_OH_2021_05_O7
  10
289400.876
  20
4467705.000
  0
SEQEND
  8
LC_OH_2021_05_O7
  0
INSERT
  8
FeatureAttribs
  2
FEATURE
  41
1
  42
1
  43
1
  50
0
  10
287118.316
  20
4466679.001
 66
1
  0
ATTRIB
  8
FeatureAttribs
 70
0
  1
PNOA-H_AMS_1956-57_33k_ES_PAN_21mic_H50_0577_fot_71B-22043_W.tif
  2
NAME
  10
287118.316
  20
4466679.001
 40
34.68091
  0
SEQEND
  0
POLYLINE
  8
LC_OH_2021_05_O7
  70
1
  66
1
  0
VERTEX
  8
LC_OH_2021_05_O7
  10
288042.375
  20
4467743.390
  0
VERTEX
  8
LC_OH_2021_05_O7
  10
287646.001
  20
4465344.000
  0
VERTEX
  8
LC_OH_2021_05_O7
  10
287646.001
  20
4465342.500
  0
VERTEX
  8
LC_OH_2021_05_O7
  10
287528.001
  20
4464628.000
  0
VERTEX
  8
LC_OH_2021_05_O7
  10
286997.001
  20
4464529.000
  0
VERTEX
  8
LC_OH_2021_05_O7
  10
286992.001
  20
4464529.000
  0
VERTEX
  8
LC_OH_2021_05_O7
  10
286948.501
  20
4464537.000
  0
VERTEX
  8
LC_OH_2021_05_O7
  10
286067.609
  20
4467799.195
  0
SEQEND
  8
LC_OH_2021_05_O7
  0
INSERT
  8
FeatureAttribs
  2
FEATURE
  41
1
  42
1
  43
1
  50
0
  10
313990.824
  20
4464907.750
 66
1
  0
ATTRIB
  8
FeatureAttribs
 70
0
  1
PNOA-H_AMS_1956-57_33k_ES_PAN_21mic_H50_0578_fot_71B-22031_W.tif
  2
NAME
  10
313990.824
  20
4464907.750
 40
34.68091
  0
SEQEND
  0
POLYLINE
  8
LC_OH_2021_05_O7
  70
1
  66
1
  0
VERTEX
  8
LC_OH_2021_05_O7
  10
314100.084
  20
4463844.293
  0
VERTEX
  8
LC_OH_2021_05_O7
  10
313829.002
  20
4463957.000
  0
VERTEX
  8
LC_OH_2021_05_O7
  10
313939.002
  20
4465355.000
  0
VERTEX
  8
LC_OH_2021_05_O7
  10
314152.647
  20
4465971.207
  0
VERTEX
  8
LC_OH_2021_05_O7
  10
314122.185
  20
4464738.817
  0
SEQEND
  8
LC_OH_2021_05_O7
  0
INSERT
  8
FeatureAttribs
  2
FEATURE
  41
1
  42
1
  43
1
  50
0
  10
287082.068
  20
4461230.000
 66
1
  0
ATTRIB
  8
FeatureAttribs
 70
0
  1
PNOA-H_AMS_1956-57_33k_ES_PAN_21mic_H50_0577_fot_72B-46945_E.tif
  2
NAME
  10
287082.068
  20
4461230.000
 40
34.68091
  0
SEQEND
  0
POLYLINE
  8
LC_OH_2021_05_O7
  70
1
  66
1
  0
VERTEX
  8
LC_OH_2021_05_O7
  10
285685.956
  20
4461657.595
  0
VERTEX
  8
LC_OH_2021_05_O7
  10
287026.501
  20
4462297.500
  0
VERTEX
  8
LC_OH_2021_05_O7
  10
287053.501
  20
4462280.500
  0
VERTEX
  8
LC_OH_2021_05_O7
  10
287854.501
  20
4461748.500
  0
VERTEX
  8
LC_OH_2021_05_O7
  10
287855.501
  20
4461748.000
  0
VERTEX
  8
LC_OH_2021_05_O7
  10
288617.001
  20
4461243.000
  0
VERTEX
  8
LC_OH_2021_05_O7
  10
287213.001
  20
4460162.500
  0
VERTEX
  8
LC_OH_2021_05_O7
  10
285667.051
  20
4460993.419
  0
SEQEND
  8
LC_OH_2021_05_O7
  0
INSERT
  8
FeatureAttribs
  2
FEATURE
  41
1
  42
1
  43
1
  50
0
  10
311139.325
  20
4461941.751
 66
1
  0
ATTRIB
  8
FeatureAttribs
 70
0
  1
PNOA-H_AMS_1956-57_33k_ES_PAN_21mic_H50_0577_fot_72C-47899_W.tif
  2
NAME
  10
311139.325
  20
4461941.751
 40
34.68091
  0
SEQEND
  0
POLYLINE
  8
LC_OH_2021_05_O7
  70
1
  66
1
  0
VERTEX
  8
LC_OH_2021_05_O7
  10
311575.502
  20
4464006.500
  0
VERTEX
  8
LC_OH_2021_05_O7
  10
311579.502
  20
4464006.000
  0
VERTEX
  8
LC_OH_2021_05_O7
  10
312224.002
  20
4463748.000
  0
VERTEX
  8
LC_OH_2021_05_O7
  10
312325.502
  20
4459886.500
  0
VERTEX
  8
LC_OH_2021_05_O7
  10
312193.502
  20
4459877.000
  0
VERTEX
  8
LC_OH_2021_05_O7
  10
310043.502
  20
4460023.500
  0
VERTEX
  8
LC_OH_2021_05_O7
  10
309972.002
  20
4463802.000
  0
VERTEX
  8
LC_OH_2021_05_O7
  10
311571.502
  20
4464006.000
  0
VERTEX
  8
LC_OH_2021_05_O7
  10
311575.502
  20
4464006.500
  0
SEQEND
  8
LC_OH_2021_05_O7
  0
INSERT
  8
FeatureAttribs
  2
FEATURE
  41
1
  42
1
  43
1
  50
0
  10
313443.307
  20
4461831.502
 66
1
  0
ATTRIB
  8
FeatureAttribs
 70
0
  1
PNOA-H_AMS_1956-57_33k_ES_PAN_21mic_H50_0577_fot_72C-47898_W.tif
  2
NAME
  10
313443.307
  20
4461831.502
 40
34.68091
  0
SEQEND
  0
POLYLINE
  8
LC_OH_2021_05_O7
  70
1
  66
1
  0
VERTEX
  8
LC_OH_2021_05_O7
  10
314100.097
  20
4463844.832
  0
VERTEX
  8
LC_OH_2021_05_O7
  10
314065.045
  20
4462426.121
  0
VERTEX
  8
LC_OH_2021_05_O7
  10
314007.930
  20
4460113.433
  0
VERTEX
  8
LC_OH_2021_05_O7
  10
313999.831
  20
4459785.341
  0
VERTEX
  8
LC_OH_2021_05_O7
  10
313120.002
  20
4459732.000
  0
VERTEX
  8
LC_OH_2021_05_O7
  10
313117.002
  20
4459732.000
  0
VERTEX
  8
LC_OH_2021_05_O7
  10
313107.502
  20
4459742.000
  0
VERTEX
  8
LC_OH_2021_05_O7
  10
313097.502
  20
4459742.000
  0
VERTEX
  8
LC_OH_2021_05_O7
  10
313093.002
  20
4459737.500
  0
VERTEX
  8
LC_OH_2021_05_O7
  10
313093.002
  20
4459730.500
  0
VERTEX
  8
LC_OH_2021_05_O7
  10
312672.502
  20
4459705.500
  0
VERTEX
  8
LC_OH_2021_05_O7
  10
312325.502
  20
4459886.500
  0
VERTEX
  8
LC_OH_2021_05_O7
  10
312224.002
  20
4463748.000
  0
VERTEX
  8
LC_OH_2021_05_O7
  10
312426.002
  20
4463774.500
  0
VERTEX
  8
LC_OH_2021_05_O7
  10
312430.002
  20
4463775.000
  0
VERTEX
  8
LC_OH_2021_05_O7
  10
313829.002
  20
4463957.500
  0
SEQEND
  8
LC_OH_2021_05_O7
  0
INSERT
  8
FeatureAttribs
  2
FEATURE
  41
1
  42
1
  43
1
  50
0
  10
308836.818
  20
4462001.002
 66
1
  0
ATTRIB
  8
FeatureAttribs
 70
0
  1
PNOA-H_AMS_1956-57_33k_ES_PAN_21mic_H50_0577_fot_72C-47900_W.tif
  2
NAME
  10
308836.818
  20
4462001.002
 40
34.68091
  0
SEQEND
  0
POLYLINE
  8
LC_OH_2021_05_O7
  70
1
  66
1
  0
VERTEX
  8
LC_OH_2021_05_O7
  10
309314.502
  20
4464047.000
  0
VERTEX
  8
LC_OH_2021_05_O7
  10
309321.002
  20
4464046.500
  0
VERTEX
  8
LC_OH_2021_05_O7
  10
309972.002
  20
4463802.000
  0
VERTEX
  8
LC_OH_2021_05_O7
  10
310043.502
  20
4460023.500
  0
VERTEX
  8
LC_OH_2021_05_O7
  10
309928.002
  20
4459955.000
  0
VERTEX
  8
LC_OH_2021_05_O7
  10
307804.002
  20
4460033.500
  0
VERTEX
  8
LC_OH_2021_05_O7
  10
307800.502
  20
4460034.000
  0
VERTEX
  8
LC_OH_2021_05_O7
  10
307687.502
  20
4460090.500
  0
VERTEX
  8
LC_OH_2021_05_O7
  10
307648.502
  20
4463829.000
  0
VERTEX
  8
LC_OH_2021_05_O7
  10
309310.502
  20
4464046.500
  0
VERTEX
  8
LC_OH_2021_05_O7
  10
309314.502
  20
4464047.000
  0
SEQEND
  8
LC_OH_2021_05_O7
  0
INSERT
  8
FeatureAttribs
  2
FEATURE
  41
1
  42
1
  43
1
  50
0
  10
306546.148
  20
4461928.751
 66
1
  0
ATTRIB
  8
FeatureAttribs
 70
0
  1
PNOA-H_AMS_1956-57_33k_ES_PAN_21mic_H50_0577_fot_72C-47901_W.tif
  2
NAME
  10
306546.148
  20
4461928.751
 40
34.68091
  0
SEQEND
  0
POLYLINE
  8
LC_OH_2021_05_O7
  70
1
  66
1
  0
VERTEX
  8
LC_OH_2021_05_O7
  10
307025.502
  20
4464056.500
  0
VERTEX
  8
LC_OH_2021_05_O7
  10
307071.002
  20
4464056.000
  0
VERTEX
  8
LC_OH_2021_05_O7
  10
307648.502
  20
4463829.000
  0
VERTEX
  8
LC_OH_2021_05_O7
  10
307687.502
  20
4460090.500
  0
VERTEX
  8
LC_OH_2021_05_O7
  10
306294.002
  20
4459801.000
  0
VERTEX
  8
LC_OH_2021_05_O7
  10
306290.002
  20
4459801.000
  0
VERTEX
  8
LC_OH_2021_05_O7
  10
305357.001
  20
4460151.000
  0
VERTEX
  8
LC_OH_2021_05_O7
  10
305480.001
  20
4463415.500
  0
VERTEX
  8
LC_OH_2021_05_O7
  10
305481.001
  20
4463422.000
  0
VERTEX
  8
LC_OH_2021_05_O7
  10
305487.001
  20
4463427.500
  0
VERTEX
  8
LC_OH_2021_05_O7
  10
305487.001
  20
4463442.500
  0
VERTEX
  8
LC_OH_2021_05_O7
  10
305484.001
  20
4463446.000
  0
VERTEX
  8
LC_OH_2021_05_O7
  10
305481.501
  20
4463447.000
  0
VERTEX
  8
LC_OH_2021_05_O7
  10
305481.501
  20
4463455.000
  0
VERTEX
  8
LC_OH_2021_05_O7
  10
305500.001
  20
4463941.500
  0
VERTEX
  8
LC_OH_2021_05_O7
  10
306695.002
  20
4464053.000
  0
VERTEX
  8
LC_OH_2021_05_O7
  10
306977.002
  20
4464056.000
  0
VERTEX
  8
LC_OH_2021_05_O7
  10
307025.502
  20
4464056.500
  0
SEQEND
  8
LC_OH_2021_05_O7
  0
INSERT
  8
FeatureAttribs
  2
FEATURE
  41
1
  42
1
  43
1
  50
0
  10
297705.646
  20
4462431.751
 66
1
  0
ATTRIB
  8
FeatureAttribs
 70
0
  1
PNOA-H_AMS_1956-57_33k_ES_PAN_21mic_H50_0577_fot_72C-47905_W.tif
  2
NAME
  10
297705.646
  20
4462431.751
 40
34.68091
  0
SEQEND
  0
POLYLINE
  8
LC_OH_2021_05_O7
  70
1
  66
1
  0
VERTEX
  8
LC_OH_2021_05_O7
  10
296268.501
  20
4460816.000
  0
VERTEX
  8
LC_OH_2021_05_O7
  10
296652.501
  20
4464168.000
  0
VERTEX
  8
LC_OH_2021_05_O7
  10
297994.001
  20
4464502.000
  0
VERTEX
  8
LC_OH_2021_05_O7
  10
298093.501
  20
4464465.000
  0
VERTEX
  8
LC_OH_2021_05_O7
  10
298095.501
  20
4464464.500
  0
VERTEX
  8
LC_OH_2021_05_O7
  10
299128.001
  20
4464084.000
  0
VERTEX
  8
LC_OH_2021_05_O7
  10
299131.001
  20
4464082.500
  0
VERTEX
  8
LC_OH_2021_05_O7
  10
299131.001
  20
4464080.000
  0
VERTEX
  8
LC_OH_2021_05_O7
  10
298770.001
  20
4460646.500
  0
VERTEX
  8
LC_OH_2021_05_O7
  10
297852.501
  20
4460361.500
  0
VERTEX
  8
LC_OH_2021_05_O7
  10
296268.501
  20
4460813.500
  0
VERTEX
  8
LC_OH_2021_05_O7
  10
296268.501
  20
4460816.000
  0
SEQEND
  8
LC_OH_2021_05_O7
  0
INSERT
  8
FeatureAttribs
  2
FEATURE
  41
1
  42
1
  43
1
  50
0
  10
300105.291
  20
4462243.250
 66
1
  0
ATTRIB
  8
FeatureAttribs
 70
0
  1
PNOA-H_AMS_1956-57_33k_ES_PAN_21mic_H50_0577_fot_72C-47904_W.tif
  2
NAME
  10
300105.291
  20
4462243.250
 40
34.68091
  0
SEQEND
  0
POLYLINE
  8
LC_OH_2021_05_O7
  70
1
  66
1
  0
VERTEX
  8
LC_OH_2021_05_O7
  10
299130.501
  20
4464080.000
  0
VERTEX
  8
LC_OH_2021_05_O7
  10
299131.001
  20
4464082.500
  0
VERTEX
  8
LC_OH_2021_05_O7
  10
299134.501
  20
4464083.500
  0
VERTEX
  8
LC_OH_2021_05_O7
  10
300499.001
  20
4464342.000
  0
VERTEX
  8
LC_OH_2021_05_O7
  10
300501.501
  20
4464342.500
  0
VERTEX
  8
LC_OH_2021_05_O7
  10
300507.501
  20
4464342.000
  0
VERTEX
  8
LC_OH_2021_05_O7
  10
301402.501
  20
4464033.000
  0
VERTEX
  8
LC_OH_2021_05_O7
  10
301141.001
  20
4460421.000
  0
VERTEX
  8
LC_OH_2021_05_O7
  10
299938.001
  20
4460144.500
  0
VERTEX
  8
LC_OH_2021_05_O7
  10
299934.001
  20
4460144.000
  0
VERTEX
  8
LC_OH_2021_05_O7
  10
299909.501
  20
4460154.500
  0
VERTEX
  8
LC_OH_2021_05_O7
  10
298770.001
  20
4460646.000
  0
VERTEX
  8
LC_OH_2021_05_O7
  10
299130.501
  20
4464080.000
  0
SEQEND
  8
LC_OH_2021_05_O7
  0
INSERT
  8
FeatureAttribs
  2
FEATURE
  41
1
  42
1
  43
1
  50
0
  10
295224.467
  20
4462665.000
 66
1
  0
ATTRIB
  8
FeatureAttribs
 70
0
  1
PNOA-H_AMS_1956-57_33k_ES_PAN_21mic_H50_0577_fot_72C-47906_W.tif
  2
NAME
  10
295224.467
  20
4462665.000
 40
34.68091
  0
SEQEND
  0
POLYLINE
  8
LC_OH_2021_05_O7
  70
1
  66
1
  0
VERTEX
  8
LC_OH_2021_05_O7
  10
293999.001
  20
4463061.500
  0
VERTEX
  8
LC_OH_2021_05_O7
  10
293999.001
  20
4463068.000
  0
VERTEX
  8
LC_OH_2021_05_O7
  10
294091.001
  20
4464264.000
  0
VERTEX
  8
LC_OH_2021_05_O7
  10
294092.501
  20
4464267.000
  0
VERTEX
  8
LC_OH_2021_05_O7
  10
295340.501
  20
4464661.000
  0
VERTEX
  8
LC_OH_2021_05_O7
  10
296652.501
  20
4464168.000
  0
VERTEX
  8
LC_OH_2021_05_O7
  10
296268.501
  20
4460813.500
  0
VERTEX
  8
LC_OH_2021_05_O7
  10
295943.001
  20
4460670.000
  0
VERTEX
  8
LC_OH_2021_05_O7
  10
295940.501
  20
4460669.000
  0
VERTEX
  8
LC_OH_2021_05_O7
  10
295928.001
  20
4460670.000
  0
VERTEX
  8
LC_OH_2021_05_O7
  10
293965.501
  20
4460851.500
  0
VERTEX
  8
LC_OH_2021_05_O7
  10
293961.001
  20
4460853.500
  0
VERTEX
  8
LC_OH_2021_05_O7
  10
293836.001
  20
4460943.500
  0
VERTEX
  8
LC_OH_2021_05_O7
  10
293999.001
  20
4463061.500
  0
SEQEND
  8
LC_OH_2021_05_O7
  0
INSERT
  8
FeatureAttribs
  2
FEATURE
  41
1
  42
1
  43
1
  50
0
  10
286293.391
  20
4463087.751
 66
1
  0
ATTRIB
  8
FeatureAttribs
 70
0
  1
PNOA-H_AMS_1956-57_33k_ES_PAN_21mic_H50_0577_fot_72C-47910_W.tif
  2
NAME
  10
286293.391
  20
4463087.751
 40
34.68091
  0
SEQEND
  0
POLYLINE
  8
LC_OH_2021_05_O7
  70
1
  66
1
  0
VERTEX
  8
LC_OH_2021_05_O7
  10
285763.953
  20
4464397.230
  0
VERTEX
  8
LC_OH_2021_05_O7
  10
285800.001
  20
4464401.500
  0
VERTEX
  8
LC_OH_2021_05_O7
  10
285804.501
  20
4464402.000
  0
VERTEX
  8
LC_OH_2021_05_O7
  10
286946.501
  20
4464537.000
  0
VERTEX
  8
LC_OH_2021_05_O7
  10
286994.501
  20
4464529.000
  0
VERTEX
  8
LC_OH_2021_05_O7
  10
287027.001
  20
4462297.500
  0
VERTEX
  8
LC_OH_2021_05_O7
  10
285685.942
  20
4461657.096
  0
VERTEX
  8
LC_OH_2021_05_O7
  10
285729.275
  20
4463179.452
  0
SEQEND
  8
LC_OH_2021_05_O7
  0
INSERT
  8
FeatureAttribs
  2
FEATURE
  41
1
  42
1
  43
1
  50
0
  10
288026.946
  20
4462935.750
 66
1
  0
ATTRIB
  8
FeatureAttribs
 70
0
  1
PNOA-H_AMS_1956-57_33k_ES_PAN_21mic_H50_0577_fot_72C-47909_W.tif
  2
NAME
  10
288026.946
  20
4462935.750
 40
34.68091
  0
SEQEND
  0
POLYLINE
  8
LC_OH_2021_05_O7
  70
1
  66
1
  0
VERTEX
  8
LC_OH_2021_05_O7
  10
287525.001
  20
4464628.000
  0
VERTEX
  8
LC_OH_2021_05_O7
  10
287528.001
  20
4464628.500
  0
VERTEX
  8
LC_OH_2021_05_O7
  10
289040.001
  20
4464235.000
  0
VERTEX
  8
LC_OH_2021_05_O7
  10
289031.501
  20
4461337.000
  0
VERTEX
  8
LC_OH_2021_05_O7
  10
288618.001
  20
4461243.000
  0
VERTEX
  8
LC_OH_2021_05_O7
  10
288592.501
  20
4461259.000
  0
VERTEX
  8
LC_OH_2021_05_O7
  10
287027.001
  20
4462297.500
  0
VERTEX
  8
LC_OH_2021_05_O7
  10
286994.501
  20
4464529.000
  0
VERTEX
  8
LC_OH_2021_05_O7
  10
287525.001
  20
4464628.000
  0
SEQEND
  8
LC_OH_2021_05_O7
  0
INSERT
  8
FeatureAttribs
  2
FEATURE
  41
1
  42
1
  43
1
  50
0
  10
292767.821
  20
4462816.750
 66
1
  0
ATTRIB
  8
FeatureAttribs
 70
0
  1
PNOA-H_AMS_1956-57_33k_ES_PAN_21mic_H50_0577_fot_72C-47907_W.tif
  2
NAME
  10
292767.821
  20
4462816.750
 40
34.68091
  0
SEQEND
  0
POLYLINE
  8
LC_OH_2021_05_O7
  70
1
  66
1
  0
VERTEX
  8
LC_OH_2021_05_O7
  10
291583.001
  20
4464280.000
  0
VERTEX
  8
LC_OH_2021_05_O7
  10
291950.001
  20
4464427.500
  0
VERTEX
  8
LC_OH_2021_05_O7
  10
291951.001
  20
4464428.000
  0
VERTEX
  8
LC_OH_2021_05_O7
  10
292693.001
  20
4464726.000
  0
VERTEX
  8
LC_OH_2021_05_O7
  10
294091.501
  20
4464266.500
  0
VERTEX
  8
LC_OH_2021_05_O7
  10
293836.001
  20
4460944.000
  0
VERTEX
  8
LC_OH_2021_05_O7
  10
291942.501
  20
4460907.500
  0
VERTEX
  8
LC_OH_2021_05_O7
  10
291524.501
  20
4461151.000
  0
VERTEX
  8
LC_OH_2021_05_O7
  10
291583.001
  20
4464280.000
  0
SEQEND
  8
LC_OH_2021_05_O7
  0
INSERT
  8
FeatureAttribs
  2
FEATURE
  41
1
  42
1
  43
1
  50
0
  10
302319.379
  20
4462093.251
 66
1
  0
ATTRIB
  8
FeatureAttribs
 70
0
  1
PNOA-H_AMS_1956-57_33k_ES_PAN_21mic_H50_0577_fot_72C-47903_W.tif
  2
NAME
  10
302319.379
  20
4462093.251
 40
34.68091
  0
SEQEND
  0
POLYLINE
  8
LC_OH_2021_05_O7
  70
1
  66
1
  0
VERTEX
  8
LC_OH_2021_05_O7
  10
302771.501
  20
4464226.000
  0
VERTEX
  8
LC_OH_2021_05_O7
  10
303395.001
  20
4464049.500
  0
VERTEX
  8
LC_OH_2021_05_O7
  10
303449.001
  20
4464030.500
  0
VERTEX
  8
LC_OH_2021_05_O7
  10
303308.001
  20
4460245.500
  0
VERTEX
  8
LC_OH_2021_05_O7
  10
302134.501
  20
4459960.500
  0
VERTEX
  8
LC_OH_2021_05_O7
  10
302131.501
  20
4459960.500
  0
VERTEX
  8
LC_OH_2021_05_O7
  10
302125.001
  20
4459963.500
  0
VERTEX
  8
LC_OH_2021_05_O7
  10
301141.001
  20
4460420.500
  0
VERTEX
  8
LC_OH_2021_05_O7
  10
301402.001
  20
4464030.500
  0
VERTEX
  8
LC_OH_2021_05_O7
  10
301402.501
  20
4464033.000
  0
VERTEX
  8
LC_OH_2021_05_O7
  10
301426.001
  20
4464036.500
  0
VERTEX
  8
LC_OH_2021_05_O7
  10
302768.001
  20
4464225.500
  0
VERTEX
  8
LC_OH_2021_05_O7
  10
302771.501
  20
4464226.000
  0
SEQEND
  8
LC_OH_2021_05_O7
  0
INSERT
  8
FeatureAttribs
  2
FEATURE
  41
1
  42
1
  43
1
  50
0
  10
290295.684
  20
4462803.751
 66
1
  0
ATTRIB
  8
FeatureAttribs
 70
0
  1
PNOA-H_AMS_1956-57_33k_ES_PAN_21mic_H50_0577_fot_72C-47908_W.tif
  2
NAME
  10
290295.684
  20
4462803.751
 40
34.68091
  0
SEQEND
  0
POLYLINE
  8
LC_OH_2021_05_O7
  70
1
  66
1
  0
VERTEX
  8
LC_OH_2021_05_O7
  10
289895.501
  20
4464663.000
  0
VERTEX
  8
LC_OH_2021_05_O7
  10
290022.001
  20
4464693.000
  0
VERTEX
  8
LC_OH_2021_05_O7
  10
290024.001
  20
4464693.500
  0
VERTEX
  8
LC_OH_2021_05_O7
  10
291583.001
  20
4464280.000
  0
VERTEX
  8
LC_OH_2021_05_O7
  10
291525.501
  20
4461185.500
  0
VERTEX
  8
LC_OH_2021_05_O7
  10
291524.001
  20
4461150.500
  0
VERTEX
  8
LC_OH_2021_05_O7
  10
289730.501
  20
4460914.000
  0
VERTEX
  8
LC_OH_2021_05_O7
  10
289031.501
  20
4461337.000
  0
VERTEX
  8
LC_OH_2021_05_O7
  10
289040.001
  20
4464235.000
  0
VERTEX
  8
LC_OH_2021_05_O7
  10
289895.501
  20
4464663.000
  0
SEQEND
  8
LC_OH_2021_05_O7
  0
INSERT
  8
FeatureAttribs
  2
FEATURE
  41
1
  42
1
  43
1
  50
0
  10
304400.448
  20
4462011.501
 66
1
  0
ATTRIB
  8
FeatureAttribs
 70
0
  1
PNOA-H_AMS_1956-57_33k_ES_PAN_21mic_H50_0577_fot_72C-47902_W.tif
  2
NAME
  10
304400.448
  20
4462011.501
 40
34.68091
  0
SEQEND
  0
POLYLINE
  8
LC_OH_2021_05_O7
  70
1
  66
1
  0
VERTEX
  8
LC_OH_2021_05_O7
  10
304928.001
  20
4464141.500
  0
VERTEX
  8
LC_OH_2021_05_O7
  10
305500.001
  20
4463941.500
  0
VERTEX
  8
LC_OH_2021_05_O7
  10
305481.501
  20
4463455.000
  0
VERTEX
  8
LC_OH_2021_05_O7
  10
305481.501
  20
4463447.000
  0
VERTEX
  8
LC_OH_2021_05_O7
  10
305484.001
  20
4463446.000
  0
VERTEX
  8
LC_OH_2021_05_O7
  10
305487.001
  20
4463442.500
  0
VERTEX
  8
LC_OH_2021_05_O7
  10
305487.001
  20
4463427.500
  0
VERTEX
  8
LC_OH_2021_05_O7
  10
305481.001
  20
4463422.000
  0
VERTEX
  8
LC_OH_2021_05_O7
  10
305480.001
  20
4463415.500
  0
VERTEX
  8
LC_OH_2021_05_O7
  10
305357.001
  20
4460151.000
  0
VERTEX
  8
LC_OH_2021_05_O7
  10
304289.001
  20
4459881.500
  0
VERTEX
  8
LC_OH_2021_05_O7
  10
304279.001
  20
4459884.000
  0
VERTEX
  8
LC_OH_2021_05_O7
  10
303308.001
  20
4460245.000
  0
VERTEX
  8
LC_OH_2021_05_O7
  10
303449.001
  20
4464030.000
  0
VERTEX
  8
LC_OH_2021_05_O7
  10
304921.001
  20
4464141.000
  0
VERTEX
  8
LC_OH_2021_05_O7
  10
304928.001
  20
4464141.500
  0
SEQEND
  8
LC_OH_2021_05_O7
  0
INSERT
  8
FeatureAttribs
  2
FEATURE
  41
1
  42
1
  43
1
  50
0
  10
289679.739
  20
4454413.251
 66
1
  0
ATTRIB
  8
FeatureAttribs
 70
0
  1
PNOA-H_AMS_1956-57_33k_ES_PAN_21mic_H50_0577_fot_74B-47945_E.tif
  2
NAME
  10
289679.739
  20
4454413.251
 40
34.68091
  0
SEQEND
  0
POLYLINE
  8
LC_OH_2021_05_O7
  70
1
  66
1
  0
VERTEX
  8
LC_OH_2021_05_O7
  10
290795.586
  20
4453630.002
  0
VERTEX
  8
LC_OH_2021_05_O7
  10
288526.435
  20
4453630.003
  0
VERTEX
  8
LC_OH_2021_05_O7
  10
288550.501
  20
4455005.500
  0
VERTEX
  8
LC_OH_2021_05_O7
  10
290540.501
  20
4455196.000
  0
VERTEX
  8
LC_OH_2021_05_O7
  10
290545.501
  20
4455196.500
  0
VERTEX
  8
LC_OH_2021_05_O7
  10
290549.001
  20
4455196.500
  0
VERTEX
  8
LC_OH_2021_05_O7
  10
290551.501
  20
4455194.500
  0
VERTEX
  8
LC_OH_2021_05_O7
  10
290836.001
  20
4454963.000
  0
VERTEX
  8
LC_OH_2021_05_O7
  10
290795.586
  20
4453630.002
  0
SEQEND
  8
LC_OH_2021_05_O7
  0
INSERT
  8
FeatureAttribs
  2
FEATURE
  41
1
  42
1
  43
1
  50
0
  10
302732.754
  20
4452947.749
 66
1
  0
ATTRIB
  8
FeatureAttribs
 70
0
  1
PNOA-H_AMS_1956-57_33k_ES_PAN_21mic_H50_0577_fot_74B-47950_E.tif
  2
NAME
  10
302732.754
  20
4452947.749
 40
34.68091
  0
SEQEND
  0
POLYLINE
  8
LC_OH_2021_05_O7
  70
1
  66
1
  0
VERTEX
  8
LC_OH_2021_05_O7
  10
302171.001
  20
4455178.000
  0
VERTEX
  8
LC_OH_2021_05_O7
  10
302172.001
  20
4455178.500
  0
VERTEX
  8
LC_OH_2021_05_O7
  10
304101.001
  20
4454524.500
  0
VERTEX
  8
LC_OH_2021_05_O7
  10
303916.501
  20
4450717.000
  0
VERTEX
  8
LC_OH_2021_05_O7
  10
301408.001
  20
4450862.500
  0
VERTEX
  8
LC_OH_2021_05_O7
  10
301468.001
  20
4454665.500
  0
VERTEX
  8
LC_OH_2021_05_O7
  10
302171.001
  20
4455178.000
  0
SEQEND
  8
LC_OH_2021_05_O7
  0
INSERT
  8
FeatureAttribs
  2
FEATURE
  41
1
  42
1
  43
1
  50
0
  10
308288.047
  20
4452505.250
 66
1
  0
ATTRIB
  8
FeatureAttribs
 70
0
  1
PNOA-H_AMS_1956-57_33k_ES_PAN_21mic_H50_0577_fot_74B-47952_E.tif
  2
NAME
  10
308288.047
  20
4452505.250
 40
34.68091
  0
SEQEND
  0
POLYLINE
  8
LC_OH_2021_05_O7
  70
1
  66
1
  0
VERTEX
  8
LC_OH_2021_05_O7
  10
307014.502
  20
4454217.500
  0
VERTEX
  8
LC_OH_2021_05_O7
  10
309159.502
  20
4454706.000
  0
VERTEX
  8
LC_OH_2021_05_O7
  10
309162.002
  20
4454706.500
  0
VERTEX
  8
LC_OH_2021_05_O7
  10
309165.002
  20
4454705.000
  0
VERTEX
  8
LC_OH_2021_05_O7
  10
309893.502
  20
4454052.000
  0
VERTEX
  8
LC_OH_2021_05_O7
  10
309461.002
  20
4450443.000
  0
VERTEX
  8
LC_OH_2021_05_O7
  10
309459.002
  20
4450433.500
  0
VERTEX
  8
LC_OH_2021_05_O7
  10
307630.502
  20
4450304.000
  0
VERTEX
  8
LC_OH_2021_05_O7
  10
307180.502
  20
4450419.000
  0
VERTEX
  8
LC_OH_2021_05_O7
  10
306710.002
  20
4450660.500
  0
VERTEX
  8
LC_OH_2021_05_O7
  10
307014.502
  20
4454217.500
  0
SEQEND
  8
LC_OH_2021_05_O7
  0
INSERT
  8
FeatureAttribs
  2
FEATURE
  41
1
  42
1
  43
1
  50
0
  10
305449.813
  20
4452718.250
 66
1
  0
ATTRIB
  8
FeatureAttribs
 70
0
  1
PNOA-H_AMS_1956-57_33k_ES_PAN_21mic_H50_0577_fot_74B-47951_E.tif
  2
NAME
  10
305449.813
  20
4452718.250
 40
34.68091
  0
SEQEND
  0
POLYLINE
  8
LC_OH_2021_05_O7
  70
1
  66
1
  0
VERTEX
  8
LC_OH_2021_05_O7
  10
304101.501
  20
4454525.500
  0
VERTEX
  8
LC_OH_2021_05_O7
  10
304238.501
  20
4454633.000
  0
VERTEX
  8
LC_OH_2021_05_O7
  10
304239.001
  20
4454634.000
  0
VERTEX
  8
LC_OH_2021_05_O7
  10
304521.001
  20
4454856.000
  0
VERTEX
  8
LC_OH_2021_05_O7
  10
306724.002
  20
4454573.500
  0
VERTEX
  8
LC_OH_2021_05_O7
  10
306726.502
  20
4454573.000
  0
VERTEX
  8
LC_OH_2021_05_O7
  10
306733.002
  20
4454565.500
  0
VERTEX
  8
LC_OH_2021_05_O7
  10
307014.502
  20
4454218.000
  0
VERTEX
  8
LC_OH_2021_05_O7
  10
306710.502
  20
4450661.500
  0
VERTEX
  8
LC_OH_2021_05_O7
  10
306710.002
  20
4450660.500
  0
VERTEX
  8
LC_OH_2021_05_O7
  10
306703.502
  20
4450660.000
  0
VERTEX
  8
LC_OH_2021_05_O7
  10
306672.502
  20
4450659.000
  0
VERTEX
  8
LC_OH_2021_05_O7
  10
304197.001
  20
4450580.500
  0
VERTEX
  8
LC_OH_2021_05_O7
  10
304154.501
  20
4450590.500
  0
VERTEX
  8
LC_OH_2021_05_O7
  10
303916.501
  20
4450716.500
  0
VERTEX
  8
LC_OH_2021_05_O7
  10
304100.501
  20
4454522.000
  0
VERTEX
  8
LC_OH_2021_05_O7
  10
304101.501
  20
4454525.500
  0
SEQEND
  8
LC_OH_2021_05_O7
  0
INSERT
  8
FeatureAttribs
  2
FEATURE
  41
1
  42
1
  43
1
  50
0
  10
310967.205
  20
4452246.749
 66
1
  0
ATTRIB
  8
FeatureAttribs
 70
0
  1
PNOA-H_AMS_1956-57_33k_ES_PAN_21mic_H50_0577_fot_74B-47953_E.tif
  2
NAME
  10
310967.205
  20
4452246.749
 40
34.68091
  0
SEQEND
  0
POLYLINE
  8
LC_OH_2021_05_O7
  70
1
  66
1
  0
VERTEX
  8
LC_OH_2021_05_O7
  10
309462.002
  20
4450456.000
  0
VERTEX
  8
LC_OH_2021_05_O7
  10
309893.502
  20
4454052.000
  0
VERTEX
  8
LC_OH_2021_05_O7
  10
311713.002
  20
4454496.000
  0
VERTEX
  8
LC_OH_2021_05_O7
  10
312430.502
  20
4453909.000
  0
VERTEX
  8
LC_OH_2021_05_O7
  10
312431.502
  20
4453908.500
  0
VERTEX
  8
LC_OH_2021_05_O7
  10
312459.002
  20
4453886.500
  0
VERTEX
  8
LC_OH_2021_05_O7
  10
312460.502
  20
4453885.000
  0
VERTEX
  8
LC_OH_2021_05_O7
  10
312460.502
  20
4453881.000
  0
VERTEX
  8
LC_OH_2021_05_O7
  10
312001.502
  20
4450185.500
  0
VERTEX
  8
LC_OH_2021_05_O7
  10
311011.002
  20
4449999.500
  0
VERTEX
  8
LC_OH_2021_05_O7
  10
310995.002
  20
4449997.500
  0
VERTEX
  8
LC_OH_2021_05_O7
  10
310155.502
  20
4450164.000
  0
VERTEX
  8
LC_OH_2021_05_O7
  10
309461.002
  20
4450433.000
  0
VERTEX
  8
LC_OH_2021_05_O7
  10
309459.502
  20
4450435.000
  0
VERTEX
  8
LC_OH_2021_05_O7
  10
309462.002
  20
4450456.000
  0
SEQEND
  8
LC_OH_2021_05_O7
  0
INSERT
  8
FeatureAttribs
  2
FEATURE
  41
1
  42
1
  43
1
  50
0
  10
313551.466
  20
4452027.998
 66
1
  0
ATTRIB
  8
FeatureAttribs
 70
0
  1
PNOA-H_AMS_1956-57_33k_ES_PAN_21mic_H50_0577_fot_000-47954_R.tif
  2
NAME
  10
313551.466
  20
4452027.998
 40
34.68091
  0
SEQEND
  0
POLYLINE
  8
LC_OH_2021_05_O7
  70
1
  66
1
  0
VERTEX
  8
LC_OH_2021_05_O7
  10
313861.249
  20
4454169.377
  0
VERTEX
  8
LC_OH_2021_05_O7
  10
313836.733
  20
4453175.410
  0
VERTEX
  8
LC_OH_2021_05_O7
  10
313779.717
  20
4450862.750
  0
VERTEX
  8
LC_OH_2021_05_O7
  10
313755.037
  20
4449861.286
  0
VERTEX
  8
LC_OH_2021_05_O7
  10
312804.502
  20
4449976.000
  0
VERTEX
  8
LC_OH_2021_05_O7
  10
312001.002
  20
4450185.000
  0
VERTEX
  8
LC_OH_2021_05_O7
  10
312431.002
  20
4453643.500
  0
VERTEX
  8
LC_OH_2021_05_O7
  10
312431.002
  20
4453647.500
  0
VERTEX
  8
LC_OH_2021_05_O7
  10
312461.002
  20
4453885.000
  0
SEQEND
  8
LC_OH_2021_05_O7
  0
INSERT
  8
FeatureAttribs
  2
FEATURE
  41
1
  42
1
  43
1
  50
0
  10
285868.071
  20
4454512.500
 66
1
  0
ATTRIB
  8
FeatureAttribs
 70
0
  1
PNOA-H_AMS_1956-57_33k_ES_PAN_21mic_H50_0576_fot_74B-47943_E.tif
  2
NAME
  10
285868.071
  20
4454512.500
 40
34.68091
  0
SEQEND
  0
POLYLINE
  8
LC_OH_2021_05_O7
  70
1
  66
1
  0
VERTEX
  8
LC_OH_2021_05_O7
  10
285507.023
  20
4455367.233
  0
VERTEX
  8
LC_OH_2021_05_O7
  10
285594.501
  20
4455395.000
  0
VERTEX
  8
LC_OH_2021_05_O7
  10
285600.501
  20
4455392.000
  0
VERTEX
  8
LC_OH_2021_05_O7
  10
285806.501
  20
4455252.500
  0
VERTEX
  8
LC_OH_2021_05_O7
  10
285807.501
  20
4455252.000
  0
VERTEX
  8
LC_OH_2021_05_O7
  10
286278.501
  20
4454934.500
  0
VERTEX
  8
LC_OH_2021_05_O7
  10
286265.976
  20
4453630.001
  0
VERTEX
  8
LC_OH_2021_05_O7
  10
285457.641
  20
4453630.000
  0
VERTEX
  8
LC_OH_2021_05_O7
  10
285466.120
  20
4453928.373
  0
SEQEND
  8
LC_OH_2021_05_O7
  0
INSERT
  8
FeatureAttribs
  2
FEATURE
  41
1
  42
1
  43
1
  50
0
  10
287407.652
  20
4454475.001
 66
1
  0
ATTRIB
  8
FeatureAttribs
 70
0
  1
PNOA-H_AMS_1956-57_33k_ES_PAN_21mic_H50_0577_fot_74B-47944_E.tif
  2
NAME
  10
287407.652
  20
4454475.001
 40
34.68091
  0
SEQEND
  0
POLYLINE
  8
LC_OH_2021_05_O7
  70
1
  66
1
  0
VERTEX
  8
LC_OH_2021_05_O7
  10
286278.501
  20
4454934.000
  0
VERTEX
  8
LC_OH_2021_05_O7
  10
288140.501
  20
4455319.500
  0
VERTEX
  8
LC_OH_2021_05_O7
  10
288143.001
  20
4455320.000
  0
VERTEX
  8
LC_OH_2021_05_O7
  10
288550.501
  20
4455006.000
  0
VERTEX
  8
LC_OH_2021_05_O7
  10
288526.429
  20
4453630.003
  0
VERTEX
  8
LC_OH_2021_05_O7
  10
286265.979
  20
4453630.001
  0
SEQEND
  8
LC_OH_2021_05_O7
  0
INSERT
  8
FeatureAttribs
  2
FEATURE
  41
1
  42
1
  43
1
  50
0
  10
285904.320
  20
4459429.251
 66
1
  0
ATTRIB
  8
FeatureAttribs
 70
0
  1
PNOA-H_AMS_1956-57_33k_ES_PAN_21mic_H50_0576_fot_73B-40766_W.tif
  2
NAME
  10
285904.320
  20
4459429.251
 40
34.68091
  0
SEQEND
  0
POLYLINE
  8
LC_OH_2021_05_O7
  70
1
  66
1
  0
VERTEX
  8
LC_OH_2021_05_O7
  10
285667.045
  20
4460993.187
  0
VERTEX
  8
LC_OH_2021_05_O7
  10
287213.501
  20
4460162.500
  0
VERTEX
  8
LC_OH_2021_05_O7
  10
287091.001
  20
4458241.500
  0
VERTEX
  8
LC_OH_2021_05_O7
  10
285595.001
  20
4457810.500
  0
VERTEX
  8
LC_OH_2021_05_O7
  10
285585.001
  20
4457814.500
  0
VERTEX
  8
LC_OH_2021_05_O7
  10
285576.727
  20
4457818.536
  0
VERTEX
  8
LC_OH_2021_05_O7
  10
285597.640
  20
4458553.899
  0
VERTEX
  8
LC_OH_2021_05_O7
  10
285663.443
  20
4460866.672
  0
SEQEND
  8
LC_OH_2021_05_O7
  0
INSERT
  8
FeatureAttribs
  2
FEATURE
  41
1
  42
1
  43
1
  50
0
  10
309533.687
  20
4458183.501
 66
1
  0
ATTRIB
  8
FeatureAttribs
 70
0
  1
PNOA-H_AMS_1956-57_33k_ES_PAN_21mic_H50_0577_fot_73B-40755_W.tif
  2
NAME
  10
309533.687
  20
4458183.501
 40
34.68091
  0
SEQEND
  0
POLYLINE
  8
LC_OH_2021_05_O7
  70
1
  66
1
  0
VERTEX
  8
LC_OH_2021_05_O7
  10
308340.002
  20
4457015.500
  0
VERTEX
  8
LC_OH_2021_05_O7
  10
309922.002
  20
4459850.500
  0
VERTEX
  8
LC_OH_2021_05_O7
  10
310189.002
  20
4456953.000
  0
VERTEX
  8
LC_OH_2021_05_O7
  10
309269.002
  20
4456516.500
  0
VERTEX
  8
LC_OH_2021_05_O7
  10
308340.002
  20
4457013.000
  0
VERTEX
  8
LC_OH_2021_05_O7
  10
308340.002
  20
4457015.500
  0
SEQEND
  8
LC_OH_2021_05_O7
  0
INSERT
  8
FeatureAttribs
  2
FEATURE
  41
1
  42
1
  43
1
  50
0
  10
311878.767
  20
4458137.501
 66
1
  0
ATTRIB
  8
FeatureAttribs
 70
0
  1
PNOA-H_AMS_1956-57_33k_ES_PAN_21mic_H50_0577_fot_73B-40754_W.tif
  2
NAME
  10
311878.767
  20
4458137.501
 40
34.68091
  0
SEQEND
  0
POLYLINE
  8
LC_OH_2021_05_O7
  70
1
  66
1
  0
VERTEX
  8
LC_OH_2021_05_O7
  10
312431.502
  20
4459831.500
  0
VERTEX
  8
LC_OH_2021_05_O7
  10
312673.502
  20
4459705.500
  0
VERTEX
  8
LC_OH_2021_05_O7
  10
312464.502
  20
4456822.000
  0
VERTEX
  8
LC_OH_2021_05_O7
  10
311792.502
  20
4456390.000
  0
VERTEX
  8
LC_OH_2021_05_O7
  10
311788.502
  20
4456388.500
  0
VERTEX
  8
LC_OH_2021_05_O7
  10
310515.002
  20
4456894.000
  0
VERTEX
  8
LC_OH_2021_05_O7
  10
310490.002
  20
4456904.000
  0
VERTEX
  8
LC_OH_2021_05_O7
  10
310490.002
  20
4456905.000
  0
VERTEX
  8
LC_OH_2021_05_O7
  10
312196.502
  20
4459877.000
  0
VERTEX
  8
LC_OH_2021_05_O7
  10
312326.502
  20
4459886.500
  0
VERTEX
  8
LC_OH_2021_05_O7
  10
312430.002
  20
4459832.000
  0
VERTEX
  8
LC_OH_2021_05_O7
  10
312431.502
  20
4459831.500
  0
SEQEND
  8
LC_OH_2021_05_O7
  0
INSERT
  8
FeatureAttribs
  2
FEATURE
  41
1
  42
1
  43
1
  50
0
  10
300948.950
  20
4458888.250
 66
1
  0
ATTRIB
  8
FeatureAttribs
 70
0
  1
PNOA-H_AMS_1956-57_33k_ES_PAN_21mic_H50_0577_fot_73B-40759_W.tif
  2
NAME
  10
300948.950
  20
4458888.250
 40
34.68091
  0
SEQEND
  0
POLYLINE
  8
LC_OH_2021_05_O7
  70
1
  66
1
  0
VERTEX
  8
LC_OH_2021_05_O7
  10
299934.501
  20
4460144.000
  0
VERTEX
  8
LC_OH_2021_05_O7
  10
300140.501
  20
4460191.500
  0
VERTEX
  8
LC_OH_2021_05_O7
  10
300142.501
  20
4460192.000
  0
VERTEX
  8
LC_OH_2021_05_O7
  10
301141.001
  20
4460421.000
  0
VERTEX
  8
LC_OH_2021_05_O7
  10
302132.501
  20
4459960.500
  0
VERTEX
  8
LC_OH_2021_05_O7
  10
301944.501
  20
4457404.000
  0
VERTEX
  8
LC_OH_2021_05_O7
  10
299795.501
  20
4457355.500
  0
VERTEX
  8
LC_OH_2021_05_O7
  10
299738.001
  20
4457410.000
  0
VERTEX
  8
LC_OH_2021_05_O7
  10
299934.501
  20
4460144.000
  0
SEQEND
  8
LC_OH_2021_05_O7
  0
INSERT
  8
FeatureAttribs
  2
FEATURE
  41
1
  42
1
  43
1
  50
0
  10
290719.439
  20
4459394.501
 66
1
  0
ATTRIB
  8
FeatureAttribs
 70
0
  1
PNOA-H_AMS_1956-57_33k_ES_PAN_21mic_H50_0577_fot_73B-40764_W.tif
  2
NAME
  10
290719.439
  20
4459394.501
 40
34.68091
  0
SEQEND
  0
POLYLINE
  8
LC_OH_2021_05_O7
  70
1
  66
1
  0
VERTEX
  8
LC_OH_2021_05_O7
  10
289731.001
  20
4460912.000
  0
VERTEX
  8
LC_OH_2021_05_O7
  10
289731.501
  20
4460914.000
  0
VERTEX
  8
LC_OH_2021_05_O7
  10
289734.501
  20
4460914.500
  0
VERTEX
  8
LC_OH_2021_05_O7
  10
289897.001
  20
4460936.000
  0
VERTEX
  8
LC_OH_2021_05_O7
  10
289901.001
  20
4460936.500
  0
VERTEX
  8
LC_OH_2021_05_O7
  10
291525.001
  20
4461151.000
  0
VERTEX
  8
LC_OH_2021_05_O7
  10
291943.001
  20
4460907.500
  0
VERTEX
  8
LC_OH_2021_05_O7
  10
291706.001
  20
4457983.500
  0
VERTEX
  8
LC_OH_2021_05_O7
  10
291697.501
  20
4457980.000
  0
VERTEX
  8
LC_OH_2021_05_O7
  10
290617.001
  20
4457638.000
  0
VERTEX
  8
LC_OH_2021_05_O7
  10
290613.001
  20
4457639.000
  0
VERTEX
  8
LC_OH_2021_05_O7
  10
289527.001
  20
4458160.000
  0
VERTEX
  8
LC_OH_2021_05_O7
  10
289731.001
  20
4460912.000
  0
SEQEND
  8
LC_OH_2021_05_O7
  0
INSERT
  8
FeatureAttribs
  2
FEATURE
  41
1
  42
1
  43
1
  50
0
  10
288400.793
  20
4459528.500
 66
1
  0
ATTRIB
  8
FeatureAttribs
 70
0
  1
PNOA-H_AMS_1956-57_33k_ES_PAN_21mic_H50_0577_fot_73B-40765_W.tif
  2
NAME
  10
288400.793
  20
4459528.500
 40
34.68091
  0
SEQEND
  0
POLYLINE
  8
LC_OH_2021_05_O7
  70
1
  66
1
  0
VERTEX
  8
LC_OH_2021_05_O7
  10
288616.501
  20
4461243.000
  0
VERTEX
  8
LC_OH_2021_05_O7
  10
289027.501
  20
4461336.500
  0
VERTEX
  8
LC_OH_2021_05_O7
  10
289029.501
  20
4461337.000
  0
VERTEX
  8
LC_OH_2021_05_O7
  10
289032.001
  20
4461337.000
  0
VERTEX
  8
LC_OH_2021_05_O7
  10
289039.001
  20
4461333.000
  0
VERTEX
  8
LC_OH_2021_05_O7
  10
289731.501
  20
4460914.000
  0
VERTEX
  8
LC_OH_2021_05_O7
  10
289527.501
  20
4458161.000
  0
VERTEX
  8
LC_OH_2021_05_O7
  10
289526.501
  20
4458159.500
  0
VERTEX
  8
LC_OH_2021_05_O7
  10
289519.001
  20
4458157.000
  0
VERTEX
  8
LC_OH_2021_05_O7
  10
288128.001
  20
4457720.000
  0
VERTEX
  8
LC_OH_2021_05_O7
  10
288085.501
  20
4457740.500
  0
VERTEX
  8
LC_OH_2021_05_O7
  10
287091.001
  20
4458241.500
  0
VERTEX
  8
LC_OH_2021_05_O7
  10
287213.001
  20
4460162.000
  0
VERTEX
  8
LC_OH_2021_05_O7
  10
288616.501
  20
4461243.000
  0
SEQEND
  8
LC_OH_2021_05_O7
  0
INSERT
  8
FeatureAttribs
  2
FEATURE
  41
1
  42
1
  43
1
  50
0
  10
313606.489
  20
4458075.750
 66
1
  0
ATTRIB
  8
FeatureAttribs
 70
0
  1
PNOA-H_AMS_1956-57_33k_ES_PAN_21mic_H50_0577_fot_73B-40753_W.tif
  2
NAME
  10
313606.489
  20
4458075.750
 40
34.68091
  0
SEQEND
  0
POLYLINE
  8
LC_OH_2021_05_O7
  70
1
  66
1
  0
VERTEX
  8
LC_OH_2021_05_O7
  10
313999.835
  20
4459785.501
  0
VERTEX
  8
LC_OH_2021_05_O7
  10
313950.840
  20
4457800.751
  0
VERTEX
  8
LC_OH_2021_05_O7
  10
313917.301
  20
4456441.524
  0
VERTEX
  8
LC_OH_2021_05_O7
  10
312465.002
  20
4456821.500
  0
VERTEX
  8
LC_OH_2021_05_O7
  10
312464.502
  20
4456827.500
  0
VERTEX
  8
LC_OH_2021_05_O7
  10
312673.502
  20
4459705.500
  0
VERTEX
  8
LC_OH_2021_05_O7
  10
313093.002
  20
4459730.500
  0
VERTEX
  8
LC_OH_2021_05_O7
  10
313093.002
  20
4459737.500
  0
VERTEX
  8
LC_OH_2021_05_O7
  10
313097.502
  20
4459742.000
  0
VERTEX
  8
LC_OH_2021_05_O7
  10
313107.502
  20
4459742.000
  0
VERTEX
  8
LC_OH_2021_05_O7
  10
313117.002
  20
4459732.000
  0
VERTEX
  8
LC_OH_2021_05_O7
  10
313120.002
  20
4459732.000
  0
SEQEND
  8
LC_OH_2021_05_O7
  0
INSERT
  8
FeatureAttribs
  2
FEATURE
  41
1
  42
1
  43
1
  50
0
  10
307078.693
  20
4458408.500
 66
1
  0
ATTRIB
  8
FeatureAttribs
 70
0
  1
PNOA-H_AMS_1956-57_33k_ES_PAN_21mic_H50_0577_fot_73B-40756_W.tif
  2
NAME
  10
307078.693
  20
4458408.500
 40
34.68091
  0
SEQEND
  0
POLYLINE
  8
LC_OH_2021_05_O7
  70
1
  66
1
  0
VERTEX
  8
LC_OH_2021_05_O7
  10
307685.502
  20
4460090.500
  0
VERTEX
  8
LC_OH_2021_05_O7
  10
307690.502
  20
4460089.500
  0
VERTEX
  8
LC_OH_2021_05_O7
  10
307801.502
  20
4460034.000
  0
VERTEX
  8
LC_OH_2021_05_O7
  10
307802.002
  20
4460031.000
  0
VERTEX
  8
LC_OH_2021_05_O7
  10
308075.502
  20
4457092.000
  0
VERTEX
  8
LC_OH_2021_05_O7
  10
306912.002
  20
4456726.500
  0
VERTEX
  8
LC_OH_2021_05_O7
  10
306907.002
  20
4456728.500
  0
VERTEX
  8
LC_OH_2021_05_O7
  10
306130.002
  20
4457219.000
  0
VERTEX
  8
LC_OH_2021_05_O7
  10
306291.502
  20
4459801.000
  0
VERTEX
  8
LC_OH_2021_05_O7
  10
307683.002
  20
4460090.000
  0
VERTEX
  8
LC_OH_2021_05_O7
  10
307685.502
  20
4460090.500
  0
SEQEND
  8
LC_OH_2021_05_O7
  0
INSERT
  8
FeatureAttribs
  2
FEATURE
  41
1
  42
1
  43
1
  50
0
  10
303123.757
  20
4458666.500
 66
1
  0
ATTRIB
  8
FeatureAttribs
 70
0
  1
PNOA-H_AMS_1956-57_33k_ES_PAN_21mic_H50_0577_fot_73B-40758_W.tif
  2
NAME
  10
303123.757
  20
4458666.500
 40
34.68091
  0
SEQEND
  0
POLYLINE
  8
LC_OH_2021_05_O7
  70
1
  66
1
  0
VERTEX
  8
LC_OH_2021_05_O7
  10
304239.501
  20
4459899.000
  0
VERTEX
  8
LC_OH_2021_05_O7
  10
304287.501
  20
4459881.000
  0
VERTEX
  8
LC_OH_2021_05_O7
  10
304125.501
  20
4457336.500
  0
VERTEX
  8
LC_OH_2021_05_O7
  10
302274.501
  20
4457087.500
  0
VERTEX
  8
LC_OH_2021_05_O7
  10
301944.501
  20
4457404.000
  0
VERTEX
  8
LC_OH_2021_05_O7
  10
302132.501
  20
4459960.500
  0
VERTEX
  8
LC_OH_2021_05_O7
  10
303308.001
  20
4460245.500
  0
VERTEX
  8
LC_OH_2021_05_O7
  10
304237.501
  20
4459899.500
  0
VERTEX
  8
LC_OH_2021_05_O7
  10
304239.501
  20
4459899.000
  0
SEQEND
  8
LC_OH_2021_05_O7
  0
INSERT
  8
FeatureAttribs
  2
FEATURE
  41
1
  42
1
  43
1
  50
0
  10
305207.650
  20
4458546.251
 66
1
  0
ATTRIB
  8
FeatureAttribs
 70
0
  1
PNOA-H_AMS_1956-57_33k_ES_PAN_21mic_H50_0577_fot_73B-40757_W.tif
  2
NAME
  10
305207.650
  20
4458546.251
 40
34.68091
  0
SEQEND
  0
POLYLINE
  8
LC_OH_2021_05_O7
  70
1
  66
1
  0
VERTEX
  8
LC_OH_2021_05_O7
  10
305355.001
  20
4460151.000
  0
VERTEX
  8
LC_OH_2021_05_O7
  10
305359.501
  20
4460150.500
  0
VERTEX
  8
LC_OH_2021_05_O7
  10
306291.502
  20
4459801.000
  0
VERTEX
  8
LC_OH_2021_05_O7
  10
306130.002
  20
4457219.000
  0
VERTEX
  8
LC_OH_2021_05_O7
  10
304679.001
  20
4456941.500
  0
VERTEX
  8
LC_OH_2021_05_O7
  10
304659.001
  20
4456941.500
  0
VERTEX
  8
LC_OH_2021_05_O7
  10
304125.501
  20
4457336.500
  0
VERTEX
  8
LC_OH_2021_05_O7
  10
304287.001
  20
4459881.000
  0
VERTEX
  8
LC_OH_2021_05_O7
  10
305353.001
  20
4460150.500
  0
VERTEX
  8
LC_OH_2021_05_O7
  10
305355.001
  20
4460151.000
  0
SEQEND
  8
LC_OH_2021_05_O7
  0
INSERT
  8
FeatureAttribs
  2
FEATURE
  41
1
  42
1
  43
1
  50
0
  10
300906.831
  20
4449655.751
 66
1
  0
ATTRIB
  8
FeatureAttribs
 70
0
  1
PNOA-H_AMS_1956-57_33k_ES_PAN_21mic_H50_0577_fot_75B-29314_E.tif
  2
NAME
  10
300906.831
  20
4449655.751
 40
34.68091
  0
SEQEND
  0
POLYLINE
  8
LC_OH_2021_05_O7
  70
1
  66
1
  0
VERTEX
  8
LC_OH_2021_05_O7
  10
301382.903
  20
4448864.414
  0
VERTEX
  8
LC_OH_2021_05_O7
  10
300394.407
  20
4448890.394
  0
VERTEX
  8
LC_OH_2021_05_O7
  10
300922.501
  20
4450688.500
  0
VERTEX
  8
LC_OH_2021_05_O7
  10
300943.001
  20
4450691.000
  0
VERTEX
  8
LC_OH_2021_05_O7
  10
300947.001
  20
4450691.500
  0
VERTEX
  8
LC_OH_2021_05_O7
  10
300948.001
  20
4450691.000
  0
SEQEND
  8
LC_OH_2021_05_O7
  0
INSERT
  8
FeatureAttribs
  2
FEATURE
  41
1
  42
1
  43
1
  50
0
  10
307298.765
  20
4449434.499
 66
1
  0
ATTRIB
  8
FeatureAttribs
 70
0
  1
PNOA-H_AMS_1956-57_33k_ES_PAN_21mic_H50_0577_fot_75B-29316_E.tif
  2
NAME
  10
307298.765
  20
4449434.499
 40
34.68091
  0
SEQEND
  0
POLYLINE
  8
LC_OH_2021_05_O7
  70
1
  66
1
  0
VERTEX
  8
LC_OH_2021_05_O7
  10
307793.445
  20
4448698.694
  0
VERTEX
  8
LC_OH_2021_05_O7
  10
306660.777
  20
4448727.399
  0
VERTEX
  8
LC_OH_2021_05_O7
  10
307180.002
  20
4450417.000
  0
VERTEX
  8
LC_OH_2021_05_O7
  10
307180.502
  20
4450419.000
  0
VERTEX
  8
LC_OH_2021_05_O7
  10
307632.002
  20
4450304.000
  0
SEQEND
  8
LC_OH_2021_05_O7
  0
INSERT
  8
FeatureAttribs
  2
FEATURE
  41
1
  42
1
  43
1
  50
0
  10
313475.990
  20
4449123.000
 66
1
  0
ATTRIB
  8
FeatureAttribs
 70
0
  1
PNOA-H_AMS_1956-57_33k_ES_PAN_21mic_H50_0577_fot_75B-29318_E.tif
  2
NAME
  10
313475.990
  20
4449123.000
 40
34.68091
  0
SEQEND
  0
POLYLINE
  8
LC_OH_2021_05_O7
  70
1
  66
1
  0
VERTEX
  8
LC_OH_2021_05_O7
  10
313755.037
  20
4449861.266
  0
VERTEX
  8
LC_OH_2021_05_O7
  10
313722.725
  20
4448550.097
  0
VERTEX
  8
LC_OH_2021_05_O7
  10
312672.298
  20
4448576.224
  0
VERTEX
  8
LC_OH_2021_05_O7
  10
312805.002
  20
4449976.000
  0
SEQEND
  8
LC_OH_2021_05_O7
  0
INSERT
  8
FeatureAttribs
  2
FEATURE
  41
1
  42
1
  43
1
  50
0
  10
288454.878
  20
4466236.249
 66
1
  0
ATTRIB
  8
FeatureAttribs
 70
0
  1
PNOA-H_AMS_1956-57_33k_ES_PAN_21mic_H50_0577_fot_71C-29346_E.tif
  2
NAME
  10
288454.878
  20
4466236.249
 40
34.68091
  0
SEQEND
  0
POLYLINE
  8
LC_OH_2021_05_O7
  70
1
  66
1
  0
VERTEX
  8
LC_OH_2021_05_O7
  10
288373.910
  20
4467734.021
  0
VERTEX
  8
LC_OH_2021_05_O7
  10
289895.501
  20
4464664.000
  0
VERTEX
  8
LC_OH_2021_05_O7
  10
289895.501
  20
4464662.500
  0
VERTEX
  8
LC_OH_2021_05_O7
  10
289040.501
  20
4464235.000
  0
VERTEX
  8
LC_OH_2021_05_O7
  10
287528.001
  20
4464628.500
  0
VERTEX
  8
LC_OH_2021_05_O7
  10
288042.398
  20
4467743.389
  0
SEQEND
  8
LC_OH_2021_05_O7
  0
INSERT
  8
FeatureAttribs
  2
FEATURE
  41
1
  42
1
  43
1
  50
0
  10
304104.427
  20
4449605.252
 66
1
  0
ATTRIB
  8
FeatureAttribs
 70
0
  1
PNOA-H_AMS_1956-57_33k_ES_PAN_21mic_H50_0577_fot_75B-29315_E.tif
  2
NAME
  10
304104.427
  20
4449605.252
 40
34.68091
  0
SEQEND
  0
POLYLINE
  8
LC_OH_2021_05_O7
  70
1
  66
1
  0
VERTEX
  8
LC_OH_2021_05_O7
  10
304534.509
  20
4448782.267
  0
VERTEX
  8
LC_OH_2021_05_O7
  10
303564.031
  20
4448807.318
  0
VERTEX
  8
LC_OH_2021_05_O7
  10
304155.001
  20
4450590.500
  0
VERTEX
  8
LC_OH_2021_05_O7
  10
304198.001
  20
4450580.500
  0
VERTEX
  8
LC_OH_2021_05_O7
  10
304239.501
  20
4450360.000
  0
VERTEX
  8
LC_OH_2021_05_O7
  10
304239.501
  20
4450357.500
  0
SEQEND
  8
LC_OH_2021_05_O7
  0
INSERT
  8
FeatureAttribs
  2
FEATURE
  41
1
  42
1
  43
1
  50
0
  10
286356.220
  20
4466100.889
 66
1
  0
ATTRIB
  8
FeatureAttribs
 70
0
  1
PNOA-H_AMS_1956-57_33k_ES_PAN_21mic_H50_0577_fot_71C-29345_E.tif
  2
NAME
  10
286356.220
  20
4466100.889
 40
34.68091
  0
SEQEND
  0
POLYLINE
  8
LC_OH_2021_05_O7
  70
1
  66
1
  0
VERTEX
  8
LC_OH_2021_05_O7
  10
286068.105
  20
4467799.181
  0
VERTEX
  8
LC_OH_2021_05_O7
  10
286948.501
  20
4464537.000
  0
VERTEX
  8
LC_OH_2021_05_O7
  10
285763.939
  20
4464396.745
  0
VERTEX
  8
LC_OH_2021_05_O7
  10
285795.135
  20
4465492.239
  0
VERTEX
  8
LC_OH_2021_05_O7
  10
285861.023
  20
4467805.033
  0
SEQEND
  8
LC_OH_2021_05_O7
  0
INSERT
  8
FeatureAttribs
  2
FEATURE
  41
1
  42
1
  43
1
  50
0
  10
296652.200
  20
4465444.499
 66
1
  0
ATTRIB
  8
FeatureAttribs
 70
0
  1
PNOA-H_AMS_1956-57_33k_ES_PAN_21mic_H50_0577_fot_71C-29349_E.tif
  2
NAME
  10
296652.200
  20
4465444.499
 40
34.68091
  0
SEQEND
  0
POLYLINE
  8
LC_OH_2021_05_O7
  70
1
  66
1
  0
VERTEX
  8
LC_OH_2021_05_O7
  10
295494.501
  20
4466719.500
  0
VERTEX
  8
LC_OH_2021_05_O7
  10
295494.501
  20
4466721.000
  0
VERTEX
  8
LC_OH_2021_05_O7
  10
297876.001
  20
4466576.500
  0
VERTEX
  8
LC_OH_2021_05_O7
  10
297972.501
  20
4465993.000
  0
VERTEX
  8
LC_OH_2021_05_O7
  10
297994.501
  20
4464507.500
  0
VERTEX
  8
LC_OH_2021_05_O7
  10
297994.001
  20
4464501.500
  0
VERTEX
  8
LC_OH_2021_05_O7
  10
296652.001
  20
4464168.000
  0
VERTEX
  8
LC_OH_2021_05_O7
  10
295340.501
  20
4464660.500
  0
VERTEX
  8
LC_OH_2021_05_O7
  10
295339.501
  20
4464663.000
  0
VERTEX
  8
LC_OH_2021_05_O7
  10
295317.501
  20
4465757.000
  0
VERTEX
  8
LC_OH_2021_05_O7
  10
295494.501
  20
4466719.500
  0
SEQEND
  8
LC_OH_2021_05_O7
  0
INSERT
  8
FeatureAttribs
  2
FEATURE
  41
1
  42
1
  43
1
  50
0
  10
291132.691
  20
4465986.250
 66
1
  0
ATTRIB
  8
FeatureAttribs
 70
0
  1
PNOA-H_AMS_1956-57_33k_ES_PAN_21mic_H50_0577_fot_71C-29347_E.tif
  2
NAME
  10
291132.691
  20
4465986.250
 40
34.68091
  0
SEQEND
  0
POLYLINE
  8
LC_OH_2021_05_O7
  70
1
  66
1
  0
VERTEX
  8
LC_OH_2021_05_O7
  10
290640.986
  20
4467670.541
  0
VERTEX
  8
LC_OH_2021_05_O7
  10
292493.501
  20
4465344.000
  0
VERTEX
  8
LC_OH_2021_05_O7
  10
292494.001
  20
4465342.500
  0
VERTEX
  8
LC_OH_2021_05_O7
  10
292677.001
  20
4465113.500
  0
VERTEX
  8
LC_OH_2021_05_O7
  10
292692.501
  20
4464725.500
  0
VERTEX
  8
LC_OH_2021_05_O7
  10
291584.001
  20
4464280.000
  0
VERTEX
  8
LC_OH_2021_05_O7
  10
290025.501
  20
4464693.500
  0
VERTEX
  8
LC_OH_2021_05_O7
  10
290619.243
  20
4467671.145
  0
SEQEND
  8
LC_OH_2021_05_O7
  0
INSERT
  8
FeatureAttribs
  2
FEATURE
  41
1
  42
1
  43
1
  50
0
  10
310470.991
  20
4449307.251
 66
1
  0
ATTRIB
  8
FeatureAttribs
 70
0
  1
PNOA-H_AMS_1956-57_33k_ES_PAN_21mic_H50_0577_fot_75B-29317_E.tif
  2
NAME
  10
310470.991
  20
4449307.251
 40
34.68091
  0
SEQEND
  0
POLYLINE
  8
LC_OH_2021_05_O7
  70
1
  66
1
  0
VERTEX
  8
LC_OH_2021_05_O7
  10
311019.071
  20
4448617.345
  0
VERTEX
  8
LC_OH_2021_05_O7
  10
310174.286
  20
4448638.357
  0
VERTEX
  8
LC_OH_2021_05_O7
  10
309763.852
  20
4448648.759
  0
VERTEX
  8
LC_OH_2021_05_O7
  10
310154.502
  20
4450163.500
  0
VERTEX
  8
LC_OH_2021_05_O7
  10
310155.502
  20
4450164.500
  0
VERTEX
  8
LC_OH_2021_05_O7
  10
310382.002
  20
4450119.000
  0
VERTEX
  8
LC_OH_2021_05_O7
  10
310383.502
  20
4450119.000
  0
VERTEX
  8
LC_OH_2021_05_O7
  10
310997.502
  20
4449997.500
  0
SEQEND
  8
LC_OH_2021_05_O7
  0
INSERT
  8
FeatureAttribs
  2
FEATURE
  41
1
  42
1
  43
1
  50
0
  10
308893.281
  20
4466764.500
 66
1
  0
ATTRIB
  8
FeatureAttribs
 70
0
  1
PNOA-H_AMS_1956-57_33k_ES_PAN_21mic_H50_0577_fot_71C-29354_E.tif
  2
NAME
  10
308893.281
  20
4466764.500
 40
34.68091
  0
SEQEND
  0
POLYLINE
  8
LC_OH_2021_05_O7
  70
1
  66
1
  0
VERTEX
  8
LC_OH_2021_05_O7
  10
309705.972
  20
4467163.609
  0
VERTEX
  8
LC_OH_2021_05_O7
  10
309366.002
  20
4464993.000
  0
VERTEX
  8
LC_OH_2021_05_O7
  10
307834.753
  20
4467211.194
  0
SEQEND
  8
LC_OH_2021_05_O7
  0
INSERT
  8
FeatureAttribs
  2
FEATURE
  41
1
  42
1
  43
1
  50
0
  10
311208.432
  20
4466806.248
 66
1
  0
ATTRIB
  8
FeatureAttribs
 70
0
  1
PNOA-H_AMS_1956-57_33k_ES_PAN_21mic_H50_0577_fot_71C-29355_E.tif
  2
NAME
  10
311208.432
  20
4466806.248
 40
34.68091
  0
SEQEND
  0
POLYLINE
  8
LC_OH_2021_05_O7
  70
1
  66
1
  0
VERTEX
  8
LC_OH_2021_05_O7
  10
312119.486
  20
4467102.931
  0
VERTEX
  8
LC_OH_2021_05_O7
  10
311654.002
  20
4465133.500
  0
VERTEX
  8
LC_OH_2021_05_O7
  10
311651.502
  20
4465135.000
  0
VERTEX
  8
LC_OH_2021_05_O7
  10
311636.502
  20
4465154.500
  0
VERTEX
  8
LC_OH_2021_05_O7
  10
310100.654
  20
4467153.572
  0
VERTEX
  8
LC_OH_2021_05_O7
  10
310639.618
  20
4467139.866
  0
SEQEND
  8
LC_OH_2021_05_O7
  0
INSERT
  8
FeatureAttribs
  2
FEATURE
  41
1
  42
1
  43
1
  50
0
  10
313444.298
  20
4466867.000
 66
1
  0
ATTRIB
  8
FeatureAttribs
 70
0
  1
PNOA-H_AMS_1956-57_33k_ES_PAN_21mic_H50_0577_fot_71C-29356_E.tif
  2
NAME
  10
313444.298
  20
4466867.000
 40
34.68091
  0
SEQEND
  0
POLYLINE
  8
LC_OH_2021_05_O7
  70
1
  66
1
  0
VERTEX
  8
LC_OH_2021_05_O7
  10
314152.645
  20
4465971.152
  0
VERTEX
  8
LC_OH_2021_05_O7
  10
313939.002
  20
4465355.000
  0
VERTEX
  8
LC_OH_2021_05_O7
  10
312190.918
  20
4467101.148
  0
VERTEX
  8
LC_OH_2021_05_O7
  10
314179.349
  20
4467051.520
  0
SEQEND
  8
LC_OH_2021_05_O7
  0
INSERT
  8
FeatureAttribs
  2
FEATURE
  41
1
  42
1
  43
1
  50
0
  10
306785.532
  20
4466353.751
 66
1
  0
ATTRIB
  8
FeatureAttribs
 70
0
  1
PNOA-H_AMS_1956-57_33k_ES_PAN_21mic_H50_0577_fot_71C-29353_E.tif
  2
NAME
  10
306785.532
  20
4466353.751
 40
34.68091
  0
SEQEND
  0
POLYLINE
  8
LC_OH_2021_05_O7
  70
1
  66
1
  0
VERTEX
  8
LC_OH_2021_05_O7
  10
307446.542
  20
4467221.066
  0
VERTEX
  8
LC_OH_2021_05_O7
  10
307068.502
  20
4464056.500
  0
VERTEX
  8
LC_OH_2021_05_O7
  10
306733.502
  20
4464053.000
  0
VERTEX
  8
LC_OH_2021_05_O7
  10
306696.002
  20
4464053.500
  0
VERTEX
  8
LC_OH_2021_05_O7
  10
306044.391
  20
4467257.220
  0
VERTEX
  8
LC_OH_2021_05_O7
  10
307099.870
  20
4467229.882
  0
SEQEND
  8
LC_OH_2021_05_O7
  0
INSERT
  8
FeatureAttribs
  2
FEATURE
  41
1
  42
1
  43
1
  50
0
  10
301986.560
  20
4466131.501
 66
1
  0
ATTRIB
  8
FeatureAttribs
 70
0
  1
PNOA-H_AMS_1956-57_33k_ES_PAN_21mic_H50_0577_fot_71C-29351_E.tif
  2
NAME
  10
301986.560
  20
4466131.501
 40
34.68091
  0
SEQEND
  0
POLYLINE
  8
LC_OH_2021_05_O7
  70
1
  66
1
  0
VERTEX
  8
LC_OH_2021_05_O7
  10
302675.022
  20
4467344.909
  0
VERTEX
  8
LC_OH_2021_05_O7
  10
302772.001
  20
4464226.000
  0
VERTEX
  8
LC_OH_2021_05_O7
  10
301401.501
  20
4464033.000
  0
VERTEX
  8
LC_OH_2021_05_O7
  10
300504.501
  20
4464342.500
  0
VERTEX
  8
LC_OH_2021_05_O7
  10
300499.001
  20
4464942.500
  0
VERTEX
  8
LC_OH_2021_05_O7
  10
300499.001
  20
4464980.000
  0
VERTEX
  8
LC_OH_2021_05_O7
  10
300504.501
  20
4464988.500
  0
VERTEX
  8
LC_OH_2021_05_O7
  10
302073.330
  20
4467360.777
  0
SEQEND
  8
LC_OH_2021_05_O7
  0
INSERT
  8
FeatureAttribs
  2
FEATURE
  41
1
  42
1
  43
1
  50
0
  10
304419.954
  20
4466354.750
 66
1
  0
ATTRIB
  8
FeatureAttribs
 70
0
  1
PNOA-H_AMS_1956-57_33k_ES_PAN_21mic_H50_0577_fot_71C-29352_E.tif
  2
NAME
  10
304419.954
  20
4466354.750
 40
34.68091
  0
SEQEND
  0
POLYLINE
  8
LC_OH_2021_05_O7
  70
1
  66
1
  0
VERTEX
  8
LC_OH_2021_05_O7
  10
305042.740
  20
4467283.165
  0
VERTEX
  8
LC_OH_2021_05_O7
  10
304928.001
  20
4464141.000
  0
VERTEX
  8
LC_OH_2021_05_O7
  10
303449.501
  20
4464030.000
  0
VERTEX
  8
LC_OH_2021_05_O7
  10
303396.001
  20
4464049.000
  0
VERTEX
  8
LC_OH_2021_05_O7
  10
304011.309
  20
4467309.880
  0
SEQEND
  8
LC_OH_2021_05_O7
  0
INSERT
  8
FeatureAttribs
  2
FEATURE
  41
1
  42
1
  43
1
  50
0
  10
294018.175
  20
4465810.249
 66
1
  0
ATTRIB
  8
FeatureAttribs
 70
0
  1
PNOA-H_AMS_1956-57_33k_ES_PAN_21mic_H50_0577_fot_71C-29348_E.tif
  2
NAME
  10
294018.175
  20
4465810.249
 40
34.68091
  0
SEQEND
  0
POLYLINE
  8
LC_OH_2021_05_O7
  70
1
  66
1
  0
VERTEX
  8
LC_OH_2021_05_O7
  10
295317.501
  20
4465756.500
  0
VERTEX
  8
LC_OH_2021_05_O7
  10
295340.001
  20
4464663.000
  0
VERTEX
  8
LC_OH_2021_05_O7
  10
295340.001
  20
4464661.000
  0
VERTEX
  8
LC_OH_2021_05_O7
  10
295331.001
  20
4464658.000
  0
VERTEX
  8
LC_OH_2021_05_O7
  10
294090.501
  20
4464266.500
  0
VERTEX
  8
LC_OH_2021_05_O7
  10
292692.501
  20
4464726.000
  0
VERTEX
  8
LC_OH_2021_05_O7
  10
292677.001
  20
4465115.000
  0
VERTEX
  8
LC_OH_2021_05_O7
  10
293056.501
  20
4467352.500
  0
VERTEX
  8
LC_OH_2021_05_O7
  10
293056.501
  20
4467354.000
  0
SEQEND
  8
LC_OH_2021_05_O7
  0
INSERT
  8
FeatureAttribs
  2
FEATURE
  41
1
  42
1
  43
1
  50
0
  10
299204.559
  20
4465642.999
 66
1
  0
ATTRIB
  8
FeatureAttribs
 70
0
  1
PNOA-H_AMS_1956-57_33k_ES_PAN_21mic_H50_0577_fot_71C-29350_E.tif
  2
NAME
  10
299204.559
  20
4465642.999
 40
34.68091
  0
SEQEND
  0
POLYLINE
  8
LC_OH_2021_05_O7
  70
1
  66
1
  0
VERTEX
  8
LC_OH_2021_05_O7
  10
300270.001
  20
4467203.000
  0
VERTEX
  8
LC_OH_2021_05_O7
  10
300271.001
  20
4467203.500
  0
VERTEX
  8
LC_OH_2021_05_O7
  10
300272.501
  20
4467203.000
  0
VERTEX
  8
LC_OH_2021_05_O7
  10
300273.501
  20
4467193.500
  0
VERTEX
  8
LC_OH_2021_05_O7
  10
300499.001
  20
4464981.500
  0
VERTEX
  8
LC_OH_2021_05_O7
  10
300504.501
  20
4464342.500
  0
VERTEX
  8
LC_OH_2021_05_O7
  10
299130.501
  20
4464082.500
  0
VERTEX
  8
LC_OH_2021_05_O7
  10
298002.501
  20
4464498.500
  0
VERTEX
  8
LC_OH_2021_05_O7
  10
297994.501
  20
4464501.500
  0
VERTEX
  8
LC_OH_2021_05_O7
  10
297994.001
  20
4464507.500
  0
VERTEX
  8
LC_OH_2021_05_O7
  10
297972.501
  20
4465991.500
  0
SEQEND
  8
LC_OH_2021_05_O7
  0
INSERT
  8
FeatureAttribs
  2
FEATURE
  41
1
  42
1
  43
1
  50
0
  10
310717.396
  20
4458464.000
 66
1
  0
ATTRIB
  8
FeatureAttribs
 70
0
  1
PNOA-H_AMS_1956-57_33k_ES_PAN_21mic_H50_0577_fot_000-52075_R.tif
  2
NAME
  10
310717.396
  20
4458464.000
 40
34.68091
  0
SEQEND
  0
POLYLINE
  8
LC_OH_2021_05_O7
  70
1
  66
1
  0
VERTEX
  8
LC_OH_2021_05_O7
  10
310383.502
  20
4460000.500
  0
VERTEX
  8
LC_OH_2021_05_O7
  10
312196.502
  20
4459877.000
  0
VERTEX
  8
LC_OH_2021_05_O7
  10
310490.002
  20
4456904.500
  0
VERTEX
  8
LC_OH_2021_05_O7
  10
310210.002
  20
4456949.500
  0
VERTEX
  8
LC_OH_2021_05_O7
  10
310189.002
  20
4456953.000
  0
VERTEX
  8
LC_OH_2021_05_O7
  10
310188.502
  20
4456954.000
  0
VERTEX
  8
LC_OH_2021_05_O7
  10
309922.002
  20
4459849.000
  0
VERTEX
  8
LC_OH_2021_05_O7
  10
309928.002
  20
4459955.500
  0
VERTEX
  8
LC_OH_2021_05_O7
  10
310043.002
  20
4460023.500
  0
VERTEX
  8
LC_OH_2021_05_O7
  10
310377.002
  20
4460000.500
  0
VERTEX
  8
LC_OH_2021_05_O7
  10
310383.502
  20
4460000.500
  0
SEQEND
  8
LC_OH_2021_05_O7
  0
INSERT
  8
FeatureAttribs
  2
FEATURE
  41
1
  42
1
  43
1
  50
0
  10
308561.853
  20
4458523.750
 66
1
  0
ATTRIB
  8
FeatureAttribs
 70
0
  1
PNOA-H_AMS_1956-57_33k_ES_PAN_21mic_H50_0577_fot_000-52076_R.tif
  2
NAME
  10
308561.853
  20
4458523.750
 40
34.68091
  0
SEQEND
  0
POLYLINE
  8
LC_OH_2021_05_O7
  70
1
  66
1
  0
VERTEX
  8
LC_OH_2021_05_O7
  10
308335.502
  20
4460014.000
  0
VERTEX
  8
LC_OH_2021_05_O7
  10
309928.002
  20
4459955.000
  0
VERTEX
  8
LC_OH_2021_05_O7
  10
309922.002
  20
4459850.500
  0
VERTEX
  8
LC_OH_2021_05_O7
  10
308339.502
  20
4457013.500
  0
VERTEX
  8
LC_OH_2021_05_O7
  10
308075.002
  20
4457092.500
  0
VERTEX
  8
LC_OH_2021_05_O7
  10
307801.502
  20
4460031.000
  0
VERTEX
  8
LC_OH_2021_05_O7
  10
307801.502
  20
4460034.000
  0
VERTEX
  8
LC_OH_2021_05_O7
  10
307804.002
  20
4460034.000
  0
VERTEX
  8
LC_OH_2021_05_O7
  10
308330.502
  20
4460014.000
  0
VERTEX
  8
LC_OH_2021_05_O7
  10
308335.502
  20
4460014.000
  0
SEQEND
  8
LC_OH_2021_05_O7
  0
INSERT
  8
FeatureAttribs
  2
FEATURE
  41
1
  42
1
  43
1
  50
0
  10
308018.878
  20
4455654.749
 66
1
  0
ATTRIB
  8
FeatureAttribs
 70
0
  1
PNOA-H_AMS_1956-57_33k_ES_PAN_21mic_H50_0577_fot_000-52432_R.tif
  2
NAME
  10
308018.878
  20
4455654.749
 40
34.68091
  0
SEQEND
  0
POLYLINE
  8
LC_OH_2021_05_O7
  70
1
  66
1
  0
VERTEX
  8
LC_OH_2021_05_O7
  10
308074.002
  20
4457092.000
  0
VERTEX
  8
LC_OH_2021_05_O7
  10
308077.002
  20
4457092.000
  0
VERTEX
  8
LC_OH_2021_05_O7
  10
308339.002
  20
4457014.000
  0
VERTEX
  8
LC_OH_2021_05_O7
  10
309269.002
  20
4456517.000
  0
VERTEX
  8
LC_OH_2021_05_O7
  10
309163.502
  20
4454714.000
  0
VERTEX
  8
LC_OH_2021_05_O7
  10
309163.002
  20
4454706.500
  0
VERTEX
  8
LC_OH_2021_05_O7
  10
309162.002
  20
4454706.000
  0
VERTEX
  8
LC_OH_2021_05_O7
  10
307016.502
  20
4454217.500
  0
VERTEX
  8
LC_OH_2021_05_O7
  10
307014.502
  20
4454217.500
  0
VERTEX
  8
LC_OH_2021_05_O7
  10
307012.502
  20
4454219.500
  0
VERTEX
  8
LC_OH_2021_05_O7
  10
306726.502
  20
4454572.500
  0
VERTEX
  8
LC_OH_2021_05_O7
  10
306911.002
  20
4456726.500
  0
VERTEX
  8
LC_OH_2021_05_O7
  10
308072.002
  20
4457091.500
  0
VERTEX
  8
LC_OH_2021_05_O7
  10
308074.002
  20
4457092.000
  0
SEQEND
  8
LC_OH_2021_05_O7
  0
INSERT
  8
FeatureAttribs
  2
FEATURE
  41
1
  42
1
  43
1
  50
0
  10
289360.828
  20
4456582.749
 66
1
  0
ATTRIB
  8
FeatureAttribs
 70
0
  1
PNOA-H_AMS_1956-57_33k_ES_PAN_21mic_H50_0577_fot_000-52440_R.tif
  2
NAME
  10
289360.828
  20
4456582.749
 40
34.68091
  0
SEQEND
  0
POLYLINE
  8
LC_OH_2021_05_O7
  70
1
  66
1
  0
VERTEX
  8
LC_OH_2021_05_O7
  10
289526.501
  20
4458160.000
  0
VERTEX
  8
LC_OH_2021_05_O7
  10
290616.001
  20
4457638.000
  0
VERTEX
  8
LC_OH_2021_05_O7
  10
290548.501
  20
4455196.500
  0
VERTEX
  8
LC_OH_2021_05_O7
  10
289567.501
  20
4455102.500
  0
VERTEX
  8
LC_OH_2021_05_O7
  10
289562.001
  20
4455102.500
  0
VERTEX
  8
LC_OH_2021_05_O7
  10
288550.501
  20
4455005.500
  0
VERTEX
  8
LC_OH_2021_05_O7
  10
288143.501
  20
4455320.000
  0
VERTEX
  8
LC_OH_2021_05_O7
  10
288127.001
  20
4457720.000
  0
VERTEX
  8
LC_OH_2021_05_O7
  10
289526.501
  20
4458160.000
  0
SEQEND
  8
LC_OH_2021_05_O7
  0
INSERT
  8
FeatureAttribs
  2
FEATURE
  41
1
  42
1
  43
1
  50
0
  10
286864.777
  20
4456587.750
 66
1
  0
ATTRIB
  8
FeatureAttribs
 70
0
  1
PNOA-H_AMS_1956-57_33k_ES_PAN_21mic_H50_0577_fot_000-52441_R.tif
  2
NAME
  10
286864.777
  20
4456587.750
 40
34.68091
  0
SEQEND
  0
POLYLINE
  8
LC_OH_2021_05_O7
  70
1
  66
1
  0
VERTEX
  8
LC_OH_2021_05_O7
  10
287090.501
  20
4458241.500
  0
VERTEX
  8
LC_OH_2021_05_O7
  10
287854.501
  20
4457857.000
  0
VERTEX
  8
LC_OH_2021_05_O7
  10
287855.501
  20
4457856.500
  0
VERTEX
  8
LC_OH_2021_05_O7
  10
288127.001
  20
4457720.000
  0
VERTEX
  8
LC_OH_2021_05_O7
  10
288143.501
  20
4455320.000
  0
VERTEX
  8
LC_OH_2021_05_O7
  10
286278.501
  20
4454934.000
  0
VERTEX
  8
LC_OH_2021_05_O7
  10
285595.501
  20
4455395.000
  0
VERTEX
  8
LC_OH_2021_05_O7
  10
285594.001
  20
4457810.500
  0
SEQEND
  8
LC_OH_2021_05_O7
  0
INSERT
  8
FeatureAttribs
  2
FEATURE
  41
1
  42
1
  43
1
  50
0
  10
300994.060
  20
4456034.500
 66
1
  0
ATTRIB
  8
FeatureAttribs
 70
0
  1
PNOA-H_AMS_1956-57_33k_ES_PAN_21mic_H50_0577_fot_000-52435_R.tif
  2
NAME
  10
300994.060
  20
4456034.500
 40
34.68091
  0
SEQEND
  0
POLYLINE
  8
LC_OH_2021_05_O7
  70
1
  66
1
  0
VERTEX
  8
LC_OH_2021_05_O7
  10
299796.001
  20
4457355.500
  0
VERTEX
  8
LC_OH_2021_05_O7
  10
301945.001
  20
4457404.000
  0
VERTEX
  8
LC_OH_2021_05_O7
  10
302274.501
  20
4457088.000
  0
VERTEX
  8
LC_OH_2021_05_O7
  10
302172.001
  20
4455178.000
  0
VERTEX
  8
LC_OH_2021_05_O7
  10
301468.001
  20
4454665.000
  0
VERTEX
  8
LC_OH_2021_05_O7
  10
299754.001
  20
4455210.000
  0
VERTEX
  8
LC_OH_2021_05_O7
  10
299796.001
  20
4457355.500
  0
SEQEND
  8
LC_OH_2021_05_O7
  0
INSERT
  8
FeatureAttribs
  2
FEATURE
  41
1
  42
1
  43
1
  50
0
  10
285551.257
  20
4456592.901
 66
1
  0
ATTRIB
  8
FeatureAttribs
 70
0
  1
PNOA-H_AMS_1956-57_33k_ES_PAN_21mic_H50_0576_fot_000-52442_R.tif
  2
NAME
  10
285551.257
  20
4456592.901
 40
34.68091
  0
SEQEND
  0
POLYLINE
  8
LC_OH_2021_05_O7
  70
1
  66
1
  0
VERTEX
  8
LC_OH_2021_05_O7
  10
285576.737
  20
4457818.898
  0
VERTEX
  8
LC_OH_2021_05_O7
  10
285594.001
  20
4457810.500
  0
VERTEX
  8
LC_OH_2021_05_O7
  10
285595.501
  20
4455395.000
  0
VERTEX
  8
LC_OH_2021_05_O7
  10
285507.014
  20
4455366.904
  0
VERTEX
  8
LC_OH_2021_05_O7
  10
285531.866
  20
4456241.132
  0
SEQEND
  8
LC_OH_2021_05_O7
  0
INSERT
  8
FeatureAttribs
  2
FEATURE
  41
1
  42
1
  43
1
  50
0
  10
305714.649
  20
4455895.999
 66
1
  0
ATTRIB
  8
FeatureAttribs
 70
0
  1
PNOA-H_AMS_1956-57_33k_ES_PAN_21mic_H50_0577_fot_000-52433_R.tif
  2
NAME
  10
305714.649
  20
4455895.999
 40
34.68091
  0
SEQEND
  0
POLYLINE
  8
LC_OH_2021_05_O7
  70
1
  66
1
  0
VERTEX
  8
LC_OH_2021_05_O7
  10
306772.002
  20
4455102.500
  0
VERTEX
  8
LC_OH_2021_05_O7
  10
306726.502
  20
4454573.000
  0
VERTEX
  8
LC_OH_2021_05_O7
  10
304520.501
  20
4454856.000
  0
VERTEX
  8
LC_OH_2021_05_O7
  10
304659.001
  20
4456941.500
  0
VERTEX
  8
LC_OH_2021_05_O7
  10
304679.001
  20
4456941.500
  0
VERTEX
  8
LC_OH_2021_05_O7
  10
306127.002
  20
4457219.000
  0
VERTEX
  8
LC_OH_2021_05_O7
  10
306130.502
  20
4457219.000
  0
VERTEX
  8
LC_OH_2021_05_O7
  10
306136.502
  20
4457215.500
  0
VERTEX
  8
LC_OH_2021_05_O7
  10
306911.002
  20
4456726.500
  0
VERTEX
  8
LC_OH_2021_05_O7
  10
306772.002
  20
4455107.000
  0
VERTEX
  8
LC_OH_2021_05_O7
  10
306772.002
  20
4455102.500
  0
SEQEND
  8
LC_OH_2021_05_O7
  0
INSERT
  8
FeatureAttribs
  2
FEATURE
  41
1
  42
1
  43
1
  50
0
  10
313026.574
  20
4455353.250
 66
1
  0
ATTRIB
  8
FeatureAttribs
 70
0
  1
PNOA-H_AMS_1956-57_33k_ES_PAN_21mic_H50_0577_fot_000-52430_R.tif
  2
NAME
  10
313026.574
  20
4455353.250
 40
34.68091
  0
SEQEND
  0
POLYLINE
  8
LC_OH_2021_05_O7
  70
1
  66
1
  0
VERTEX
  8
LC_OH_2021_05_O7
  10
313917.301
  20
4456441.534
  0
VERTEX
  8
LC_OH_2021_05_O7
  10
313893.774
  20
4455488.077
  0
VERTEX
  8
LC_OH_2021_05_O7
  10
313861.239
  20
4454168.970
  0
VERTEX
  8
LC_OH_2021_05_O7
  10
312460.502
  20
4453884.500
  0
VERTEX
  8
LC_OH_2021_05_O7
  10
311712.502
  20
4454496.000
  0
VERTEX
  8
LC_OH_2021_05_O7
  10
311789.002
  20
4456387.000
  0
VERTEX
  8
LC_OH_2021_05_O7
  10
311790.502
  20
4456389.500
  0
VERTEX
  8
LC_OH_2021_05_O7
  10
312429.502
  20
4456800.000
  0
VERTEX
  8
LC_OH_2021_05_O7
  10
312430.502
  20
4456800.500
  0
VERTEX
  8
LC_OH_2021_05_O7
  10
312465.002
  20
4456822.000
  0
SEQEND
  8
LC_OH_2021_05_O7
  0
INSERT
  8
FeatureAttribs
  2
FEATURE
  41
1
  42
1
  43
1
  50
0
  10
310481.542
  20
4455502.499
 66
1
  0
ATTRIB
  8
FeatureAttribs
 70
0
  1
PNOA-H_AMS_1956-57_33k_ES_PAN_21mic_H50_0577_fot_000-52431_R.tif
  2
NAME
  10
310481.542
  20
4455502.499
 40
34.68091
  0
SEQEND
  0
POLYLINE
  8
LC_OH_2021_05_O7
  70
1
  66
1
  0
VERTEX
  8
LC_OH_2021_05_O7
  10
310188.002
  20
4456953.000
  0
VERTEX
  8
LC_OH_2021_05_O7
  10
310491.502
  20
4456904.000
  0
VERTEX
  8
LC_OH_2021_05_O7
  10
311789.502
  20
4456388.500
  0
VERTEX
  8
LC_OH_2021_05_O7
  10
311712.502
  20
4454496.000
  0
VERTEX
  8
LC_OH_2021_05_O7
  10
309893.002
  20
4454052.000
  0
VERTEX
  8
LC_OH_2021_05_O7
  10
309163.002
  20
4454706.000
  0
VERTEX
  8
LC_OH_2021_05_O7
  10
309269.002
  20
4456516.500
  0
VERTEX
  8
LC_OH_2021_05_O7
  10
310186.502
  20
4456952.500
  0
VERTEX
  8
LC_OH_2021_05_O7
  10
310188.002
  20
4456953.000
  0
SEQEND
  8
LC_OH_2021_05_O7
  0
INSERT
  8
FeatureAttribs
  2
FEATURE
  41
1
  42
1
  43
1
  50
0
  10
303402.044
  20
4455930.499
 66
1
  0
ATTRIB
  8
FeatureAttribs
 70
0
  1
PNOA-H_AMS_1956-57_33k_ES_PAN_21mic_H50_0577_fot_000-52434_R.tif
  2
NAME
  10
303402.044
  20
4455930.499
 40
34.68091
  0
SEQEND
  0
POLYLINE
  8
LC_OH_2021_05_O7
  70
1
  66
1
  0
VERTEX
  8
LC_OH_2021_05_O7
  10
304537.001
  20
4455102.500
  0
VERTEX
  8
LC_OH_2021_05_O7
  10
304520.501
  20
4454855.500
  0
VERTEX
  8
LC_OH_2021_05_O7
  10
304100.501
  20
4454524.500
  0
VERTEX
  8
LC_OH_2021_05_O7
  10
302172.001
  20
4455178.500
  0
VERTEX
  8
LC_OH_2021_05_O7
  10
302274.501
  20
4457087.500
  0
VERTEX
  8
LC_OH_2021_05_O7
  10
304126.001
  20
4457336.500
  0
VERTEX
  8
LC_OH_2021_05_O7
  10
304659.001
  20
4456941.500
  0
VERTEX
  8
LC_OH_2021_05_O7
  10
304537.001
  20
4455108.500
  0
VERTEX
  8
LC_OH_2021_05_O7
  10
304537.001
  20
4455102.500
  0
SEQEND
  8
LC_OH_2021_05_O7
  0
INSERT
  8
FeatureAttribs
  2
FEATURE
  41
1
  42
1
  43
1
  50
0
  10
300038.688
  20
4449784.306
 66
1
  0
ATTRIB
  8
FeatureAttribs
 70
0
  1
PNOA-H_AMS_1956-57_33k_ES_PAN_21mic_H50_0600_fot_000-40704_R.tif
  2
NAME
  10
300038.688
  20
4449784.306
 40
34.68091
  0
SEQEND
  0
POLYLINE
  8
LC_OH_2021_05_O7
  70
1
  66
1
  0
VERTEX
  8
LC_OH_2021_05_O7
  10
300394.676
  20
4448890.387
  0
VERTEX
  8
LC_OH_2021_05_O7
  10
299528.863
  20
4448913.143
  0
VERTEX
  8
LC_OH_2021_05_O7
  10
299420.001
  20
4448916.055
  0
VERTEX
  8
LC_OH_2021_05_O7
  10
299420.001
  20
4450948.614
  0
VERTEX
  8
LC_OH_2021_05_O7
  10
300141.501
  20
4450823.500
  0
VERTEX
  8
LC_OH_2021_05_O7
  10
300143.501
  20
4450823.500
  0
VERTEX
  8
LC_OH_2021_05_O7
  10
300917.501
  20
4450689.500
  0
VERTEX
  8
LC_OH_2021_05_O7
  10
300922.501
  20
4450688.500
  0
VERTEX
  8
LC_OH_2021_05_O7
  10
300922.501
  20
4450686.500
  0
SEQEND
  8
LC_OH_2021_05_O7
  0
INSERT
  8
FeatureAttribs
  2
FEATURE
  41
1
  42
1
  43
1
  50
0
  10
302523.935
  20
4449741.252
 66
1
  0
ATTRIB
  8
FeatureAttribs
 70
0
  1
PNOA-H_AMS_1956-57_33k_ES_PAN_21mic_H50_0600_fot_000-40705_R.tif
  2
NAME
  10
302523.935
  20
4449741.252
 40
34.68091
  0
SEQEND
  0
POLYLINE
  8
LC_OH_2021_05_O7
  70
1
  66
1
  0
VERTEX
  8
LC_OH_2021_05_O7
  10
303564.457
  20
4448807.307
  0
VERTEX
  8
LC_OH_2021_05_O7
  10
303077.355
  20
4448819.880
  0
VERTEX
  8
LC_OH_2021_05_O7
  10
301382.734
  20
4448864.419
  0
VERTEX
  8
LC_OH_2021_05_O7
  10
300947.501
  20
4450691.500
  0
VERTEX
  8
LC_OH_2021_05_O7
  10
301407.501
  20
4450862.500
  0
VERTEX
  8
LC_OH_2021_05_O7
  10
302186.501
  20
4450817.000
  0
VERTEX
  8
LC_OH_2021_05_O7
  10
302191.501
  20
4450817.000
  0
VERTEX
  8
LC_OH_2021_05_O7
  10
303916.501
  20
4450717.000
  0
VERTEX
  8
LC_OH_2021_05_O7
  10
304151.001
  20
4450593.000
  0
VERTEX
  8
LC_OH_2021_05_O7
  10
304154.501
  20
4450591.000
  0
VERTEX
  8
LC_OH_2021_05_O7
  10
304155.001
  20
4450589.000
  0
SEQEND
  8
LC_OH_2021_05_O7
  0
INSERT
  8
FeatureAttribs
  2
FEATURE
  41
1
  42
1
  43
1
  50
0
  10
305652.591
  20
4449555.249
 66
1
  0
ATTRIB
  8
FeatureAttribs
 70
0
  1
PNOA-H_AMS_1956-57_33k_ES_PAN_21mic_H50_0600_fot_000-40706_R.tif
  2
NAME
  10
305652.591
  20
4449555.249
 40
34.68091
  0
SEQEND
  0
POLYLINE
  8
LC_OH_2021_05_O7
  70
1
  66
1
  0
VERTEX
  8
LC_OH_2021_05_O7
  10
306660.801
  20
4448727.399
  0
VERTEX
  8
LC_OH_2021_05_O7
  10
306625.829
  20
4448728.285
  0
VERTEX
  8
LC_OH_2021_05_O7
  10
304534.694
  20
4448782.262
  0
VERTEX
  8
LC_OH_2021_05_O7
  10
304198.001
  20
4450580.500
  0
VERTEX
  8
LC_OH_2021_05_O7
  10
306688.002
  20
4450660.000
  0
VERTEX
  8
LC_OH_2021_05_O7
  10
306703.502
  20
4450660.500
  0
VERTEX
  8
LC_OH_2021_05_O7
  10
306710.502
  20
4450660.500
  0
VERTEX
  8
LC_OH_2021_05_O7
  10
306722.502
  20
4450654.500
  0
VERTEX
  8
LC_OH_2021_05_O7
  10
307180.502
  20
4450419.500
  0
VERTEX
  8
LC_OH_2021_05_O7
  10
307180.502
  20
4450418.500
  0
SEQEND
  8
LC_OH_2021_05_O7
  0
INSERT
  8
FeatureAttribs
  2
FEATURE
  41
1
  42
1
  43
1
  50
0
  10
308843.743
  20
4449442.001
 66
1
  0
ATTRIB
  8
FeatureAttribs
 70
0
  1
PNOA-H_AMS_1956-57_33k_ES_PAN_21mic_H50_0600_fot_000-40707_R.tif
  2
NAME
  10
308843.743
  20
4449442.001
 40
34.68091
  0
SEQEND
  0
POLYLINE
  8
LC_OH_2021_05_O7
  70
1
  66
1
  0
VERTEX
  8
LC_OH_2021_05_O7
  10
309764.132
  20
4448648.752
  0
VERTEX
  8
LC_OH_2021_05_O7
  10
307793.375
  20
4448698.696
  0
VERTEX
  8
LC_OH_2021_05_O7
  10
307632.002
  20
4450304.000
  0
VERTEX
  8
LC_OH_2021_05_O7
  10
309451.502
  20
4450433.500
  0
VERTEX
  8
LC_OH_2021_05_O7
  10
309459.002
  20
4450434.000
  0
VERTEX
  8
LC_OH_2021_05_O7
  10
310142.502
  20
4450169.500
  0
VERTEX
  8
LC_OH_2021_05_O7
  10
310154.002
  20
4450165.000
  0
VERTEX
  8
LC_OH_2021_05_O7
  10
310155.002
  20
4450163.500
  0
SEQEND
  8
LC_OH_2021_05_O7
  0
INSERT
  8
FeatureAttribs
  2
FEATURE
  41
1
  42
1
  43
1
  50
0
  10
311875.496
  20
4449317.501
 66
1
  0
ATTRIB
  8
FeatureAttribs
 70
0
  1
PNOA-H_AMS_1956-57_33k_ES_PAN_21mic_H50_0600_fot_000-40708_R.tif
  2
NAME
  10
311875.496
  20
4449317.501
 40
34.68091
  0
SEQEND
  0
POLYLINE
  8
LC_OH_2021_05_O7
  70
1
  66
1
  0
VERTEX
  8
LC_OH_2021_05_O7
  10
312672.629
  20
4448576.216
  0
VERTEX
  8
LC_OH_2021_05_O7
  10
311019.071
  20
4448617.345
  0
VERTEX
  8
LC_OH_2021_05_O7
  10
310997.502
  20
4449997.500
  0
VERTEX
  8
LC_OH_2021_05_O7
  10
311999.502
  20
4450185.000
  0
VERTEX
  8
LC_OH_2021_05_O7
  10
312006.502
  20
4450184.000
  0
VERTEX
  8
LC_OH_2021_05_O7
  10
312429.502
  20
4450073.500
  0
VERTEX
  8
LC_OH_2021_05_O7
  10
312431.502
  20
4450073.000
  0
VERTEX
  8
LC_OH_2021_05_O7
  10
312804.502
  20
4449976.500
  0
VERTEX
  8
LC_OH_2021_05_O7
  10
312805.002
  20
4449973.500
  0
SEQEND
  8
LC_OH_2021_05_O7
  0
INSERT
  8
FeatureAttribs
  2
FEATURE
  41
1
  42
1
  43
1
  50
0
  10
292004.429
  20
4454267.500
 66
1
  0
ATTRIB
  8
FeatureAttribs
 70
0
  1
PNOA-H_AMS_1956-57_33k_ES_PAN_21mic_H50_0577_fot_74B-47946_E.tif
  2
NAME
  10
292004.429
  20
4454267.500
 40
34.68091
  0
SEQEND
  0
POLYLINE
  8
Unknown_Area_Type
  70
1
  66
1
  0
VERTEX
  8
Unknown_Area_Type
  10
293198.408
  20
4453430.001
  0
VERTEX
  8
Unknown_Area_Type
  10
292450.001
  20
4453430.000
  0
VERTEX
  8
Unknown_Area_Type
  10
292450.001
  20
4453630.000
  0
VERTEX
  8
Unknown_Area_Type
  10
290795.269
  20
4453630.002
  0
VERTEX
  8
Unknown_Area_Type
  10
290835.501
  20
4454961.500
  0
VERTEX
  8
Unknown_Area_Type
  10
290836.001
  20
4454963.000
  0
VERTEX
  8
Unknown_Area_Type
  10
290857.001
  20
4454964.500
  0
VERTEX
  8
Unknown_Area_Type
  10
292883.001
  20
4455104.500
  0
VERTEX
  8
Unknown_Area_Type
  10
292890.001
  20
4455105.000
  0
VERTEX
  8
Unknown_Area_Type
  10
292895.501
  20
4455105.000
  0
VERTEX
  8
Unknown_Area_Type
  10
293191.501
  20
4454848.500
  0
VERTEX
  8
Unknown_Area_Type
  10
293198.408
  20
4453430.001
  0
SEQEND
  8
Unknown_Area_Type
  0
INSERT
  8
FeatureAttribs
  2
FEATURE
  41
1
  42
1
  43
1
  50
0
  10
300430.445
  20
4452949.249
 66
1
  0
ATTRIB
  8
FeatureAttribs
 70
0
  1
PNOA-H_AMS_1956-57_33k_ES_PAN_21mic_H50_0577_fot_74B-47949_E.tif
  2
NAME
  10
300430.445
  20
4452949.249
 40
34.68091
  0
SEQEND
  0
POLYLINE
  8
Unknown_Area_Type
  70
1
  66
1
  0
VERTEX
  8
Unknown_Area_Type
  10
299419.965
  20
4450948.737
  0
VERTEX
  8
Unknown_Area_Type
  10
299420.001
  20
4453430.000
  0
VERTEX
  8
Unknown_Area_Type
  10
298733.549
  20
4453430.001
  0
VERTEX
  8
Unknown_Area_Type
  10
298739.501
  20
4454545.000
  0
VERTEX
  8
Unknown_Area_Type
  10
299754.501
  20
4455210.000
  0
VERTEX
  8
Unknown_Area_Type
  10
301468.001
  20
4454665.000
  0
VERTEX
  8
Unknown_Area_Type
  10
301410.501
  20
4451027.500
  0
VERTEX
  8
Unknown_Area_Type
  10
301410.501
  20
4451006.500
  0
VERTEX
  8
Unknown_Area_Type
  10
301408.501
  20
4450868.000
  0
VERTEX
  8
Unknown_Area_Type
  10
301407.501
  20
4450862.000
  0
VERTEX
  8
Unknown_Area_Type
  10
300949.001
  20
4450691.500
  0
VERTEX
  8
Unknown_Area_Type
  10
300920.001
  20
4450688.500
  0
VERTEX
  8
Unknown_Area_Type
  10
299419.965
  20
4450948.737
  0
SEQEND
  8
Unknown_Area_Type
  0
INSERT
  8
FeatureAttribs
  2
FEATURE
  41
1
  42
1
  43
1
  50
0
  10
298815.596
  20
4459028.500
 66
1
  0
ATTRIB
  8
FeatureAttribs
 70
0
  1
PNOA-H_AMS_1956-57_33k_ES_PAN_21mic_H50_0577_fot_73B-40760_W.tif
  2
NAME
  10
298815.596
  20
4459028.500
 40
34.68091
  0
SEQEND
  0
POLYLINE
  8
Unknown_Area_Type
  70
1
  66
1
  0
VERTEX
  8
Unknown_Area_Type
  10
298094.001
  20
4460436.500
  0
VERTEX
  8
Unknown_Area_Type
  10
298770.001
  20
4460646.500
  0
VERTEX
  8
Unknown_Area_Type
  10
299934.501
  20
4460144.000
  0
VERTEX
  8
Unknown_Area_Type
  10
299738.001
  20
4457410.500
  0
VERTEX
  8
Unknown_Area_Type
  10
297692.001
  20
4457546.000
  0
VERTEX
  8
Unknown_Area_Type
  10
297853.001
  20
4460358.000
  0
VERTEX
  8
Unknown_Area_Type
  10
297853.501
  20
4460361.500
  0
VERTEX
  8
Unknown_Area_Type
  10
297859.001
  20
4460363.500
  0
VERTEX
  8
Unknown_Area_Type
  10
298092.501
  20
4460436.000
  0
VERTEX
  8
Unknown_Area_Type
  10
298094.001
  20
4460436.500
  0
SEQEND
  8
Unknown_Area_Type
  0
INSERT
  8
FeatureAttribs
  2
FEATURE
  41
1
  42
1
  43
1
  50
0
  10
292825.099
  20
4459222.251
 66
1
  0
ATTRIB
  8
FeatureAttribs
 70
0
  1
PNOA-H_AMS_1956-57_33k_ES_PAN_21mic_H50_0577_fot_73B-40763_W.tif
  2
NAME
  10
292825.099
  20
4459222.251
 40
34.68091
  0
SEQEND
  0
POLYLINE
  8
Unknown_Area_Type
  70
1
  66
1
  0
VERTEX
  8
Unknown_Area_Type
  10
291943.001
  20
4460907.500
  0
VERTEX
  8
Unknown_Area_Type
  10
293836.001
  20
4460944.000
  0
VERTEX
  8
Unknown_Area_Type
  10
293964.001
  20
4460852.000
  0
VERTEX
  8
Unknown_Area_Type
  10
293742.001
  20
4457838.000
  0
VERTEX
  8
Unknown_Area_Type
  10
292997.501
  20
4457500.500
  0
VERTEX
  8
Unknown_Area_Type
  10
291705.501
  20
4457983.000
  0
VERTEX
  8
Unknown_Area_Type
  10
291943.001
  20
4460904.500
  0
VERTEX
  8
Unknown_Area_Type
  10
291943.001
  20
4460907.500
  0
SEQEND
  8
Unknown_Area_Type
  0
INSERT
  8
FeatureAttribs
  2
FEATURE
  41
1
  42
1
  43
1
  50
0
  10
294832.129
  20
4459144.251
 66
1
  0
ATTRIB
  8
FeatureAttribs
 70
0
  1
PNOA-H_AMS_1956-57_33k_ES_PAN_21mic_H50_0577_fot_73B-40762_W.tif
  2
NAME
  10
294832.129
  20
4459144.251
 40
34.68091
  0
SEQEND
  0
POLYLINE
  8
Unknown_Area_Type
  70
1
  66
1
  0
VERTEX
  8
Unknown_Area_Type
  10
293964.001
  20
4460852.000
  0
VERTEX
  8
Unknown_Area_Type
  10
295923.001
  20
4460671.000
  0
VERTEX
  8
Unknown_Area_Type
  10
295939.001
  20
4460669.500
  0
VERTEX
  8
Unknown_Area_Type
  10
295940.501
  20
4460668.500
  0
VERTEX
  8
Unknown_Area_Type
  10
295715.001
  20
4457666.000
  0
VERTEX
  8
Unknown_Area_Type
  10
295284.001
  20
4457436.500
  0
VERTEX
  8
Unknown_Area_Type
  10
293742.001
  20
4457838.000
  0
VERTEX
  8
Unknown_Area_Type
  10
293963.501
  20
4460844.500
  0
VERTEX
  8
Unknown_Area_Type
  10
293964.001
  20
4460852.000
  0
SEQEND
  8
Unknown_Area_Type
  0
INSERT
  8
FeatureAttribs
  2
FEATURE
  41
1
  42
1
  43
1
  50
0
  10
296802.478
  20
4459110.251
 66
1
  0
ATTRIB
  8
FeatureAttribs
 70
0
  1
PNOA-H_AMS_1956-57_33k_ES_PAN_21mic_H50_0577_fot_73B-40761_W.tif
  2
NAME
  10
296802.478
  20
4459110.251
 40
34.68091
  0
SEQEND
  0
POLYLINE
  8
Unknown_Area_Type
  70
1
  66
1
  0
VERTEX
  8
Unknown_Area_Type
  10
296047.001
  20
4460716.500
  0
VERTEX
  8
Unknown_Area_Type
  10
296267.001
  20
4460813.500
  0
VERTEX
  8
Unknown_Area_Type
  10
296270.501
  20
4460813.500
  0
VERTEX
  8
Unknown_Area_Type
  10
297853.501
  20
4460361.500
  0
VERTEX
  8
Unknown_Area_Type
  10
297692.001
  20
4457546.000
  0
VERTEX
  8
Unknown_Area_Type
  10
297488.501
  20
4457407.500
  0
VERTEX
  8
Unknown_Area_Type
  10
297483.501
  20
4457407.000
  0
VERTEX
  8
Unknown_Area_Type
  10
297432.001
  20
4457414.500
  0
VERTEX
  8
Unknown_Area_Type
  10
297432.001
  20
4457417.500
  0
VERTEX
  8
Unknown_Area_Type
  10
297427.501
  20
4457422.000
  0
VERTEX
  8
Unknown_Area_Type
  10
297417.501
  20
4457422.000
  0
VERTEX
  8
Unknown_Area_Type
  10
297413.501
  20
4457417.500
  0
VERTEX
  8
Unknown_Area_Type
  10
297411.501
  20
4457417.500
  0
VERTEX
  8
Unknown_Area_Type
  10
295715.001
  20
4457666.000
  0
VERTEX
  8
Unknown_Area_Type
  10
295940.001
  20
4460668.500
  0
VERTEX
  8
Unknown_Area_Type
  10
295941.501
  20
4460670.000
  0
VERTEX
  8
Unknown_Area_Type
  10
296046.001
  20
4460716.000
  0
VERTEX
  8
Unknown_Area_Type
  10
296047.001
  20
4460716.500
  0
SEQEND
  8
Unknown_Area_Type
  0
INSERT
  8
FeatureAttribs
  2
FEATURE
  41
1
  42
1
  43
1
  50
0
  10
298626.498
  20
4456045.500
 66
1
  0
ATTRIB
  8
FeatureAttribs
 70
0
  1
PNOA-H_AMS_1956-57_33k_ES_PAN_21mic_H50_0577_fot_000-52436_R.tif
  2
NAME
  10
298626.498
  20
4456045.500
 40
34.68091
  0
SEQEND
  0
POLYLINE
  8
Unknown_Area_Type
  70
1
  66
1
  0
VERTEX
  8
Unknown_Area_Type
  10
298095.501
  20
4457519.000
  0
VERTEX
  8
Unknown_Area_Type
  10
299738.001
  20
4457410.500
  0
VERTEX
  8
Unknown_Area_Type
  10
299796.001
  20
4457355.500
  0
VERTEX
  8
Unknown_Area_Type
  10
299754.001
  20
4455209.500
  0
VERTEX
  8
Unknown_Area_Type
  10
298749.001
  20
4454550.500
  0
VERTEX
  8
Unknown_Area_Type
  10
298740.501
  20
4454545.000
  0
VERTEX
  8
Unknown_Area_Type
  10
298738.501
  20
4454545.000
  0
VERTEX
  8
Unknown_Area_Type
  10
297480.001
  20
4455231.000
  0
VERTEX
  8
Unknown_Area_Type
  10
297487.001
  20
4457407.000
  0
VERTEX
  8
Unknown_Area_Type
  10
297691.501
  20
4457546.000
  0
VERTEX
  8
Unknown_Area_Type
  10
298088.001
  20
4457519.500
  0
VERTEX
  8
Unknown_Area_Type
  10
298095.501
  20
4457519.000
  0
SEQEND
  8
Unknown_Area_Type
  0
INSERT
  8
FeatureAttribs
  2
FEATURE
  41
1
  42
1
  43
1
  50
0
  10
291768.655
  20
4456472.999
 66
1
  0
ATTRIB
  8
FeatureAttribs
 70
0
  1
PNOA-H_AMS_1956-57_33k_ES_PAN_21mic_H50_0577_fot_000-52439_R.tif
  2
NAME
  10
291768.655
  20
4456472.999
 40
34.68091
  0
SEQEND
  0
POLYLINE
  8
Unknown_Area_Type
  70
1
  66
1
  0
VERTEX
  8
Unknown_Area_Type
  10
291951.501
  20
4457891.000
  0
VERTEX
  8
Unknown_Area_Type
  10
292997.501
  20
4457501.000
  0
VERTEX
  8
Unknown_Area_Type
  10
292895.001
  20
4455105.000
  0
VERTEX
  8
Unknown_Area_Type
  10
290835.001
  20
4454963.000
  0
VERTEX
  8
Unknown_Area_Type
  10
290548.501
  20
4455196.500
  0
VERTEX
  8
Unknown_Area_Type
  10
290616.001
  20
4457638.000
  0
VERTEX
  8
Unknown_Area_Type
  10
291705.001
  20
4457983.000
  0
VERTEX
  8
Unknown_Area_Type
  10
291950.001
  20
4457891.500
  0
VERTEX
  8
Unknown_Area_Type
  10
291951.501
  20
4457891.000
  0
SEQEND
  8
Unknown_Area_Type
  0
INSERT
  8
FeatureAttribs
  2
FEATURE
  41
1
  42
1
  43
1
  50
0
  10
297298.282
  20
4454330.500
 66
1
  0
ATTRIB
  8
FeatureAttribs
 70
0
  1
PNOA-H_AMS_1956-57_33k_ES_PAN_21mic_H50_0577_fot_74B-47948_E.tif
  2
NAME
  10
297298.282
  20
4454330.500
 40
34.68091
  0
SEQEND
  0
POLYLINE
  8
Unknown_Area_Type
  70
1
  66
1
  0
VERTEX
  8
Unknown_Area_Type
  10
298733.549
  20
4453430.001
  0
VERTEX
  8
Unknown_Area_Type
  10
295874.330
  20
4453430.003
  0
VERTEX
  8
Unknown_Area_Type
  10
295853.001
  20
4454619.500
  0
VERTEX
  8
Unknown_Area_Type
  10
296045.501
  20
4454692.000
  0
VERTEX
  8
Unknown_Area_Type
  10
296047.001
  20
4454692.500
  0
VERTEX
  8
Unknown_Area_Type
  10
297440.001
  20
4455216.500
  0
VERTEX
  8
Unknown_Area_Type
  10
297481.001
  20
4455231.000
  0
VERTEX
  8
Unknown_Area_Type
  10
298739.501
  20
4454545.000
  0
VERTEX
  8
Unknown_Area_Type
  10
298733.549
  20
4453430.001
  0
SEQEND
  8
Unknown_Area_Type
  0
INSERT
  8
FeatureAttribs
  2
FEATURE
  41
1
  42
1
  43
1
  50
0
  10
294526.830
  20
4454267.250
 66
1
  0
ATTRIB
  8
FeatureAttribs
 70
0
  1
PNOA-H_AMS_1956-57_33k_ES_PAN_21mic_H50_0577_fot_74B-47947_E.tif
  2
NAME
  10
294526.830
  20
4454267.250
 40
34.68091
  0
SEQEND
  0
POLYLINE
  8
Unknown_Area_Type
  70
1
  66
1
  0
VERTEX
  8
Unknown_Area_Type
  10
295874.330
  20
4453430.003
  0
VERTEX
  8
Unknown_Area_Type
  10
293198.408
  20
4453430.001
  0
VERTEX
  8
Unknown_Area_Type
  10
293191.501
  20
4454848.500
  0
VERTEX
  8
Unknown_Area_Type
  10
295218.501
  20
4455104.000
  0
VERTEX
  8
Unknown_Area_Type
  10
295222.501
  20
4455104.500
  0
VERTEX
  8
Unknown_Area_Type
  10
295225.501
  20
4455104.500
  0
VERTEX
  8
Unknown_Area_Type
  10
295230.501
  20
4455101.000
  0
VERTEX
  8
Unknown_Area_Type
  10
295853.001
  20
4454619.500
  0
VERTEX
  8
Unknown_Area_Type
  10
295874.330
  20
4453430.003
  0
SEQEND
  8
Unknown_Area_Type
  0
INSERT
  8
FeatureAttribs
  2
FEATURE
  41
1
  42
1
  43
1
  50
0
  10
296367.247
  20
4456142.748
 66
1
  0
ATTRIB
  8
FeatureAttribs
 70
0
  1
PNOA-H_AMS_1956-57_33k_ES_PAN_21mic_H50_0577_fot_000-52437_R.tif
  2
NAME
  10
296367.247
  20
4456142.748
 40
34.68091
  0
SEQEND
  0
POLYLINE
  8
Unknown_Area_Type
  70
1
  66
1
  0
VERTEX
  8
Unknown_Area_Type
  10
296047.501
  20
4457617.500
  0
VERTEX
  8
Unknown_Area_Type
  10
297411.501
  20
4457417.500
  0
VERTEX
  8
Unknown_Area_Type
  10
297413.501
  20
4457417.500
  0
VERTEX
  8
Unknown_Area_Type
  10
297417.501
  20
4457422.000
  0
VERTEX
  8
Unknown_Area_Type
  10
297427.501
  20
4457422.000
  0
VERTEX
  8
Unknown_Area_Type
  10
297432.001
  20
4457417.500
  0
VERTEX
  8
Unknown_Area_Type
  10
297432.001
  20
4457414.500
  0
VERTEX
  8
Unknown_Area_Type
  10
297487.001
  20
4457407.000
  0
VERTEX
  8
Unknown_Area_Type
  10
297480.001
  20
4455231.000
  0
VERTEX
  8
Unknown_Area_Type
  10
295854.001
  20
4454619.500
  0
VERTEX
  8
Unknown_Area_Type
  10
295850.001
  20
4454621.000
  0
VERTEX
  8
Unknown_Area_Type
  10
295225.501
  20
4455104.000
  0
VERTEX
  8
Unknown_Area_Type
  10
295284.001
  20
4457436.500
  0
VERTEX
  8
Unknown_Area_Type
  10
295714.501
  20
4457666.000
  0
VERTEX
  8
Unknown_Area_Type
  10
296044.501
  20
4457617.500
  0
VERTEX
  8
Unknown_Area_Type
  10
296047.501
  20
4457617.500
  0
SEQEND
  8
Unknown_Area_Type
  0
INSERT
  8
FeatureAttribs
  2
FEATURE
  41
1
  42
1
  43
1
  50
0
  10
294102.280
  20
4456343.250
 66
1
  0
ATTRIB
  8
FeatureAttribs
 70
0
  1
PNOA-H_AMS_1956-57_33k_ES_PAN_21mic_H50_0577_fot_000-52438_R.tif
  2
NAME
  10
294102.280
  20
4456343.250
 40
34.68091
  0
SEQEND
  0
POLYLINE
  8
Unknown_Area_Type
  70
1
  66
1
  0
VERTEX
  8
Unknown_Area_Type
  10
293999.501
  20
4457771.000
  0
VERTEX
  8
Unknown_Area_Type
  10
295284.001
  20
4457437.000
  0
VERTEX
  8
Unknown_Area_Type
  10
295225.501
  20
4455104.500
  0
VERTEX
  8
Unknown_Area_Type
  10
293191.001
  20
4454848.500
  0
VERTEX
  8
Unknown_Area_Type
  10
292895.001
  20
4455105.000
  0
VERTEX
  8
Unknown_Area_Type
  10
292997.501
  20
4457500.500
  0
VERTEX
  8
Unknown_Area_Type
  10
293741.001
  20
4457838.000
  0
VERTEX
  8
Unknown_Area_Type
  10
293997.001
  20
4457771.500
  0
VERTEX
  8
Unknown_Area_Type
  10
293999.501
  20
4457771.000
  0
SEQEND
  8
Unknown_Area_Type
  0
ENDSEC
  0
EOF
