  0
SECTION
  2
HEADER
  9
$ACADVER
  1
AC1009
  9
$LUNITS
  70
2
  9
$LIMMIN
  10
256945.470
  20
4449302.873
  9
$LIMMAX
  10
285861.023
  20
4468665.422
  9
$EXTMIN
  10
256945.470
  20
4449302.873
  9
$EXTMAX
  10
285861.023
  20
4468665.422
  999
Created by Global Mapper
  999
Projection: UTM
  999
Datum: ETRS89
  999
Ground Units: meters
  999
ZONE: 30
  0
ENDSEC
  0
SECTION
  2
TABLES
  0
ENDSEC
  0
SECTION
  2
BLOCKS
  0
BLOCK
  8
FeatureAttribs
  70
0
  2
FEATURE
  3
FEATURE
  10
0.00000000
  20
0.00000000
  0
ATTDEF
  8
FeatureAttribs
  70
0
  1
 
  2
NAME
  3
NAME
  10
0.00000000
  20
0.00000000
  40
1.00000000
  0
ENDBLK
  0
ENDSEC
  0
SECTION
  2
ENTITIES
  0
INSERT
  8
FeatureAttribs
  2
FEATURE
  41
1
  42
1
  43
1
  50
0
  10
257766.329
  20
4466711.820
 66
1
  0
ATTRIB
  8
FeatureAttribs
 70
0
  1
PNOA-H_AMS_1956-57_33k_ES_PAN_21mic_H50_0575_fot_71B-22055_W.tif
  2
NAME
  10
257766.329
  20
4466711.820
 40
34.79968
  0
SEQEND
  0
POLYLINE
  8
LC_OH_2021_05_O7
  70
1
  66
1
  0
VERTEX
  8
LC_OH_2021_05_O7
  10
258117.179
  20
4468646.981
  0
VERTEX
  8
LC_OH_2021_05_O7
  10
257812.500
  20
4464777.000
  0
VERTEX
  8
LC_OH_2021_05_O7
  10
257415.480
  20
4464758.218
  0
VERTEX
  8
LC_OH_2021_05_O7
  10
257466.893
  20
4466352.525
  0
VERTEX
  8
LC_OH_2021_05_O7
  10
257541.511
  20
4468665.422
  0
SEQEND
  8
LC_OH_2021_05_O7
  0
INSERT
  8
FeatureAttribs
  2
FEATURE
  41
1
  42
1
  43
1
  50
0
  10
284549.779
  20
4466589.249
 66
1
  0
ATTRIB
  8
FeatureAttribs
 70
0
  1
PNOA-H_AMS_1956-57_33k_ES_PAN_21mic_H50_0576_fot_71B-22044_W.tif
  2
NAME
  10
284549.779
  20
4466589.249
 40
34.79968
  0
SEQEND
  0
POLYLINE
  8
LC_OH_2021_05_O7
  70
1
  66
1
  0
VERTEX
  8
LC_OH_2021_05_O7
  10
285334.983
  20
4467820.146
  0
VERTEX
  8
LC_OH_2021_05_O7
  10
284996.501
  20
4464519.000
  0
VERTEX
  8
LC_OH_2021_05_O7
  10
284158.501
  20
4464423.500
  0
VERTEX
  8
LC_OH_2021_05_O7
  10
283732.908
  20
4467866.175
  0
SEQEND
  8
LC_OH_2021_05_O7
  0
INSERT
  8
FeatureAttribs
  2
FEATURE
  41
1
  42
1
  43
1
  50
0
  10
281500.822
  20
4466291.999
 66
1
  0
ATTRIB
  8
FeatureAttribs
 70
0
  1
PNOA-H_AMS_1956-57_33k_ES_PAN_21mic_H50_0576_fot_71B-22045_W.tif
  2
NAME
  10
281500.822
  20
4466291.999
 40
34.79968
  0
SEQEND
  0
POLYLINE
  8
LC_OH_2021_05_O7
  70
1
  66
1
  0
VERTEX
  8
LC_OH_2021_05_O7
  10
282655.539
  20
4467897.128
  0
VERTEX
  8
LC_OH_2021_05_O7
  10
282496.001
  20
4463898.500
  0
VERTEX
  8
LC_OH_2021_05_O7
  10
280551.501
  20
4463918.500
  0
VERTEX
  8
LC_OH_2021_05_O7
  10
280391.001
  20
4463996.000
  0
VERTEX
  8
LC_OH_2021_05_O7
  10
280424.052
  20
4467962.135
  0
VERTEX
  8
LC_OH_2021_05_O7
  10
282321.152
  20
4467906.735
  0
SEQEND
  8
LC_OH_2021_05_O7
  0
INSERT
  8
FeatureAttribs
  2
FEATURE
  41
1
  42
1
  43
1
  50
0
  10
279081.867
  20
4466255.000
 66
1
  0
ATTRIB
  8
FeatureAttribs
 70
0
  1
PNOA-H_AMS_1956-57_33k_ES_PAN_21mic_H50_0576_fot_71B-22046_W.tif
  2
NAME
  10
279081.867
  20
4466255.000
 40
34.79968
  0
SEQEND
  0
POLYLINE
  8
LC_OH_2021_05_O7
  70
1
  66
1
  0
VERTEX
  8
LC_OH_2021_05_O7
  10
280424.052
  20
4467962.135
  0
VERTEX
  8
LC_OH_2021_05_O7
  10
280391.001
  20
4463996.000
  0
VERTEX
  8
LC_OH_2021_05_O7
  10
278162.001
  20
4463822.500
  0
VERTEX
  8
LC_OH_2021_05_O7
  10
277732.001
  20
4464009.000
  0
VERTEX
  8
LC_OH_2021_05_O7
  10
277771.274
  20
4468040.078
  0
VERTEX
  8
LC_OH_2021_05_O7
  10
278781.262
  20
4468010.108
  0
SEQEND
  8
LC_OH_2021_05_O7
  0
INSERT
  8
FeatureAttribs
  2
FEATURE
  41
1
  42
1
  43
1
  50
0
  10
273941.363
  20
4466282.498
 66
1
  0
ATTRIB
  8
FeatureAttribs
 70
0
  1
PNOA-H_AMS_1956-57_33k_ES_PAN_21mic_H50_0576_fot_71B-22048_W.tif
  2
NAME
  10
273941.363
  20
4466282.498
 40
34.79968
  0
SEQEND
  0
POLYLINE
  8
LC_OH_2021_05_O7
  70
1
  66
1
  0
VERTEX
  8
LC_OH_2021_05_O7
  10
275258.964
  20
4468114.628
  0
VERTEX
  8
LC_OH_2021_05_O7
  10
275078.001
  20
4464046.000
  0
VERTEX
  8
LC_OH_2021_05_O7
  10
273324.001
  20
4463833.000
  0
VERTEX
  8
LC_OH_2021_05_O7
  10
272682.001
  20
4464091.500
  0
VERTEX
  8
LC_OH_2021_05_O7
  10
272725.481
  20
4468190.993
  0
VERTEX
  8
LC_OH_2021_05_O7
  10
275241.353
  20
4468115.150
  0
SEQEND
  8
LC_OH_2021_05_O7
  0
INSERT
  8
FeatureAttribs
  2
FEATURE
  41
1
  42
1
  43
1
  50
0
  10
276464.043
  20
4466215.249
 66
1
  0
ATTRIB
  8
FeatureAttribs
 70
0
  1
PNOA-H_AMS_1956-57_33k_ES_PAN_21mic_H50_0576_fot_71B-22047_W.tif
  2
NAME
  10
276464.043
  20
4466215.249
 40
34.79968
  0
SEQEND
  0
POLYLINE
  8
LC_OH_2021_05_O7
  70
1
  66
1
  0
VERTEX
  8
LC_OH_2021_05_O7
  10
277771.274
  20
4468040.078
  0
VERTEX
  8
LC_OH_2021_05_O7
  10
277732.001
  20
4464009.000
  0
VERTEX
  8
LC_OH_2021_05_O7
  10
275740.501
  20
4463788.500
  0
VERTEX
  8
LC_OH_2021_05_O7
  10
275078.501
  20
4464046.000
  0
VERTEX
  8
LC_OH_2021_05_O7
  10
275258.691
  20
4468114.636
  0
SEQEND
  8
LC_OH_2021_05_O7
  0
INSERT
  8
FeatureAttribs
  2
FEATURE
  41
1
  42
1
  43
1
  50
0
  10
259299.158
  20
4466712.499
 66
1
  0
ATTRIB
  8
FeatureAttribs
 70
0
  1
PNOA-H_AMS_1956-57_33k_ES_PAN_21mic_H50_0576_fot_71B-22054_W.tif
  2
NAME
  10
259299.158
  20
4466712.499
 40
34.79968
  0
SEQEND
  0
POLYLINE
  8
LC_OH_2021_05_O7
  70
1
  66
1
  0
VERTEX
  8
LC_OH_2021_05_O7
  10
260782.084
  20
4468561.618
  0
VERTEX
  8
LC_OH_2021_05_O7
  10
260468.000
  20
4464655.500
  0
VERTEX
  8
LC_OH_2021_05_O7
  10
258454.000
  20
4464443.000
  0
VERTEX
  8
LC_OH_2021_05_O7
  10
258450.500
  20
4464443.000
  0
VERTEX
  8
LC_OH_2021_05_O7
  10
258444.500
  20
4464446.000
  0
VERTEX
  8
LC_OH_2021_05_O7
  10
257812.500
  20
4464776.500
  0
VERTEX
  8
LC_OH_2021_05_O7
  10
258117.181
  20
4468646.981
  0
SEQEND
  8
LC_OH_2021_05_O7
  0
INSERT
  8
FeatureAttribs
  2
FEATURE
  41
1
  42
1
  43
1
  50
0
  10
261912.261
  20
4466557.999
 66
1
  0
ATTRIB
  8
FeatureAttribs
 70
0
  1
PNOA-H_AMS_1956-57_33k_ES_PAN_21mic_H50_0576_fot_71B-22053_W.tif
  2
NAME
  10
261912.261
  20
4466557.999
 40
34.79968
  0
SEQEND
  0
POLYLINE
  8
LC_OH_2021_05_O7
  70
1
  66
1
  0
VERTEX
  8
LC_OH_2021_05_O7
  10
263307.278
  20
4468481.779
  0
VERTEX
  8
LC_OH_2021_05_O7
  10
263093.500
  20
4464509.000
  0
VERTEX
  8
LC_OH_2021_05_O7
  10
261223.500
  20
4464292.000
  0
VERTEX
  8
LC_OH_2021_05_O7
  10
260468.000
  20
4464655.500
  0
VERTEX
  8
LC_OH_2021_05_O7
  10
260781.638
  20
4468561.632
  0
VERTEX
  8
LC_OH_2021_05_O7
  10
261081.520
  20
4468552.026
  0
SEQEND
  8
LC_OH_2021_05_O7
  0
INSERT
  8
FeatureAttribs
  2
FEATURE
  41
1
  42
1
  43
1
  50
0
  10
264421.125
  20
4466443.499
 66
1
  0
ATTRIB
  8
FeatureAttribs
 70
0
  1
PNOA-H_AMS_1956-57_33k_ES_PAN_21mic_H50_0576_fot_71B-22052_W.tif
  2
NAME
  10
264421.125
  20
4466443.499
 40
34.79968
  0
SEQEND
  0
POLYLINE
  8
LC_OH_2021_05_O7
  70
1
  66
1
  0
VERTEX
  8
LC_OH_2021_05_O7
  10
265707.571
  20
4468406.536
  0
VERTEX
  8
LC_OH_2021_05_O7
  10
265578.000
  20
4464354.000
  0
VERTEX
  8
LC_OH_2021_05_O7
  10
263742.000
  20
4464229.000
  0
VERTEX
  8
LC_OH_2021_05_O7
  10
263093.500
  20
4464509.000
  0
VERTEX
  8
LC_OH_2021_05_O7
  10
263306.915
  20
4468481.791
  0
VERTEX
  8
LC_OH_2021_05_O7
  10
264621.509
  20
4468440.301
  0
SEQEND
  8
LC_OH_2021_05_O7
  0
INSERT
  8
FeatureAttribs
  2
FEATURE
  41
1
  42
1
  43
1
  50
0
  10
271500.465
  20
4466301.000
 66
1
  0
ATTRIB
  8
FeatureAttribs
 70
0
  1
PNOA-H_AMS_1956-57_33k_ES_PAN_21mic_H50_0576_fot_71B-22049_W.tif
  2
NAME
  10
271500.465
  20
4466301.000
 40
34.79968
  0
SEQEND
  0
POLYLINE
  8
LC_OH_2021_05_O7
  70
1
  66
1
  0
VERTEX
  8
LC_OH_2021_05_O7
  10
272725.481
  20
4468190.993
  0
VERTEX
  8
LC_OH_2021_05_O7
  10
272682.001
  20
4464091.500
  0
VERTEX
  8
LC_OH_2021_05_O7
  10
270816.501
  20
4463914.000
  0
VERTEX
  8
LC_OH_2021_05_O7
  10
270376.501
  20
4464109.500
  0
VERTEX
  8
LC_OH_2021_05_O7
  10
270222.777
  20
4468267.135
  0
VERTEX
  8
LC_OH_2021_05_O7
  10
271701.425
  20
4468221.863
  0
SEQEND
  8
LC_OH_2021_05_O7
  0
INSERT
  8
FeatureAttribs
  2
FEATURE
  41
1
  42
1
  43
1
  50
0
  10
266806.062
  20
4466422.749
 66
1
  0
ATTRIB
  8
FeatureAttribs
 70
0
  1
PNOA-H_AMS_1956-57_33k_ES_PAN_21mic_H50_0576_fot_71B-22051_W.tif
  2
NAME
  10
266806.062
  20
4466422.749
 40
34.79968
  0
SEQEND
  0
POLYLINE
  8
LC_OH_2021_05_O7
  70
1
  66
1
  0
VERTEX
  8
LC_OH_2021_05_O7
  10
268081.181
  20
4468332.743
  0
VERTEX
  8
LC_OH_2021_05_O7
  10
267837.000
  20
4464213.500
  0
VERTEX
  8
LC_OH_2021_05_O7
  10
265974.500
  20
4464168.500
  0
VERTEX
  8
LC_OH_2021_05_O7
  10
265578.000
  20
4464354.000
  0
VERTEX
  8
LC_OH_2021_05_O7
  10
265707.571
  20
4468406.536
  0
SEQEND
  8
LC_OH_2021_05_O7
  0
INSERT
  8
FeatureAttribs
  2
FEATURE
  41
1
  42
1
  43
1
  50
0
  10
285623.979
  20
4461325.507
 66
1
  0
ATTRIB
  8
FeatureAttribs
 70
0
  1
PNOA-H_AMS_1956-57_33k_ES_PAN_21mic_H50_0577_fot_72B-46945_E.tif
  2
NAME
  10
285623.979
  20
4461325.507
 40
34.79968
  0
SEQEND
  0
POLYLINE
  8
LC_OH_2021_05_O7
  70
1
  66
1
  0
VERTEX
  8
LC_OH_2021_05_O7
  10
285667.051
  20
4460993.419
  0
VERTEX
  8
LC_OH_2021_05_O7
  10
285565.501
  20
4461048.000
  0
VERTEX
  8
LC_OH_2021_05_O7
  10
285562.001
  20
4461483.500
  0
VERTEX
  8
LC_OH_2021_05_O7
  10
285647.001
  20
4461639.000
  0
VERTEX
  8
LC_OH_2021_05_O7
  10
285685.956
  20
4461657.595
  0
SEQEND
  8
LC_OH_2021_05_O7
  0
INSERT
  8
FeatureAttribs
  2
FEATURE
  41
1
  42
1
  43
1
  50
0
  10
269128.108
  20
4466299.999
 66
1
  0
ATTRIB
  8
FeatureAttribs
 70
0
  1
PNOA-H_AMS_1956-57_33k_ES_PAN_21mic_H50_0576_fot_71B-22050_W.tif
  2
NAME
  10
269128.108
  20
4466299.999
 40
34.79968
  0
SEQEND
  0
POLYLINE
  8
LC_OH_2021_05_O7
  70
1
  66
1
  0
VERTEX
  8
LC_OH_2021_05_O7
  10
270222.794
  20
4468267.135
  0
VERTEX
  8
LC_OH_2021_05_O7
  10
270376.501
  20
4464109.500
  0
VERTEX
  8
LC_OH_2021_05_O7
  10
268330.000
  20
4463987.500
  0
VERTEX
  8
LC_OH_2021_05_O7
  10
267837.000
  20
4464213.500
  0
VERTEX
  8
LC_OH_2021_05_O7
  10
268081.181
  20
4468332.743
  0
VERTEX
  8
LC_OH_2021_05_O7
  10
268161.477
  20
4468330.247
  0
SEQEND
  8
LC_OH_2021_05_O7
  0
INSERT
  8
FeatureAttribs
  2
FEATURE
  41
1
  42
1
  43
1
  50
0
  10
284265.672
  20
4463001.250
 66
1
  0
ATTRIB
  8
FeatureAttribs
 70
0
  1
PNOA-H_AMS_1956-57_33k_ES_PAN_21mic_H50_0576_fot_72C-47911_W.tif
  2
NAME
  10
284265.672
  20
4463001.250
 40
34.79968
  0
SEQEND
  0
POLYLINE
  8
LC_OH_2021_05_O7
  70
1
  66
1
  0
VERTEX
  8
LC_OH_2021_05_O7
  10
283757.501
  20
4464265.000
  0
VERTEX
  8
LC_OH_2021_05_O7
  10
283759.001
  20
4464265.500
  0
VERTEX
  8
LC_OH_2021_05_O7
  10
284159.001
  20
4464423.500
  0
VERTEX
  8
LC_OH_2021_05_O7
  10
284993.001
  20
4464519.000
  0
VERTEX
  8
LC_OH_2021_05_O7
  10
285001.501
  20
4464518.000
  0
VERTEX
  8
LC_OH_2021_05_O7
  10
285504.501
  20
4464366.500
  0
VERTEX
  8
LC_OH_2021_05_O7
  10
285646.501
  20
4461644.000
  0
VERTEX
  8
LC_OH_2021_05_O7
  10
285646.001
  20
4461637.000
  0
VERTEX
  8
LC_OH_2021_05_O7
  10
285562.501
  20
4461483.500
  0
VERTEX
  8
LC_OH_2021_05_O7
  10
285558.001
  20
4461485.000
  0
VERTEX
  8
LC_OH_2021_05_O7
  10
285526.501
  20
4461502.500
  0
VERTEX
  8
LC_OH_2021_05_O7
  10
282984.501
  20
4462917.500
  0
VERTEX
  8
LC_OH_2021_05_O7
  10
282668.501
  20
4463834.500
  0
SEQEND
  8
LC_OH_2021_05_O7
  0
INSERT
  8
FeatureAttribs
  2
FEATURE
  41
1
  42
1
  43
1
  50
0
  10
285634.227
  20
4463017.865
 66
1
  0
ATTRIB
  8
FeatureAttribs
 70
0
  1
PNOA-H_AMS_1956-57_33k_ES_PAN_21mic_H50_0577_fot_72C-47910_W.tif
  2
NAME
  10
285634.227
  20
4463017.865
 40
34.79968
  0
SEQEND
  0
POLYLINE
  8
LC_OH_2021_05_O7
  70
1
  66
1
  0
VERTEX
  8
LC_OH_2021_05_O7
  10
285685.942
  20
4461657.096
  0
VERTEX
  8
LC_OH_2021_05_O7
  10
285647.001
  20
4461638.500
  0
VERTEX
  8
LC_OH_2021_05_O7
  10
285504.501
  20
4464366.500
  0
VERTEX
  8
LC_OH_2021_05_O7
  10
285763.953
  20
4464397.230
  0
VERTEX
  8
LC_OH_2021_05_O7
  10
285729.275
  20
4463179.452
  0
SEQEND
  8
LC_OH_2021_05_O7
  0
INSERT
  8
FeatureAttribs
  2
FEATURE
  41
1
  42
1
  43
1
  50
0
  10
257916.341
  20
4464243.500
 66
1
  0
ATTRIB
  8
FeatureAttribs
 70
0
  1
PNOA-H_AMS_1956-57_33k_ES_PAN_21mic_H50_0576_fot_72B-46933_E.tif
  2
NAME
  10
257916.341
  20
4464243.500
 40
34.79968
  0
SEQEND
  0
POLYLINE
  8
LC_OH_2021_05_O7
  70
1
  66
1
  0
VERTEX
  8
LC_OH_2021_05_O7
  10
257415.485
  20
4464758.373
  0
VERTEX
  8
LC_OH_2021_05_O7
  10
257798.000
  20
4464776.500
  0
VERTEX
  8
LC_OH_2021_05_O7
  10
257808.500
  20
4464777.000
  0
VERTEX
  8
LC_OH_2021_05_O7
  10
257812.500
  20
4464777.000
  0
VERTEX
  8
LC_OH_2021_05_O7
  10
257822.500
  20
4464772.000
  0
VERTEX
  8
LC_OH_2021_05_O7
  10
258451.000
  20
4464443.000
  0
VERTEX
  8
LC_OH_2021_05_O7
  10
258418.045
  20
4463710.000
  0
VERTEX
  8
LC_OH_2021_05_O7
  10
257381.682
  20
4463710.000
  0
VERTEX
  8
LC_OH_2021_05_O7
  10
257392.308
  20
4464039.634
  0
SEQEND
  8
LC_OH_2021_05_O7
  0
INSERT
  8
FeatureAttribs
  2
FEATURE
  41
1
  42
1
  43
1
  50
0
  10
259830.223
  20
4464182.750
 66
1
  0
ATTRIB
  8
FeatureAttribs
 70
0
  1
PNOA-H_AMS_1956-57_33k_ES_PAN_21mic_H50_0576_fot_72B-46934_E.tif
  2
NAME
  10
259830.223
  20
4464182.750
 40
34.79968
  0
SEQEND
  0
POLYLINE
  8
LC_OH_2021_05_O7
  70
1
  66
1
  0
VERTEX
  8
LC_OH_2021_05_O7
  10
261206.566
  20
4463710.000
  0
VERTEX
  8
LC_OH_2021_05_O7
  10
258418.050
  20
4463710.000
  0
VERTEX
  8
LC_OH_2021_05_O7
  10
258451.000
  20
4464443.000
  0
VERTEX
  8
LC_OH_2021_05_O7
  10
260461.000
  20
4464655.000
  0
VERTEX
  8
LC_OH_2021_05_O7
  10
260466.000
  20
4464655.500
  0
VERTEX
  8
LC_OH_2021_05_O7
  10
260468.500
  20
4464655.500
  0
VERTEX
  8
LC_OH_2021_05_O7
  10
260476.000
  20
4464652.000
  0
VERTEX
  8
LC_OH_2021_05_O7
  10
261224.500
  20
4464292.000
  0
VERTEX
  8
LC_OH_2021_05_O7
  10
261206.566
  20
4463710.000
  0
SEQEND
  8
LC_OH_2021_05_O7
  0
INSERT
  8
FeatureAttribs
  2
FEATURE
  41
1
  42
1
  43
1
  50
0
  10
262477.644
  20
4464109.500
 66
1
  0
ATTRIB
  8
FeatureAttribs
 70
0
  1
PNOA-H_AMS_1956-57_33k_ES_PAN_21mic_H50_0576_fot_72B-46935_E.tif
  2
NAME
  10
262477.644
  20
4464109.500
 40
34.79968
  0
SEQEND
  0
POLYLINE
  8
LC_OH_2021_05_O7
  70
1
  66
1
  0
VERTEX
  8
LC_OH_2021_05_O7
  10
263716.058
  20
4463710.000
  0
VERTEX
  8
LC_OH_2021_05_O7
  10
261206.569
  20
4463710.000
  0
VERTEX
  8
LC_OH_2021_05_O7
  10
261224.500
  20
4464292.000
  0
VERTEX
  8
LC_OH_2021_05_O7
  10
261227.000
  20
4464292.500
  0
VERTEX
  8
LC_OH_2021_05_O7
  10
263094.000
  20
4464509.000
  0
VERTEX
  8
LC_OH_2021_05_O7
  10
263742.500
  20
4464229.000
  0
VERTEX
  8
LC_OH_2021_05_O7
  10
263716.058
  20
4463710.000
  0
SEQEND
  8
LC_OH_2021_05_O7
  0
INSERT
  8
FeatureAttribs
  2
FEATURE
  41
1
  42
1
  43
1
  50
0
  10
272293.136
  20
4462091.499
 66
1
  0
ATTRIB
  8
FeatureAttribs
 70
0
  1
PNOA-H_AMS_1956-57_33k_ES_PAN_21mic_H50_0576_fot_72B-46939_E.tif
  2
NAME
  10
272293.136
  20
4462091.499
 40
34.79968
  0
SEQEND
  0
POLYLINE
  8
LC_OH_2021_05_O7
  70
1
  66
1
  0
VERTEX
  8
LC_OH_2021_05_O7
  10
271320.001
  20
4460492.102
  0
VERTEX
  8
LC_OH_2021_05_O7
  10
271320.001
  20
4463490.000
  0
VERTEX
  8
LC_OH_2021_05_O7
  10
270789.173
  20
4463490.000
  0
VERTEX
  8
LC_OH_2021_05_O7
  10
270817.001
  20
4463909.500
  0
VERTEX
  8
LC_OH_2021_05_O7
  10
270817.501
  20
4463914.000
  0
VERTEX
  8
LC_OH_2021_05_O7
  10
270827.001
  20
4463915.000
  0
VERTEX
  8
LC_OH_2021_05_O7
  10
272671.501
  20
4464091.000
  0
VERTEX
  8
LC_OH_2021_05_O7
  10
272676.501
  20
4464091.500
  0
VERTEX
  8
LC_OH_2021_05_O7
  10
272684.501
  20
4464091.000
  0
VERTEX
  8
LC_OH_2021_05_O7
  10
273325.001
  20
4463833.000
  0
VERTEX
  8
LC_OH_2021_05_O7
  10
273227.001
  20
4460928.000
  0
VERTEX
  8
LC_OH_2021_05_O7
  10
272278.001
  20
4460091.500
  0
VERTEX
  8
LC_OH_2021_05_O7
  10
271320.001
  20
4460492.102
  0
SEQEND
  8
LC_OH_2021_05_O7
  0
INSERT
  8
FeatureAttribs
  2
FEATURE
  41
1
  42
1
  43
1
  50
0
  10
264844.768
  20
4463921.999
 66
1
  0
ATTRIB
  8
FeatureAttribs
 70
0
  1
PNOA-H_AMS_1956-57_33k_ES_PAN_21mic_H50_0576_fot_72B-46936_E.tif
  2
NAME
  10
264844.768
  20
4463921.999
 40
34.79968
  0
SEQEND
  0
POLYLINE
  8
LC_OH_2021_05_O7
  70
1
  66
1
  0
VERTEX
  8
LC_OH_2021_05_O7
  10
265940.288
  20
4463490.000
  0
VERTEX
  8
LC_OH_2021_05_O7
  10
264370.000
  20
4463490.000
  0
VERTEX
  8
LC_OH_2021_05_O7
  10
264370.000
  20
4463710.000
  0
VERTEX
  8
LC_OH_2021_05_O7
  10
263715.995
  20
4463710.000
  0
VERTEX
  8
LC_OH_2021_05_O7
  10
263742.500
  20
4464229.000
  0
VERTEX
  8
LC_OH_2021_05_O7
  10
265568.000
  20
4464353.500
  0
VERTEX
  8
LC_OH_2021_05_O7
  10
265575.500
  20
4464354.000
  0
VERTEX
  8
LC_OH_2021_05_O7
  10
265578.500
  20
4464354.000
  0
VERTEX
  8
LC_OH_2021_05_O7
  10
265583.000
  20
4464352.000
  0
VERTEX
  8
LC_OH_2021_05_O7
  10
265975.500
  20
4464168.500
  0
VERTEX
  8
LC_OH_2021_05_O7
  10
265940.288
  20
4463490.000
  0
SEQEND
  8
LC_OH_2021_05_O7
  0
INSERT
  8
FeatureAttribs
  2
FEATURE
  41
1
  42
1
  43
1
  50
0
  10
279381.874
  20
4462149.249
 66
1
  0
ATTRIB
  8
FeatureAttribs
 70
0
  1
PNOA-H_AMS_1956-57_33k_ES_PAN_21mic_H50_0576_fot_72B-46942_E.tif
  2
NAME
  10
279381.874
  20
4462149.249
 40
34.79968
  0
SEQEND
  0
POLYLINE
  8
LC_OH_2021_05_O7
  70
1
  66
1
  0
VERTEX
  8
LC_OH_2021_05_O7
  10
280379.001
  20
4463995.500
  0
VERTEX
  8
LC_OH_2021_05_O7
  10
280385.001
  20
4463996.000
  0
VERTEX
  8
LC_OH_2021_05_O7
  10
280392.001
  20
4463996.000
  0
VERTEX
  8
LC_OH_2021_05_O7
  10
280551.501
  20
4463919.000
  0
VERTEX
  8
LC_OH_2021_05_O7
  10
280575.501
  20
4461136.000
  0
VERTEX
  8
LC_OH_2021_05_O7
  10
279707.501
  20
4460302.500
  0
VERTEX
  8
LC_OH_2021_05_O7
  10
278217.001
  20
4461177.000
  0
VERTEX
  8
LC_OH_2021_05_O7
  10
278162.501
  20
4463822.500
  0
VERTEX
  8
LC_OH_2021_05_O7
  10
280379.001
  20
4463995.500
  0
SEQEND
  8
LC_OH_2021_05_O7
  0
INSERT
  8
FeatureAttribs
  2
FEATURE
  41
1
  42
1
  43
1
  50
0
  10
284175.453
  20
4461578.749
 66
1
  0
ATTRIB
  8
FeatureAttribs
 70
0
  1
PNOA-H_AMS_1956-57_33k_ES_PAN_21mic_H50_0576_fot_72B-46944_E.tif
  2
NAME
  10
284175.453
  20
4461578.749
 40
34.79968
  0
SEQEND
  0
POLYLINE
  8
LC_OH_2021_05_O7
  70
1
  66
1
  0
VERTEX
  8
LC_OH_2021_05_O7
  10
282984.501
  20
4462892.000
  0
VERTEX
  8
LC_OH_2021_05_O7
  10
282984.501
  20
4462917.500
  0
VERTEX
  8
LC_OH_2021_05_O7
  10
285562.001
  20
4461483.500
  0
VERTEX
  8
LC_OH_2021_05_O7
  10
285565.501
  20
4461063.500
  0
VERTEX
  8
LC_OH_2021_05_O7
  10
285565.501
  20
4461048.000
  0
VERTEX
  8
LC_OH_2021_05_O7
  10
285564.501
  20
4461047.000
  0
VERTEX
  8
LC_OH_2021_05_O7
  10
284710.001
  20
4460243.000
  0
VERTEX
  8
LC_OH_2021_05_O7
  10
284706.501
  20
4460240.000
  0
VERTEX
  8
LC_OH_2021_05_O7
  10
284705.001
  20
4460240.000
  0
VERTEX
  8
LC_OH_2021_05_O7
  10
282951.501
  20
4461114.000
  0
SEQEND
  8
LC_OH_2021_05_O7
  0
INSERT
  8
FeatureAttribs
  2
FEATURE
  41
1
  42
1
  43
1
  50
0
  10
281768.328
  20
4462116.249
 66
1
  0
ATTRIB
  8
FeatureAttribs
 70
0
  1
PNOA-H_AMS_1956-57_33k_ES_PAN_21mic_H50_0576_fot_72B-46943_E.tif
  2
NAME
  10
281768.328
  20
4462116.249
 40
34.79968
  0
SEQEND
  0
POLYLINE
  8
LC_OH_2021_05_O7
  70
1
  66
1
  0
VERTEX
  8
LC_OH_2021_05_O7
  10
281707.501
  20
4463906.500
  0
VERTEX
  8
LC_OH_2021_05_O7
  10
281711.501
  20
4463906.500
  0
VERTEX
  8
LC_OH_2021_05_O7
  10
282497.001
  20
4463898.500
  0
VERTEX
  8
LC_OH_2021_05_O7
  10
282668.001
  20
4463835.000
  0
VERTEX
  8
LC_OH_2021_05_O7
  10
282984.501
  20
4462919.000
  0
VERTEX
  8
LC_OH_2021_05_O7
  10
282951.001
  20
4461114.000
  0
VERTEX
  8
LC_OH_2021_05_O7
  10
282180.501
  20
4460314.000
  0
VERTEX
  8
LC_OH_2021_05_O7
  10
280575.501
  20
4461136.000
  0
VERTEX
  8
LC_OH_2021_05_O7
  10
280551.501
  20
4463918.500
  0
VERTEX
  8
LC_OH_2021_05_O7
  10
281707.501
  20
4463906.500
  0
SEQEND
  8
LC_OH_2021_05_O7
  0
INSERT
  8
FeatureAttribs
  2
FEATURE
  41
1
  42
1
  43
1
  50
0
  10
276974.194
  20
4462144.998
 66
1
  0
ATTRIB
  8
FeatureAttribs
 70
0
  1
PNOA-H_AMS_1956-57_33k_ES_PAN_21mic_H50_0576_fot_72B-46941_E.tif
  2
NAME
  10
276974.194
  20
4462144.998
 40
34.79968
  0
SEQEND
  0
POLYLINE
  8
LC_OH_2021_05_O7
  70
1
  66
1
  0
VERTEX
  8
LC_OH_2021_05_O7
  10
277723.001
  20
4464008.500
  0
VERTEX
  8
LC_OH_2021_05_O7
  10
277727.501
  20
4464009.000
  0
VERTEX
  8
LC_OH_2021_05_O7
  10
277733.501
  20
4464009.000
  0
VERTEX
  8
LC_OH_2021_05_O7
  10
278162.501
  20
4463822.500
  0
VERTEX
  8
LC_OH_2021_05_O7
  10
278217.001
  20
4461177.000
  0
VERTEX
  8
LC_OH_2021_05_O7
  10
277335.001
  20
4460281.000
  0
VERTEX
  8
LC_OH_2021_05_O7
  10
275758.501
  20
4461003.000
  0
VERTEX
  8
LC_OH_2021_05_O7
  10
275741.001
  20
4463788.500
  0
VERTEX
  8
LC_OH_2021_05_O7
  10
277723.001
  20
4464008.500
  0
SEQEND
  8
LC_OH_2021_05_O7
  0
INSERT
  8
FeatureAttribs
  2
FEATURE
  41
1
  42
1
  43
1
  50
0
  10
274509.034
  20
4462096.250
 66
1
  0
ATTRIB
  8
FeatureAttribs
 70
0
  1
PNOA-H_AMS_1956-57_33k_ES_PAN_21mic_H50_0576_fot_72B-46940_E.tif
  2
NAME
  10
274509.034
  20
4462096.250
 40
34.79968
  0
SEQEND
  0
POLYLINE
  8
LC_OH_2021_05_O7
  70
1
  66
1
  0
VERTEX
  8
LC_OH_2021_05_O7
  10
273325.001
  20
4463833.000
  0
VERTEX
  8
LC_OH_2021_05_O7
  10
273513.501
  20
4463856.000
  0
VERTEX
  8
LC_OH_2021_05_O7
  10
273518.001
  20
4463856.500
  0
VERTEX
  8
LC_OH_2021_05_O7
  10
275078.501
  20
4464046.500
  0
VERTEX
  8
LC_OH_2021_05_O7
  10
275741.001
  20
4463788.500
  0
VERTEX
  8
LC_OH_2021_05_O7
  10
275758.501
  20
4461003.000
  0
VERTEX
  8
LC_OH_2021_05_O7
  10
274902.001
  20
4460146.000
  0
VERTEX
  8
LC_OH_2021_05_O7
  10
273227.001
  20
4460928.000
  0
VERTEX
  8
LC_OH_2021_05_O7
  10
273325.001
  20
4463833.000
  0
SEQEND
  8
LC_OH_2021_05_O7
  0
INSERT
  8
FeatureAttribs
  2
FEATURE
  41
1
  42
1
  43
1
  50
0
  10
285089.713
  20
4454512.501
 66
1
  0
ATTRIB
  8
FeatureAttribs
 70
0
  1
PNOA-H_AMS_1956-57_33k_ES_PAN_21mic_H50_0576_fot_74B-47943_E.tif
  2
NAME
  10
285089.713
  20
4454512.501
 40
34.79968
  0
SEQEND
  0
POLYLINE
  8
LC_OH_2021_05_O7
  70
1
  66
1
  0
VERTEX
  8
LC_OH_2021_05_O7
  10
285457.641
  20
4453630.000
  0
VERTEX
  8
LC_OH_2021_05_O7
  10
285360.001
  20
4453630.000
  0
VERTEX
  8
LC_OH_2021_05_O7
  10
285360.001
  20
4453820.000
  0
VERTEX
  8
LC_OH_2021_05_O7
  10
283919.007
  20
4453820.000
  0
VERTEX
  8
LC_OH_2021_05_O7
  10
283898.001
  20
4454856.500
  0
VERTEX
  8
LC_OH_2021_05_O7
  10
285507.023
  20
4455367.233
  0
VERTEX
  8
LC_OH_2021_05_O7
  10
285466.120
  20
4453928.373
  0
SEQEND
  8
LC_OH_2021_05_O7
  0
INSERT
  8
FeatureAttribs
  2
FEATURE
  41
1
  42
1
  43
1
  50
0
  10
280266.612
  20
4454619.750
 66
1
  0
ATTRIB
  8
FeatureAttribs
 70
0
  1
PNOA-H_AMS_1956-57_33k_ES_PAN_21mic_H50_0576_fot_74B-47941_E.tif
  2
NAME
  10
280266.612
  20
4454619.750
 40
34.79968
  0
SEQEND
  0
POLYLINE
  8
LC_OH_2021_05_O7
  70
1
  66
1
  0
VERTEX
  8
LC_OH_2021_05_O7
  10
281499.981
  20
4453820.000
  0
VERTEX
  8
LC_OH_2021_05_O7
  10
279044.172
  20
4453820.000
  0
VERTEX
  8
LC_OH_2021_05_O7
  10
279033.001
  20
4454897.000
  0
VERTEX
  8
LC_OH_2021_05_O7
  10
280636.501
  20
4455419.000
  0
VERTEX
  8
LC_OH_2021_05_O7
  10
280638.001
  20
4455419.500
  0
VERTEX
  8
LC_OH_2021_05_O7
  10
280641.001
  20
4455419.000
  0
VERTEX
  8
LC_OH_2021_05_O7
  10
280655.501
  20
4455410.000
  0
VERTEX
  8
LC_OH_2021_05_O7
  10
281496.501
  20
4454881.500
  0
VERTEX
  8
LC_OH_2021_05_O7
  10
281499.981
  20
4453820.000
  0
SEQEND
  8
LC_OH_2021_05_O7
  0
INSERT
  8
FeatureAttribs
  2
FEATURE
  41
1
  42
1
  43
1
  50
0
  10
275342.571
  20
4454695.499
 66
1
  0
ATTRIB
  8
FeatureAttribs
 70
0
  1
PNOA-H_AMS_1956-57_33k_ES_PAN_21mic_H50_0576_fot_74B-47939_E.tif
  2
NAME
  10
275342.571
  20
4454695.499
 40
34.79968
  0
SEQEND
  0
POLYLINE
  8
LC_OH_2021_05_O7
  70
1
  66
1
  0
VERTEX
  8
LC_OH_2021_05_O7
  10
276570.097
  20
4454030.000
  0
VERTEX
  8
LC_OH_2021_05_O7
  10
274140.034
  20
4454030.000
  0
VERTEX
  8
LC_OH_2021_05_O7
  10
274112.001
  20
4455062.500
  0
VERTEX
  8
LC_OH_2021_05_O7
  10
275563.501
  20
4455293.500
  0
VERTEX
  8
LC_OH_2021_05_O7
  10
275567.001
  20
4455294.000
  0
VERTEX
  8
LC_OH_2021_05_O7
  10
275989.001
  20
4455361.000
  0
VERTEX
  8
LC_OH_2021_05_O7
  10
276560.001
  20
4455000.500
  0
VERTEX
  8
LC_OH_2021_05_O7
  10
276570.097
  20
4454030.000
  0
SEQEND
  8
LC_OH_2021_05_O7
  0
INSERT
  8
FeatureAttribs
  2
FEATURE
  41
1
  42
1
  43
1
  50
0
  10
267139.647
  20
4463851.750
 66
1
  0
ATTRIB
  8
FeatureAttribs
 70
0
  1
PNOA-H_AMS_1956-57_33k_ES_PAN_21mic_H50_0576_fot_72B-46937_E.tif
  2
NAME
  10
267139.647
  20
4463851.750
 40
34.79968
  0
SEQEND
  0
POLYLINE
  8
LC_OH_2021_05_O7
  70
1
  66
1
  0
VERTEX
  8
LC_OH_2021_05_O7
  10
268294.154
  20
4463490.000
  0
VERTEX
  8
LC_OH_2021_05_O7
  10
265940.288
  20
4463490.000
  0
VERTEX
  8
LC_OH_2021_05_O7
  10
265975.500
  20
4464168.500
  0
VERTEX
  8
LC_OH_2021_05_O7
  10
267837.000
  20
4464213.500
  0
VERTEX
  8
LC_OH_2021_05_O7
  10
268330.000
  20
4463987.500
  0
VERTEX
  8
LC_OH_2021_05_O7
  10
268294.154
  20
4463490.000
  0
SEQEND
  8
LC_OH_2021_05_O7
  0
INSERT
  8
FeatureAttribs
  2
FEATURE
  41
1
  42
1
  43
1
  50
0
  10
269563.194
  20
4463799.750
 66
1
  0
ATTRIB
  8
FeatureAttribs
 70
0
  1
PNOA-H_AMS_1956-57_33k_ES_PAN_21mic_H50_0576_fot_72B-46938_E.tif
  2
NAME
  10
269563.194
  20
4463799.750
 40
34.79968
  0
SEQEND
  0
POLYLINE
  8
LC_OH_2021_05_O7
  70
1
  66
1
  0
VERTEX
  8
LC_OH_2021_05_O7
  10
270789.347
  20
4463490.000
  0
VERTEX
  8
LC_OH_2021_05_O7
  10
268294.159
  20
4463490.000
  0
VERTEX
  8
LC_OH_2021_05_O7
  10
268330.000
  20
4463987.500
  0
VERTEX
  8
LC_OH_2021_05_O7
  10
270376.501
  20
4464109.500
  0
VERTEX
  8
LC_OH_2021_05_O7
  10
270817.501
  20
4463914.000
  0
VERTEX
  8
LC_OH_2021_05_O7
  10
270789.347
  20
4463490.000
  0
SEQEND
  8
LC_OH_2021_05_O7
  0
INSERT
  8
FeatureAttribs
  2
FEATURE
  41
1
  42
1
  43
1
  50
0
  10
280941.776
  20
4460174.249
 66
1
  0
ATTRIB
  8
FeatureAttribs
 70
0
  1
PNOA-H_AMS_1956-57_33k_ES_PAN_21mic_H50_0576_fot_73B-40768_W.tif
  2
NAME
  10
280941.776
  20
4460174.249
 40
34.79968
  0
SEQEND
  0
POLYLINE
  8
LC_OH_2021_05_O7
  70
1
  66
1
  0
VERTEX
  8
LC_OH_2021_05_O7
  10
280574.501
  20
4461135.000
  0
VERTEX
  8
LC_OH_2021_05_O7
  10
280575.001
  20
4461136.000
  0
VERTEX
  8
LC_OH_2021_05_O7
  10
280591.501
  20
4461128.500
  0
VERTEX
  8
LC_OH_2021_05_O7
  10
282180.001
  20
4460314.000
  0
VERTEX
  8
LC_OH_2021_05_O7
  10
282143.001
  20
4459513.500
  0
VERTEX
  8
LC_OH_2021_05_O7
  10
281961.001
  20
4459212.500
  0
VERTEX
  8
LC_OH_2021_05_O7
  10
279730.501
  20
4459298.000
  0
VERTEX
  8
LC_OH_2021_05_O7
  10
279707.001
  20
4460302.500
  0
VERTEX
  8
LC_OH_2021_05_O7
  10
280574.501
  20
4461135.000
  0
SEQEND
  8
LC_OH_2021_05_O7
  0
INSERT
  8
FeatureAttribs
  2
FEATURE
  41
1
  42
1
  43
1
  50
0
  10
283428.704
  20
4460038.999
 66
1
  0
ATTRIB
  8
FeatureAttribs
 70
0
  1
PNOA-H_AMS_1956-57_33k_ES_PAN_21mic_H50_0576_fot_73B-40767_W.tif
  2
NAME
  10
283428.704
  20
4460038.999
 40
34.79968
  0
SEQEND
  0
POLYLINE
  8
LC_OH_2021_05_O7
  70
1
  66
1
  0
VERTEX
  8
LC_OH_2021_05_O7
  10
282180.001
  20
4460314.000
  0
VERTEX
  8
LC_OH_2021_05_O7
  10
282950.501
  20
4461113.500
  0
VERTEX
  8
LC_OH_2021_05_O7
  10
282951.001
  20
4461114.500
  0
VERTEX
  8
LC_OH_2021_05_O7
  10
284706.001
  20
4460240.000
  0
VERTEX
  8
LC_OH_2021_05_O7
  10
284605.001
  20
4458963.500
  0
VERTEX
  8
LC_OH_2021_05_O7
  10
282143.001
  20
4459513.500
  0
SEQEND
  8
LC_OH_2021_05_O7
  0
INSERT
  8
FeatureAttribs
  2
FEATURE
  41
1
  42
1
  43
1
  50
0
  10
285136.023
  20
4459433.268
 66
1
  0
ATTRIB
  8
FeatureAttribs
 70
0
  1
PNOA-H_AMS_1956-57_33k_ES_PAN_21mic_H50_0576_fot_73B-40766_W.tif
  2
NAME
  10
285136.023
  20
4459433.268
 40
34.79968
  0
SEQEND
  0
POLYLINE
  8
LC_OH_2021_05_O7
  70
1
  66
1
  0
VERTEX
  8
LC_OH_2021_05_O7
  10
285667.045
  20
4460993.187
  0
VERTEX
  8
LC_OH_2021_05_O7
  10
285663.443
  20
4460866.672
  0
VERTEX
  8
LC_OH_2021_05_O7
  10
285597.640
  20
4458553.899
  0
VERTEX
  8
LC_OH_2021_05_O7
  10
285576.727
  20
4457818.536
  0
VERTEX
  8
LC_OH_2021_05_O7
  10
284910.501
  20
4458143.500
  0
VERTEX
  8
LC_OH_2021_05_O7
  10
284605.001
  20
4458963.000
  0
VERTEX
  8
LC_OH_2021_05_O7
  10
284706.001
  20
4460240.000
  0
VERTEX
  8
LC_OH_2021_05_O7
  10
285564.501
  20
4461047.000
  0
VERTEX
  8
LC_OH_2021_05_O7
  10
285565.001
  20
4461048.000
  0
SEQEND
  8
LC_OH_2021_05_O7
  0
INSERT
  8
FeatureAttribs
  2
FEATURE
  41
1
  42
1
  43
1
  50
0
  10
276130.092
  20
4460044.750
 66
1
  0
ATTRIB
  8
FeatureAttribs
 70
0
  1
PNOA-H_AMS_1956-57_33k_ES_PAN_21mic_H50_0576_fot_73B-40770_W.tif
  2
NAME
  10
276130.092
  20
4460044.750
 40
34.79968
  0
SEQEND
  0
POLYLINE
  8
LC_OH_2021_05_O7
  70
1
  66
1
  0
VERTEX
  8
LC_OH_2021_05_O7
  10
275566.501
  20
4460811.000
  0
VERTEX
  8
LC_OH_2021_05_O7
  10
275567.001
  20
4460812.000
  0
VERTEX
  8
LC_OH_2021_05_O7
  10
275758.001
  20
4461003.000
  0
VERTEX
  8
LC_OH_2021_05_O7
  10
275759.501
  20
4461003.000
  0
VERTEX
  8
LC_OH_2021_05_O7
  10
277334.501
  20
4460281.500
  0
VERTEX
  8
LC_OH_2021_05_O7
  10
277415.001
  20
4459086.500
  0
VERTEX
  8
LC_OH_2021_05_O7
  10
274982.001
  20
4459092.000
  0
VERTEX
  8
LC_OH_2021_05_O7
  10
274902.001
  20
4460146.500
  0
VERTEX
  8
LC_OH_2021_05_O7
  10
275566.501
  20
4460811.000
  0
SEQEND
  8
LC_OH_2021_05_O7
  0
INSERT
  8
FeatureAttribs
  2
FEATURE
  41
1
  42
1
  43
1
  50
0
  10
273605.535
  20
4459941.249
 66
1
  0
ATTRIB
  8
FeatureAttribs
 70
0
  1
PNOA-H_AMS_1956-57_33k_ES_PAN_21mic_H50_0576_fot_73B-40771_W.tif
  2
NAME
  10
273605.535
  20
4459941.249
 40
34.79968
  0
SEQEND
  0
POLYLINE
  8
LC_OH_2021_05_O7
  70
1
  66
1
  0
VERTEX
  8
LC_OH_2021_05_O7
  10
273226.001
  20
4460927.000
  0
VERTEX
  8
LC_OH_2021_05_O7
  10
273226.501
  20
4460928.000
  0
VERTEX
  8
LC_OH_2021_05_O7
  10
274902.001
  20
4460146.000
  0
VERTEX
  8
LC_OH_2021_05_O7
  10
274982.001
  20
4459094.000
  0
VERTEX
  8
LC_OH_2021_05_O7
  10
274981.501
  20
4459090.500
  0
VERTEX
  8
LC_OH_2021_05_O7
  10
274923.501
  20
4458967.500
  0
VERTEX
  8
LC_OH_2021_05_O7
  10
274921.001
  20
4458962.500
  0
VERTEX
  8
LC_OH_2021_05_O7
  10
274866.001
  20
4458962.000
  0
VERTEX
  8
LC_OH_2021_05_O7
  10
272398.501
  20
4458954.500
  0
VERTEX
  8
LC_OH_2021_05_O7
  10
272277.501
  20
4460091.500
  0
VERTEX
  8
LC_OH_2021_05_O7
  10
273226.001
  20
4460927.000
  0
SEQEND
  8
LC_OH_2021_05_O7
  0
INSERT
  8
FeatureAttribs
  2
FEATURE
  41
1
  42
1
  43
1
  50
0
  10
278550.764
  20
4459630.251
 66
1
  0
ATTRIB
  8
FeatureAttribs
 70
0
  1
PNOA-H_AMS_1956-57_33k_ES_PAN_21mic_H50_0576_fot_73B-40769_W.tif
  2
NAME
  10
278550.764
  20
4459630.251
 40
34.79968
  0
SEQEND
  0
POLYLINE
  8
LC_OH_2021_05_O7
  70
1
  66
1
  0
VERTEX
  8
LC_OH_2021_05_O7
  10
278216.501
  20
4461177.000
  0
VERTEX
  8
LC_OH_2021_05_O7
  10
278259.001
  20
4461153.000
  0
VERTEX
  8
LC_OH_2021_05_O7
  10
279662.001
  20
4460328.500
  0
VERTEX
  8
LC_OH_2021_05_O7
  10
279663.501
  20
4460328.000
  0
VERTEX
  8
LC_OH_2021_05_O7
  10
279706.501
  20
4460303.000
  0
VERTEX
  8
LC_OH_2021_05_O7
  10
279707.501
  20
4460295.000
  0
VERTEX
  8
LC_OH_2021_05_O7
  10
279730.501
  20
4459303.000
  0
VERTEX
  8
LC_OH_2021_05_O7
  10
279729.501
  20
4459296.000
  0
VERTEX
  8
LC_OH_2021_05_O7
  10
279106.001
  20
4458277.500
  0
VERTEX
  8
LC_OH_2021_05_O7
  10
278354.501
  20
4458083.500
  0
VERTEX
  8
LC_OH_2021_05_O7
  10
277981.001
  20
4458234.500
  0
VERTEX
  8
LC_OH_2021_05_O7
  10
277415.001
  20
4459086.500
  0
VERTEX
  8
LC_OH_2021_05_O7
  10
277335.001
  20
4460281.500
  0
VERTEX
  8
LC_OH_2021_05_O7
  10
278216.501
  20
4461177.000
  0
SEQEND
  8
LC_OH_2021_05_O7
  0
INSERT
  8
FeatureAttribs
  2
FEATURE
  41
1
  42
1
  43
1
  50
0
  10
271826.100
  20
4459579.627
 66
1
  0
ATTRIB
  8
FeatureAttribs
 70
0
  1
PNOA-H_AMS_1956-57_33k_ES_PAN_21mic_H50_0576_fot_73B-40772_W.tif
  2
NAME
  10
271826.100
  20
4459579.627
 40
34.79968
  0
SEQEND
  0
POLYLINE
  8
LC_OH_2021_05_O7
  70
1
  66
1
  0
VERTEX
  8
LC_OH_2021_05_O7
  10
271320.001
  20
4460492.254
  0
VERTEX
  8
LC_OH_2021_05_O7
  10
272277.501
  20
4460091.500
  0
VERTEX
  8
LC_OH_2021_05_O7
  10
272372.501
  20
4459202.500
  0
VERTEX
  8
LC_OH_2021_05_O7
  10
272372.501
  20
4459198.500
  0
VERTEX
  8
LC_OH_2021_05_O7
  10
272398.501
  20
4458953.000
  0
VERTEX
  8
LC_OH_2021_05_O7
  10
272292.501
  20
4458667.000
  0
VERTEX
  8
LC_OH_2021_05_O7
  10
271180.001
  20
4458773.544
  0
VERTEX
  8
LC_OH_2021_05_O7
  10
271180.001
  20
4459080.000
  0
VERTEX
  8
LC_OH_2021_05_O7
  10
271320.001
  20
4459080.000
  0
VERTEX
  8
LC_OH_2021_05_O7
  10
271320.001
  20
4460492.254
  0
SEQEND
  8
LC_OH_2021_05_O7
  0
INSERT
  8
FeatureAttribs
  2
FEATURE
  41
1
  42
1
  43
1
  50
0
  10
282700.590
  20
4454577.500
 66
1
  0
ATTRIB
  8
FeatureAttribs
 70
0
  1
PNOA-H_AMS_1956-57_33k_ES_PAN_21mic_H50_0576_fot_74B-47942_E.tif
  2
NAME
  10
282700.590
  20
4454577.500
 40
34.79968
  0
SEQEND
  0
POLYLINE
  8
LC_OH_2021_05_O7
  70
1
  66
1
  0
VERTEX
  8
LC_OH_2021_05_O7
  10
283919.091
  20
4453820.000
  0
VERTEX
  8
LC_OH_2021_05_O7
  10
281499.981
  20
4453820.000
  0
VERTEX
  8
LC_OH_2021_05_O7
  10
281496.501
  20
4454881.500
  0
VERTEX
  8
LC_OH_2021_05_O7
  10
283128.001
  20
4455335.000
  0
VERTEX
  8
LC_OH_2021_05_O7
  10
283130.501
  20
4455334.500
  0
VERTEX
  8
LC_OH_2021_05_O7
  10
283145.001
  20
4455325.500
  0
VERTEX
  8
LC_OH_2021_05_O7
  10
283898.001
  20
4454856.500
  0
VERTEX
  8
LC_OH_2021_05_O7
  10
283919.091
  20
4453820.000
  0
SEQEND
  8
LC_OH_2021_05_O7
  0
INSERT
  8
FeatureAttribs
  2
FEATURE
  41
1
  42
1
  43
1
  50
0
  10
271449.757
  20
4454698.631
 66
1
  0
ATTRIB
  8
FeatureAttribs
 70
0
  1
PNOA-H_AMS_1956-57_33k_ES_PAN_21mic_H50_0576_fot_74B-47937_E.tif
  2
NAME
  10
271449.757
  20
4454698.631
 40
34.79968
  0
SEQEND
  0
POLYLINE
  8
LC_OH_2021_05_O7
  70
1
  66
1
  0
VERTEX
  8
LC_OH_2021_05_O7
  10
271727.106
  20
4454030.000
  0
VERTEX
  8
LC_OH_2021_05_O7
  10
271180.001
  20
4454030.000
  0
VERTEX
  8
LC_OH_2021_05_O7
  10
271180.001
  20
4455367.261
  0
VERTEX
  8
LC_OH_2021_05_O7
  10
271470.501
  20
4455197.000
  0
VERTEX
  8
LC_OH_2021_05_O7
  10
271471.501
  20
4455196.500
  0
VERTEX
  8
LC_OH_2021_05_O7
  10
271715.501
  20
4455054.000
  0
VERTEX
  8
LC_OH_2021_05_O7
  10
271727.106
  20
4454030.000
  0
SEQEND
  8
LC_OH_2021_05_O7
  0
INSERT
  8
FeatureAttribs
  2
FEATURE
  41
1
  42
1
  43
1
  50
0
  10
283263.635
  20
4466195.750
 66
1
  0
ATTRIB
  8
FeatureAttribs
 70
0
  1
PNOA-H_AMS_1956-57_33k_ES_PAN_21mic_H50_0576_fot_71C-29344_E.tif
  2
NAME
  10
283263.635
  20
4466195.750
 40
34.79968
  0
SEQEND
  0
POLYLINE
  8
LC_OH_2021_05_O7
  70
1
  66
1
  0
VERTEX
  8
LC_OH_2021_05_O7
  10
283733.398
  20
4467866.161
  0
VERTEX
  8
LC_OH_2021_05_O7
  10
283759.501
  20
4467655.000
  0
VERTEX
  8
LC_OH_2021_05_O7
  10
283759.501
  20
4467651.000
  0
VERTEX
  8
LC_OH_2021_05_O7
  10
284159.001
  20
4464423.000
  0
VERTEX
  8
LC_OH_2021_05_O7
  10
282669.001
  20
4463834.500
  0
VERTEX
  8
LC_OH_2021_05_O7
  10
282496.001
  20
4463898.500
  0
VERTEX
  8
LC_OH_2021_05_O7
  10
282655.539
  20
4467897.128
  0
SEQEND
  8
LC_OH_2021_05_O7
  0
INSERT
  8
FeatureAttribs
  2
FEATURE
  41
1
  42
1
  43
1
  50
0
  10
285815.453
  20
4466424.749
 66
1
  0
ATTRIB
  8
FeatureAttribs
 70
0
  1
PNOA-H_AMS_1956-57_33k_ES_PAN_21mic_H50_0577_fot_71C-29345_E.tif
  2
NAME
  10
285815.453
  20
4466424.749
 40
34.79968
  0
SEQEND
  0
POLYLINE
  8
LC_OH_2021_05_O7
  70
1
  66
1
  0
VERTEX
  8
LC_OH_2021_05_O7
  10
285763.939
  20
4464396.745
  0
VERTEX
  8
LC_OH_2021_05_O7
  10
285508.501
  20
4464366.500
  0
VERTEX
  8
LC_OH_2021_05_O7
  10
285499.501
  20
4464367.500
  0
VERTEX
  8
LC_OH_2021_05_O7
  10
284999.501
  20
4464518.000
  0
VERTEX
  8
LC_OH_2021_05_O7
  10
284996.501
  20
4464519.000
  0
VERTEX
  8
LC_OH_2021_05_O7
  10
284996.501
  20
4464520.000
  0
VERTEX
  8
LC_OH_2021_05_O7
  10
285334.967
  20
4467820.147
  0
VERTEX
  8
LC_OH_2021_05_O7
  10
285861.023
  20
4467805.033
  0
VERTEX
  8
LC_OH_2021_05_O7
  10
285795.135
  20
4465492.239
  0
SEQEND
  8
LC_OH_2021_05_O7
  0
INSERT
  8
FeatureAttribs
  2
FEATURE
  41
1
  42
1
  43
1
  50
0
  10
276363.663
  20
4458123.750
 66
1
  0
ATTRIB
  8
FeatureAttribs
 70
0
  1
PNOA-H_AMS_1956-57_33k_ES_PAN_21mic_H50_0576_fot_000-52090_R.tif
  2
NAME
  10
276363.663
  20
4458123.750
 40
34.79968
  0
SEQEND
  0
POLYLINE
  8
LC_OH_2021_05_O7
  70
1
  66
1
  0
VERTEX
  8
LC_OH_2021_05_O7
  10
274921.001
  20
4458963.500
  0
VERTEX
  8
LC_OH_2021_05_O7
  10
274981.501
  20
4459092.000
  0
VERTEX
  8
LC_OH_2021_05_O7
  10
277415.501
  20
4459086.500
  0
VERTEX
  8
LC_OH_2021_05_O7
  10
277615.501
  20
4458785.500
  0
VERTEX
  8
LC_OH_2021_05_O7
  10
277615.501
  20
4458784.500
  0
VERTEX
  8
LC_OH_2021_05_O7
  10
277948.501
  20
4458284.500
  0
VERTEX
  8
LC_OH_2021_05_O7
  10
277981.001
  20
4458235.500
  0
VERTEX
  8
LC_OH_2021_05_O7
  10
277981.001
  20
4458234.000
  0
VERTEX
  8
LC_OH_2021_05_O7
  10
276051.001
  20
4457155.500
  0
VERTEX
  8
LC_OH_2021_05_O7
  10
274946.501
  20
4458020.500
  0
VERTEX
  8
LC_OH_2021_05_O7
  10
274921.001
  20
4458944.500
  0
VERTEX
  8
LC_OH_2021_05_O7
  10
274921.001
  20
4458963.500
  0
SEQEND
  8
LC_OH_2021_05_O7
  0
INSERT
  8
FeatureAttribs
  2
FEATURE
  41
1
  42
1
  43
1
  50
0
  10
283418.130
  20
4458365.500
 66
1
  0
ATTRIB
  8
FeatureAttribs
 70
0
  1
PNOA-H_AMS_1956-57_33k_ES_PAN_21mic_H50_0576_fot_000-52088_R.tif
  2
NAME
  10
283418.130
  20
4458365.500
 40
34.79968
  0
SEQEND
  0
POLYLINE
  8
LC_OH_2021_05_O7
  70
1
  66
1
  0
VERTEX
  8
LC_OH_2021_05_O7
  10
282141.501
  20
4459512.000
  0
VERTEX
  8
LC_OH_2021_05_O7
  10
282142.501
  20
4459513.500
  0
VERTEX
  8
LC_OH_2021_05_O7
  10
282145.001
  20
4459513.500
  0
VERTEX
  8
LC_OH_2021_05_O7
  10
283758.001
  20
4459152.500
  0
VERTEX
  8
LC_OH_2021_05_O7
  10
283759.501
  20
4459152.500
  0
VERTEX
  8
LC_OH_2021_05_O7
  10
284605.001
  20
4458963.500
  0
VERTEX
  8
LC_OH_2021_05_O7
  10
284911.001
  20
4458143.000
  0
VERTEX
  8
LC_OH_2021_05_O7
  10
283158.001
  20
4457217.500
  0
VERTEX
  8
LC_OH_2021_05_O7
  10
282039.001
  20
4457813.500
  0
VERTEX
  8
LC_OH_2021_05_O7
  10
281961.001
  20
4459213.500
  0
SEQEND
  8
LC_OH_2021_05_O7
  0
INSERT
  8
FeatureAttribs
  2
FEATURE
  41
1
  42
1
  43
1
  50
0
  10
273708.610
  20
4457999.500
 66
1
  0
ATTRIB
  8
FeatureAttribs
 70
0
  1
PNOA-H_AMS_1956-57_33k_ES_PAN_21mic_H50_0576_fot_000-52091_R.tif
  2
NAME
  10
273708.610
  20
4457999.500
 40
34.79968
  0
SEQEND
  0
POLYLINE
  8
LC_OH_2021_05_O7
  70
1
  66
1
  0
VERTEX
  8
LC_OH_2021_05_O7
  10
272398.501
  20
4458954.500
  0
VERTEX
  8
LC_OH_2021_05_O7
  10
274921.001
  20
4458962.500
  0
VERTEX
  8
LC_OH_2021_05_O7
  10
274946.501
  20
4458020.500
  0
VERTEX
  8
LC_OH_2021_05_O7
  10
273632.501
  20
4457036.500
  0
VERTEX
  8
LC_OH_2021_05_O7
  10
272301.001
  20
4458167.500
  0
VERTEX
  8
LC_OH_2021_05_O7
  10
272292.501
  20
4458668.000
  0
VERTEX
  8
LC_OH_2021_05_O7
  10
272398.501
  20
4458954.500
  0
SEQEND
  8
LC_OH_2021_05_O7
  0
INSERT
  8
FeatureAttribs
  2
FEATURE
  41
1
  42
1
  43
1
  50
0
  10
271617.185
  20
4457928.789
 66
1
  0
ATTRIB
  8
FeatureAttribs
 70
0
  1
PNOA-H_AMS_1956-57_33k_ES_PAN_21mic_H50_0576_fot_000-52092_R.tif
  2
NAME
  10
271617.185
  20
4457928.789
 40
34.79968
  0
SEQEND
  0
POLYLINE
  8
LC_OH_2021_05_O7
  70
1
  66
1
  0
VERTEX
  8
LC_OH_2021_05_O7
  10
271180.001
  20
4458773.361
  0
VERTEX
  8
LC_OH_2021_05_O7
  10
271470.001
  20
4458745.500
  0
VERTEX
  8
LC_OH_2021_05_O7
  10
271471.501
  20
4458745.500
  0
VERTEX
  8
LC_OH_2021_05_O7
  10
272292.501
  20
4458667.000
  0
VERTEX
  8
LC_OH_2021_05_O7
  10
272301.001
  20
4458167.000
  0
VERTEX
  8
LC_OH_2021_05_O7
  10
271180.001
  20
4457084.216
  0
VERTEX
  8
LC_OH_2021_05_O7
  10
271180.001
  20
4458773.361
  0
SEQEND
  8
LC_OH_2021_05_O7
  0
INSERT
  8
FeatureAttribs
  2
FEATURE
  41
1
  42
1
  43
1
  50
0
  10
280615.391
  20
4458198.999
 66
1
  0
ATTRIB
  8
FeatureAttribs
 70
0
  1
PNOA-H_AMS_1956-57_33k_ES_PAN_21mic_H50_0576_fot_000-52089_R.tif
  2
NAME
  10
280615.391
  20
4458198.999
 40
34.79968
  0
SEQEND
  0
POLYLINE
  8
LC_OH_2021_05_O7
  70
1
  66
1
  0
VERTEX
  8
LC_OH_2021_05_O7
  10
279730.001
  20
4459298.000
  0
VERTEX
  8
LC_OH_2021_05_O7
  10
281961.001
  20
4459212.500
  0
VERTEX
  8
LC_OH_2021_05_O7
  10
282039.001
  20
4457813.500
  0
VERTEX
  8
LC_OH_2021_05_O7
  10
280803.501
  20
4457150.500
  0
VERTEX
  8
LC_OH_2021_05_O7
  10
280802.501
  20
4457150.500
  0
VERTEX
  8
LC_OH_2021_05_O7
  10
280708.501
  20
4457100.000
  0
VERTEX
  8
LC_OH_2021_05_O7
  10
279106.501
  20
4458277.500
  0
VERTEX
  8
LC_OH_2021_05_O7
  10
279730.001
  20
4459298.000
  0
SEQEND
  8
LC_OH_2021_05_O7
  0
INSERT
  8
FeatureAttribs
  2
FEATURE
  41
1
  42
1
  43
1
  50
0
  10
284370.721
  20
4456499.749
 66
1
  0
ATTRIB
  8
FeatureAttribs
 70
0
  1
PNOA-H_AMS_1956-57_33k_ES_PAN_21mic_H50_0576_fot_000-52442_R.tif
  2
NAME
  10
284370.721
  20
4456499.749
 40
34.79968
  0
SEQEND
  0
POLYLINE
  8
LC_OH_2021_05_O7
  70
1
  66
1
  0
VERTEX
  8
LC_OH_2021_05_O7
  10
285576.737
  20
4457818.898
  0
VERTEX
  8
LC_OH_2021_05_O7
  10
285531.866
  20
4456241.132
  0
VERTEX
  8
LC_OH_2021_05_O7
  10
285507.014
  20
4455366.904
  0
VERTEX
  8
LC_OH_2021_05_O7
  10
283899.501
  20
4454856.500
  0
VERTEX
  8
LC_OH_2021_05_O7
  10
283895.501
  20
4454857.500
  0
VERTEX
  8
LC_OH_2021_05_O7
  10
283129.001
  20
4455335.000
  0
VERTEX
  8
LC_OH_2021_05_O7
  10
283157.501
  20
4457217.500
  0
VERTEX
  8
LC_OH_2021_05_O7
  10
284909.501
  20
4458142.500
  0
VERTEX
  8
LC_OH_2021_05_O7
  10
284910.501
  20
4458143.000
  0
SEQEND
  8
LC_OH_2021_05_O7
  0
INSERT
  8
FeatureAttribs
  2
FEATURE
  41
1
  42
1
  43
1
  50
0
  10
274823.982
  20
4456541.501
 66
1
  0
ATTRIB
  8
FeatureAttribs
 70
0
  1
PNOA-H_AMS_1956-57_33k_ES_PAN_21mic_H50_0576_fot_000-52446_R.tif
  2
NAME
  10
274823.982
  20
4456541.501
 40
34.79968
  0
SEQEND
  0
POLYLINE
  8
LC_OH_2021_05_O7
  70
1
  66
1
  0
VERTEX
  8
LC_OH_2021_05_O7
  10
273632.501
  20
4457037.000
  0
VERTEX
  8
LC_OH_2021_05_O7
  10
274945.501
  20
4458020.500
  0
VERTEX
  8
LC_OH_2021_05_O7
  10
274948.001
  20
4458020.000
  0
VERTEX
  8
LC_OH_2021_05_O7
  10
274952.501
  20
4458016.500
  0
VERTEX
  8
LC_OH_2021_05_O7
  10
276051.501
  20
4457155.500
  0
VERTEX
  8
LC_OH_2021_05_O7
  10
275989.001
  20
4455361.000
  0
VERTEX
  8
LC_OH_2021_05_O7
  10
274364.001
  20
4455102.500
  0
VERTEX
  8
LC_OH_2021_05_O7
  10
274361.001
  20
4455102.500
  0
VERTEX
  8
LC_OH_2021_05_O7
  10
274111.501
  20
4455062.500
  0
VERTEX
  8
LC_OH_2021_05_O7
  10
273584.001
  20
4455398.500
  0
VERTEX
  8
LC_OH_2021_05_O7
  10
273632.501
  20
4457037.000
  0
SEQEND
  8
LC_OH_2021_05_O7
  0
INSERT
  8
FeatureAttribs
  2
FEATURE
  41
1
  42
1
  43
1
  50
0
  10
277164.186
  20
4456617.250
 66
1
  0
ATTRIB
  8
FeatureAttribs
 70
0
  1
PNOA-H_AMS_1956-57_33k_ES_PAN_21mic_H50_0576_fot_000-52445_R.tif
  2
NAME
  10
277164.186
  20
4456617.250
 40
34.79968
  0
SEQEND
  0
POLYLINE
  8
LC_OH_2021_05_O7
  70
1
  66
1
  0
VERTEX
  8
LC_OH_2021_05_O7
  10
276051.501
  20
4457155.500
  0
VERTEX
  8
LC_OH_2021_05_O7
  10
277981.001
  20
4458234.500
  0
VERTEX
  8
LC_OH_2021_05_O7
  10
278355.501
  20
4458083.500
  0
VERTEX
  8
LC_OH_2021_05_O7
  10
278244.001
  20
4455353.500
  0
VERTEX
  8
LC_OH_2021_05_O7
  10
276560.001
  20
4455000.000
  0
VERTEX
  8
LC_OH_2021_05_O7
  10
275989.001
  20
4455360.500
  0
VERTEX
  8
LC_OH_2021_05_O7
  10
276051.501
  20
4457155.500
  0
SEQEND
  8
LC_OH_2021_05_O7
  0
INSERT
  8
FeatureAttribs
  2
FEATURE
  41
1
  42
1
  43
1
  50
0
  10
281911.111
  20
4456347.501
 66
1
  0
ATTRIB
  8
FeatureAttribs
 70
0
  1
PNOA-H_AMS_1956-57_33k_ES_PAN_21mic_H50_0576_fot_000-52443_R.tif
  2
NAME
  10
281911.111
  20
4456347.501
 40
34.79968
  0
SEQEND
  0
POLYLINE
  8
LC_OH_2021_05_O7
  70
1
  66
1
  0
VERTEX
  8
LC_OH_2021_05_O7
  10
280709.001
  20
4457100.000
  0
VERTEX
  8
LC_OH_2021_05_O7
  10
282037.501
  20
4457813.000
  0
VERTEX
  8
LC_OH_2021_05_O7
  10
282038.501
  20
4457813.500
  0
VERTEX
  8
LC_OH_2021_05_O7
  10
283157.501
  20
4457217.500
  0
VERTEX
  8
LC_OH_2021_05_O7
  10
283129.001
  20
4455335.000
  0
VERTEX
  8
LC_OH_2021_05_O7
  10
281504.001
  20
4454883.000
  0
VERTEX
  8
LC_OH_2021_05_O7
  10
281495.501
  20
4454881.500
  0
VERTEX
  8
LC_OH_2021_05_O7
  10
280639.501
  20
4455419.500
  0
VERTEX
  8
LC_OH_2021_05_O7
  10
280709.001
  20
4457100.000
  0
SEQEND
  8
LC_OH_2021_05_O7
  0
INSERT
  8
FeatureAttribs
  2
FEATURE
  41
1
  42
1
  43
1
  50
0
  10
272399.989
  20
4456610.501
 66
1
  0
ATTRIB
  8
FeatureAttribs
 70
0
  1
PNOA-H_AMS_1956-57_33k_ES_PAN_21mic_H50_0576_fot_000-52447_R.tif
  2
NAME
  10
272399.989
  20
4456610.501
 40
34.79968
  0
SEQEND
  0
POLYLINE
  8
LC_OH_2021_05_O7
  70
1
  66
1
  0
VERTEX
  8
LC_OH_2021_05_O7
  10
271180.001
  20
4457084.561
  0
VERTEX
  8
LC_OH_2021_05_O7
  10
271470.501
  20
4457365.000
  0
VERTEX
  8
LC_OH_2021_05_O7
  10
271471.001
  20
4457366.000
  0
VERTEX
  8
LC_OH_2021_05_O7
  10
272301.501
  20
4458167.500
  0
VERTEX
  8
LC_OH_2021_05_O7
  10
273630.001
  20
4457039.000
  0
VERTEX
  8
LC_OH_2021_05_O7
  10
273632.501
  20
4457036.500
  0
VERTEX
  8
LC_OH_2021_05_O7
  10
273632.501
  20
4457032.500
  0
VERTEX
  8
LC_OH_2021_05_O7
  10
273584.001
  20
4455399.000
  0
VERTEX
  8
LC_OH_2021_05_O7
  10
271715.501
  20
4455053.500
  0
VERTEX
  8
LC_OH_2021_05_O7
  10
271180.001
  20
4455367.045
  0
VERTEX
  8
LC_OH_2021_05_O7
  10
271180.001
  20
4457084.561
  0
SEQEND
  8
LC_OH_2021_05_O7
  0
INSERT
  8
FeatureAttribs
  2
FEATURE
  41
1
  42
1
  43
1
  50
0
  10
279491.001
  20
4456587.501
 66
1
  0
ATTRIB
  8
FeatureAttribs
 70
0
  1
PNOA-H_AMS_1956-57_33k_ES_PAN_21mic_H50_0576_fot_000-52444_R.tif
  2
NAME
  10
279491.001
  20
4456587.501
 40
34.79968
  0
SEQEND
  0
POLYLINE
  8
LC_OH_2021_05_O7
  70
1
  66
1
  0
VERTEX
  8
LC_OH_2021_05_O7
  10
278355.001
  20
4458082.500
  0
VERTEX
  8
LC_OH_2021_05_O7
  10
278360.501
  20
4458085.000
  0
VERTEX
  8
LC_OH_2021_05_O7
  10
279106.001
  20
4458278.000
  0
VERTEX
  8
LC_OH_2021_05_O7
  10
280709.001
  20
4457100.000
  0
VERTEX
  8
LC_OH_2021_05_O7
  10
280639.501
  20
4455419.500
  0
VERTEX
  8
LC_OH_2021_05_O7
  10
279033.001
  20
4454897.000
  0
VERTEX
  8
LC_OH_2021_05_O7
  10
278244.001
  20
4455353.500
  0
VERTEX
  8
LC_OH_2021_05_O7
  10
278355.001
  20
4458082.500
  0
SEQEND
  8
LC_OH_2021_05_O7
  0
INSERT
  8
FeatureAttribs
  2
FEATURE
  41
1
  42
1
  43
1
  50
0
  10
272920.395
  20
4454714.500
 66
1
  0
ATTRIB
  8
FeatureAttribs
 70
0
  1
PNOA-H_AMS_1956-57_33k_ES_PAN_21mic_H50_0576_fot_74B-47938_E.tif
  2
NAME
  10
272920.395
  20
4454714.500
 40
34.79968
  0
SEQEND
  0
POLYLINE
  8
LC_OH_2021_05_O7
  70
1
  66
1
  0
VERTEX
  8
LC_OH_2021_05_O7
  10
274140.073
  20
4454030.000
  0
VERTEX
  8
LC_OH_2021_05_O7
  10
271727.102
  20
4454030.000
  0
VERTEX
  8
LC_OH_2021_05_O7
  10
271715.501
  20
4455053.500
  0
VERTEX
  8
LC_OH_2021_05_O7
  10
273581.001
  20
4455398.500
  0
VERTEX
  8
LC_OH_2021_05_O7
  10
273583.501
  20
4455399.000
  0
VERTEX
  8
LC_OH_2021_05_O7
  10
274112.001
  20
4455062.500
  0
VERTEX
  8
LC_OH_2021_05_O7
  10
274140.073
  20
4454030.000
  0
SEQEND
  8
LC_OH_2021_05_O7
  0
INSERT
  8
FeatureAttribs
  2
FEATURE
  41
1
  42
1
  43
1
  50
0
  10
277800.264
  20
4454586.751
 66
1
  0
ATTRIB
  8
FeatureAttribs
 70
0
  1
PNOA-H_AMS_1956-57_33k_ES_PAN_21mic_H50_0576_fot_74B-47940_E.tif
  2
NAME
  10
277800.264
  20
4454586.751
 40
34.79968
  0
SEQEND
  0
POLYLINE
  8
LC_OH_2021_05_O7
  70
1
  66
1
  0
VERTEX
  8
LC_OH_2021_05_O7
  10
279044.176
  20
4453820.000
  0
VERTEX
  8
LC_OH_2021_05_O7
  10
278270.001
  20
4453820.000
  0
VERTEX
  8
LC_OH_2021_05_O7
  10
278270.001
  20
4454030.000
  0
VERTEX
  8
LC_OH_2021_05_O7
  10
276570.093
  20
4454030.000
  0
VERTEX
  8
LC_OH_2021_05_O7
  10
276560.001
  20
4455000.000
  0
VERTEX
  8
LC_OH_2021_05_O7
  10
278244.501
  20
4455353.500
  0
VERTEX
  8
LC_OH_2021_05_O7
  10
279033.001
  20
4454897.500
  0
VERTEX
  8
LC_OH_2021_05_O7
  10
279044.176
  20
4453820.000
  0
SEQEND
  8
LC_OH_2021_05_O7
  0
ENDSEC
  0
EOF
