  0
SECTION
  2
HEADER
  9
$ACADVER
  1
AC1009
  9
$LUNITS
  70
2
  9
$LIMMIN
  10
228554.835
  20
4450162.422
  9
$LIMMAX
  10
257541.511
  20
4469632.760
  9
$EXTMIN
  10
228554.835
  20
4450162.422
  9
$EXTMAX
  10
257541.511
  20
4469632.760
  999
Created by Global Mapper
  999
Projection: UTM
  999
Datum: ETRS89
  999
Ground Units: meters
  999
ZONE: 30
  0
ENDSEC
  0
SECTION
  2
TABLES
  0
ENDSEC
  0
SECTION
  2
BLOCKS
  0
BLOCK
  8
FeatureAttribs
  70
0
  2
FEATURE
  3
FEATURE
  10
0.00000000
  20
0.00000000
  0
ATTDEF
  8
FeatureAttribs
  70
0
  1
 
  2
NAME
  3
NAME
  10
0.00000000
  20
0.00000000
  40
1.00000000
  0
ENDBLK
  0
ENDSEC
  0
SECTION
  2
ENTITIES
  0
INSERT
  8
FeatureAttribs
  2
FEATURE
  41
1
  42
1
  43
1
  50
0
  10
256640.425
  20
4466936.750
 66
1
  0
ATTRIB
  8
FeatureAttribs
 70
0
  1
PNOA-H_AMS_1956-57_33k_ES_PAN_21mic_H50_0575_fot_71B-22055_W.tif
  2
NAME
  10
256640.425
  20
4466936.750
 40
34.91878
  0
SEQEND
  0
POLYLINE
  8
LC_OH_2021_05_O7
  70
1
  66
1
  0
VERTEX
  8
LC_OH_2021_05_O7
  10
257415.480
  20
4464758.218
  0
VERTEX
  8
LC_OH_2021_05_O7
  10
255529.500
  20
4464669.000
  0
VERTEX
  8
LC_OH_2021_05_O7
  10
255164.500
  20
4464891.500
  0
VERTEX
  8
LC_OH_2021_05_O7
  10
255415.899
  20
4468734.514
  0
VERTEX
  8
LC_OH_2021_05_O7
  10
257541.511
  20
4468665.422
  0
VERTEX
  8
LC_OH_2021_05_O7
  10
257466.893
  20
4466352.525
  0
SEQEND
  8
LC_OH_2021_05_O7
  0
INSERT
  8
FeatureAttribs
  2
FEATURE
  41
1
  42
1
  43
1
  50
0
  10
248530.665
  20
4467412.750
 66
1
  0
ATTRIB
  8
FeatureAttribs
 70
0
  1
PNOA-H_AMS_1956-57_33k_ES_PAN_21mic_H50_0575_fot_000-22058_R.tif
  2
NAME
  10
248530.665
  20
4467412.750
 40
34.91878
  0
SEQEND
  0
POLYLINE
  8
LC_OH_2021_05_O7
  70
1
  66
1
  0
VERTEX
  8
LC_OH_2021_05_O7
  10
250014.785
  20
4468912.166
  0
VERTEX
  8
LC_OH_2021_05_O7
  10
249705.500
  20
4465182.000
  0
VERTEX
  8
LC_OH_2021_05_O7
  10
249458.000
  20
4465068.500
  0
VERTEX
  8
LC_OH_2021_05_O7
  10
247034.500
  20
4465384.000
  0
VERTEX
  8
LC_OH_2021_05_O7
  10
247277.773
  20
4469003.715
  0
SEQEND
  8
LC_OH_2021_05_O7
  0
INSERT
  8
FeatureAttribs
  2
FEATURE
  41
1
  42
1
  43
1
  50
0
  10
251239.300
  20
4467239.250
 66
1
  0
ATTRIB
  8
FeatureAttribs
 70
0
  1
PNOA-H_AMS_1956-57_33k_ES_PAN_21mic_H50_0575_fot_000-22057_R.tif
  2
NAME
  10
251239.300
  20
4467239.250
 40
34.91878
  0
SEQEND
  0
POLYLINE
  8
LC_OH_2021_05_O7
  70
1
  66
1
  0
VERTEX
  8
LC_OH_2021_05_O7
  10
252669.140
  20
4468824.424
  0
VERTEX
  8
LC_OH_2021_05_O7
  10
252506.000
  20
4464945.000
  0
VERTEX
  8
LC_OH_2021_05_O7
  10
252466.000
  20
4464923.500
  0
VERTEX
  8
LC_OH_2021_05_O7
  10
249705.500
  20
4465181.500
  0
VERTEX
  8
LC_OH_2021_05_O7
  10
250014.827
  20
4468912.165
  0
VERTEX
  8
LC_OH_2021_05_O7
  10
250461.430
  20
4468897.227
  0
SEQEND
  8
LC_OH_2021_05_O7
  0
INSERT
  8
FeatureAttribs
  2
FEATURE
  41
1
  42
1
  43
1
  50
0
  10
253954.902
  20
4467138.998
 66
1
  0
ATTRIB
  8
FeatureAttribs
 70
0
  1
PNOA-H_AMS_1956-57_33k_ES_PAN_21mic_H50_0575_fot_000-22056_R.tif
  2
NAME
  10
253954.902
  20
4467138.998
 40
34.91878
  0
SEQEND
  0
POLYLINE
  8
LC_OH_2021_05_O7
  70
1
  66
1
  0
VERTEX
  8
LC_OH_2021_05_O7
  10
255415.899
  20
4468734.514
  0
VERTEX
  8
LC_OH_2021_05_O7
  10
255164.500
  20
4464891.500
  0
VERTEX
  8
LC_OH_2021_05_O7
  10
252506.000
  20
4464945.000
  0
VERTEX
  8
LC_OH_2021_05_O7
  10
252669.160
  20
4468824.424
  0
VERTEX
  8
LC_OH_2021_05_O7
  10
254001.481
  20
4468780.488
  0
SEQEND
  8
LC_OH_2021_05_O7
  0
INSERT
  8
FeatureAttribs
  2
FEATURE
  41
1
  42
1
  43
1
  50
0
  10
243764.870
  20
4467708.249
 66
1
  0
ATTRIB
  8
FeatureAttribs
 70
0
  1
PNOA-H_AMS_1956-57_33k_ES_PAN_21mic_H50_0575_fot_000-22060_R.tif
  2
NAME
  10
243764.870
  20
4467708.249
 40
34.91878
  0
SEQEND
  0
POLYLINE
  8
LC_OH_2021_05_O7
  70
1
  66
1
  0
VERTEX
  8
LC_OH_2021_05_O7
  10
244501.694
  20
4469097.712
  0
VERTEX
  8
LC_OH_2021_05_O7
  10
244269.000
  20
4465582.000
  0
VERTEX
  8
LC_OH_2021_05_O7
  10
243617.500
  20
4465342.500
  0
VERTEX
  8
LC_OH_2021_05_O7
  10
243616.000
  20
4465342.500
  0
VERTEX
  8
LC_OH_2021_05_O7
  10
243507.500
  20
4465302.000
  0
VERTEX
  8
LC_OH_2021_05_O7
  10
243504.500
  20
4465302.000
  0
VERTEX
  8
LC_OH_2021_05_O7
  10
243120.000
  20
4465377.260
  0
VERTEX
  8
LC_OH_2021_05_O7
  10
243120.000
  20
4469030.000
  0
VERTEX
  8
LC_OH_2021_05_O7
  10
241712.638
  20
4469030.000
  0
VERTEX
  8
LC_OH_2021_05_O7
  10
241729.386
  20
4469192.529
  0
VERTEX
  8
LC_OH_2021_05_O7
  10
243381.262
  20
4469135.717
  0
SEQEND
  8
LC_OH_2021_05_O7
  0
INSERT
  8
FeatureAttribs
  2
FEATURE
  41
1
  42
1
  43
1
  50
0
  10
240307.520
  20
4469159.879
 66
1
  0
ATTRIB
  8
FeatureAttribs
 70
0
  1
PNOA-H_AMS_1956-57_33k_ES_PAN_21mic_H50_0575_fot_000-22061_R.tif
  2
NAME
  10
240307.520
  20
4469159.879
 40
34.91878
  0
SEQEND
  0
POLYLINE
  8
LC_OH_2021_05_O7
  70
1
  66
1
  0
VERTEX
  8
LC_OH_2021_05_O7
  10
241729.386
  20
4469192.529
  0
VERTEX
  8
LC_OH_2021_05_O7
  10
241712.638
  20
4469030.000
  0
VERTEX
  8
LC_OH_2021_05_O7
  10
238885.654
  20
4469030.000
  0
VERTEX
  8
LC_OH_2021_05_O7
  10
238915.033
  20
4469289.758
  0
VERTEX
  8
LC_OH_2021_05_O7
  10
239841.145
  20
4469257.470
  0
SEQEND
  8
LC_OH_2021_05_O7
  0
INSERT
  8
FeatureAttribs
  2
FEATURE
  41
1
  42
1
  43
1
  50
0
  10
237557.575
  20
4469207.232
 66
1
  0
ATTRIB
  8
FeatureAttribs
 70
0
  1
PNOA-H_AMS_1956-57_33k_ES_PAN_21mic_H50_0575_fot_000-22062_R.tif
  2
NAME
  10
237557.575
  20
4469207.232
 40
34.91878
  0
SEQEND
  0
POLYLINE
  8
LC_OH_2021_05_O7
  70
1
  66
1
  0
VERTEX
  8
LC_OH_2021_05_O7
  10
238915.151
  20
4469289.754
  0
VERTEX
  8
LC_OH_2021_05_O7
  10
238885.821
  20
4469030.000
  0
VERTEX
  8
LC_OH_2021_05_O7
  10
236200.000
  20
4469030.000
  0
VERTEX
  8
LC_OH_2021_05_O7
  10
236200.000
  20
4469384.463
  0
VERTEX
  8
LC_OH_2021_05_O7
  10
236301.006
  20
4469380.894
  0
SEQEND
  8
LC_OH_2021_05_O7
  0
INSERT
  8
FeatureAttribs
  2
FEATURE
  41
1
  42
1
  43
1
  50
0
  10
245789.838
  20
4467552.499
 66
1
  0
ATTRIB
  8
FeatureAttribs
 70
0
  1
PNOA-H_AMS_1956-57_33k_ES_PAN_21mic_H50_0575_fot_000-22059_R.tif
  2
NAME
  10
245789.838
  20
4467552.499
 40
34.91878
  0
SEQEND
  0
POLYLINE
  8
LC_OH_2021_05_O7
  70
1
  66
1
  0
VERTEX
  8
LC_OH_2021_05_O7
  10
247277.773
  20
4469003.715
  0
VERTEX
  8
LC_OH_2021_05_O7
  10
247034.500
  20
4465384.000
  0
VERTEX
  8
LC_OH_2021_05_O7
  10
246934.500
  20
4465342.500
  0
VERTEX
  8
LC_OH_2021_05_O7
  10
246933.500
  20
4465342.500
  0
VERTEX
  8
LC_OH_2021_05_O7
  10
246478.000
  20
4465154.500
  0
VERTEX
  8
LC_OH_2021_05_O7
  10
244269.000
  20
4465582.000
  0
VERTEX
  8
LC_OH_2021_05_O7
  10
244501.694
  20
4469097.712
  0
VERTEX
  8
LC_OH_2021_05_O7
  10
246921.357
  20
4469015.636
  0
SEQEND
  8
LC_OH_2021_05_O7
  0
INSERT
  8
FeatureAttribs
  2
FEATURE
  41
1
  42
1
  43
1
  50
0
  10
250940.728
  20
4464556.000
 66
1
  0
ATTRIB
  8
FeatureAttribs
 70
0
  1
PNOA-H_AMS_1956-57_33k_ES_PAN_21mic_H50_0575_fot_000-46931_R.tif
  2
NAME
  10
250940.728
  20
4464556.000
 40
34.91878
  0
SEQEND
  0
POLYLINE
  8
LC_OH_2021_05_O7
  70
1
  66
1
  0
VERTEX
  8
LC_OH_2021_05_O7
  10
252411.061
  20
4463930.000
  0
VERTEX
  8
LC_OH_2021_05_O7
  10
250200.000
  20
4463930.000
  0
VERTEX
  8
LC_OH_2021_05_O7
  10
250200.000
  20
4464170.000
  0
VERTEX
  8
LC_OH_2021_05_O7
  10
249420.597
  20
4464170.000
  0
VERTEX
  8
LC_OH_2021_05_O7
  10
249456.500
  20
4465064.000
  0
VERTEX
  8
LC_OH_2021_05_O7
  10
249457.000
  20
4465068.500
  0
VERTEX
  8
LC_OH_2021_05_O7
  10
249462.000
  20
4465071.000
  0
VERTEX
  8
LC_OH_2021_05_O7
  10
249705.500
  20
4465182.000
  0
VERTEX
  8
LC_OH_2021_05_O7
  10
250987.000
  20
4465061.500
  0
VERTEX
  8
LC_OH_2021_05_O7
  10
250991.500
  20
4465061.500
  0
VERTEX
  8
LC_OH_2021_05_O7
  10
252465.000
  20
4464923.500
  0
VERTEX
  8
LC_OH_2021_05_O7
  10
252465.000
  20
4464914.000
  0
VERTEX
  8
LC_OH_2021_05_O7
  10
252411.061
  20
4463930.000
  0
SEQEND
  8
LC_OH_2021_05_O7
  0
INSERT
  8
FeatureAttribs
  2
FEATURE
  41
1
  42
1
  43
1
  50
0
  10
243307.172
  20
4464773.698
 66
1
  0
ATTRIB
  8
FeatureAttribs
 70
0
  1
PNOA-H_AMS_1956-57_33k_ES_PAN_21mic_H50_0575_fot_000-46928_R.tif
  2
NAME
  10
243307.172
  20
4464773.698
 40
34.91878
  0
SEQEND
  0
POLYLINE
  8
LC_OH_2021_05_O7
  70
1
  66
1
  0
VERTEX
  8
LC_OH_2021_05_O7
  10
243481.009
  20
4464170.000
  0
VERTEX
  8
LC_OH_2021_05_O7
  10
243120.000
  20
4464170.000
  0
VERTEX
  8
LC_OH_2021_05_O7
  10
243120.000
  20
4465377.397
  0
VERTEX
  8
LC_OH_2021_05_O7
  10
243506.000
  20
4465302.000
  0
VERTEX
  8
LC_OH_2021_05_O7
  10
243481.009
  20
4464170.000
  0
SEQEND
  8
LC_OH_2021_05_O7
  0
INSERT
  8
FeatureAttribs
  2
FEATURE
  41
1
  42
1
  43
1
  50
0
  10
244983.095
  20
4464876.000
 66
1
  0
ATTRIB
  8
FeatureAttribs
 70
0
  1
PNOA-H_AMS_1956-57_33k_ES_PAN_21mic_H50_0575_fot_000-46929_R.tif
  2
NAME
  10
244983.095
  20
4464876.000
 40
34.91878
  0
SEQEND
  0
POLYLINE
  8
LC_OH_2021_05_O7
  70
1
  66
1
  0
VERTEX
  8
LC_OH_2021_05_O7
  10
246445.718
  20
4464170.000
  0
VERTEX
  8
LC_OH_2021_05_O7
  10
243481.009
  20
4464170.000
  0
VERTEX
  8
LC_OH_2021_05_O7
  10
243506.000
  20
4465302.000
  0
VERTEX
  8
LC_OH_2021_05_O7
  10
244266.500
  20
4465581.500
  0
VERTEX
  8
LC_OH_2021_05_O7
  10
244267.500
  20
4465582.000
  0
VERTEX
  8
LC_OH_2021_05_O7
  10
246479.000
  20
4465154.500
  0
VERTEX
  8
LC_OH_2021_05_O7
  10
246445.718
  20
4464170.000
  0
SEQEND
  8
LC_OH_2021_05_O7
  0
INSERT
  8
FeatureAttribs
  2
FEATURE
  41
1
  42
1
  43
1
  50
0
  10
253976.357
  20
4464437.501
 66
1
  0
ATTRIB
  8
FeatureAttribs
 70
0
  1
PNOA-H_AMS_1956-57_33k_ES_PAN_21mic_H50_0575_fot_72B-46932_E.tif
  2
NAME
  10
253976.357
  20
4464437.501
 40
34.91878
  0
SEQEND
  0
POLYLINE
  8
LC_OH_2021_05_O7
  70
1
  66
1
  0
VERTEX
  8
LC_OH_2021_05_O7
  10
255481.100
  20
4463930.000
  0
VERTEX
  8
LC_OH_2021_05_O7
  10
252410.650
  20
4463930.000
  0
VERTEX
  8
LC_OH_2021_05_O7
  10
252465.000
  20
4464923.500
  0
VERTEX
  8
LC_OH_2021_05_O7
  10
252504.500
  20
4464944.500
  0
VERTEX
  8
LC_OH_2021_05_O7
  10
252505.500
  20
4464945.000
  0
VERTEX
  8
LC_OH_2021_05_O7
  10
255162.500
  20
4464892.000
  0
VERTEX
  8
LC_OH_2021_05_O7
  10
255165.500
  20
4464891.500
  0
VERTEX
  8
LC_OH_2021_05_O7
  10
255529.500
  20
4464669.500
  0
VERTEX
  8
LC_OH_2021_05_O7
  10
255481.100
  20
4463930.000
  0
SEQEND
  8
LC_OH_2021_05_O7
  0
INSERT
  8
FeatureAttribs
  2
FEATURE
  41
1
  42
1
  43
1
  50
0
  10
247955.734
  20
4464776.999
 66
1
  0
ATTRIB
  8
FeatureAttribs
 70
0
  1
PNOA-H_AMS_1956-57_33k_ES_PAN_21mic_H50_0575_fot_000-46930_R.tif
  2
NAME
  10
247955.734
  20
4464776.999
 40
34.91878
  0
SEQEND
  0
POLYLINE
  8
LC_OH_2021_05_O7
  70
1
  66
1
  0
VERTEX
  8
LC_OH_2021_05_O7
  10
249420.829
  20
4464170.000
  0
VERTEX
  8
LC_OH_2021_05_O7
  10
246445.622
  20
4464170.000
  0
VERTEX
  8
LC_OH_2021_05_O7
  10
246479.000
  20
4465154.500
  0
VERTEX
  8
LC_OH_2021_05_O7
  10
247034.000
  20
4465384.000
  0
VERTEX
  8
LC_OH_2021_05_O7
  10
249457.000
  20
4465068.500
  0
VERTEX
  8
LC_OH_2021_05_O7
  10
249420.829
  20
4464170.000
  0
SEQEND
  8
LC_OH_2021_05_O7
  0
INSERT
  8
FeatureAttribs
  2
FEATURE
  41
1
  42
1
  43
1
  50
0
  10
256971.815
  20
4464243.499
 66
1
  0
ATTRIB
  8
FeatureAttribs
 70
0
  1
PNOA-H_AMS_1956-57_33k_ES_PAN_21mic_H50_0576_fot_72B-46933_E.tif
  2
NAME
  10
256971.815
  20
4464243.499
 40
34.91878
  0
SEQEND
  0
POLYLINE
  8
LC_OH_2021_05_O7
  70
1
  66
1
  0
VERTEX
  8
LC_OH_2021_05_O7
  10
257381.682
  20
4463710.000
  0
VERTEX
  8
LC_OH_2021_05_O7
  10
257290.000
  20
4463710.000
  0
VERTEX
  8
LC_OH_2021_05_O7
  10
257290.000
  20
4463930.000
  0
VERTEX
  8
LC_OH_2021_05_O7
  10
255481.041
  20
4463930.000
  0
VERTEX
  8
LC_OH_2021_05_O7
  10
255529.500
  20
4464669.000
  0
VERTEX
  8
LC_OH_2021_05_O7
  10
257415.485
  20
4464758.373
  0
VERTEX
  8
LC_OH_2021_05_O7
  10
257392.308
  20
4464039.634
  0
SEQEND
  8
LC_OH_2021_05_O7
  0
ENDSEC
  0
EOF
