  0
SECTION
  2
HEADER
  9
$ACADVER
  1
AC1009
  9
$LUNITS
  70
2
  9
$LIMMIN
  10
171768.752
  20
4452202.141
  9
$LIMMAX
  10
200898.311
  20
4471888.620
  9
$EXTMIN
  10
171768.752
  20
4452202.141
  9
$EXTMAX
  10
200898.311
  20
4471888.620
  999
Created by Global Mapper
  999
Projection: UTM
  999
Datum: ETRS89
  999
Ground Units: meters
  999
ZONE: 30
  0
ENDSEC
  0
SECTION
  2
TABLES
  0
ENDSEC
  0
SECTION
  2
BLOCKS
  0
BLOCK
  8
FeatureAttribs
  70
0
  2
FEATURE
  3
FEATURE
  10
0.00000000
  20
0.00000000
  0
ATTDEF
  8
FeatureAttribs
  70
0
  1
 
  2
NAME
  3
NAME
  10
0.00000000
  20
0.00000000
  40
1.00000000
  0
ENDBLK
  0
ENDSEC
  0
SECTION
  2
ENTITIES
  0
INSERT
  8
FeatureAttribs
  2
FEATURE
  41
1
  42
1
  43
1
  50
0
  10
199911.578
  20
4469926.751
 66
1
  0
ATTRIB
  8
FeatureAttribs
 70
0
  1
PNOA-H_AMS_1956-57_33k_ES_PAN_21mic_H50_0573_fot_71A-22075_W.tif
  2
NAME
  10
199911.578
  20
4469926.751
 40
35.15805
  0
SEQEND
  0
POLYLINE
  8
LC_OH_2021_05_O7
  70
1
  66
1
  0
VERTEX
  8
LC_OH_2021_05_O7
  10
200781.169
  20
4467764.665
  0
VERTEX
  8
LC_OH_2021_05_O7
  10
199321.499
  20
4467613.500
  0
VERTEX
  8
LC_OH_2021_05_O7
  10
199308.499
  20
4467612.500
  0
VERTEX
  8
LC_OH_2021_05_O7
  10
199304.499
  20
4467614.500
  0
VERTEX
  8
LC_OH_2021_05_O7
  10
198841.999
  20
4467868.500
  0
VERTEX
  8
LC_OH_2021_05_O7
  10
198815.249
  20
4470790.575
  0
VERTEX
  8
LC_OH_2021_05_O7
  10
200898.311
  20
4470707.129
  0
VERTEX
  8
LC_OH_2021_05_O7
  10
200806.214
  20
4468393.987
  0
SEQEND
  8
LC_OH_2021_05_O7
  0
INSERT
  8
FeatureAttribs
  2
FEATURE
  41
1
  42
1
  43
1
  50
0
  10
197490.406
  20
4470072.500
 66
1
  0
ATTRIB
  8
FeatureAttribs
 70
0
  1
PNOA-H_AMS_1956-57_33k_ES_PAN_21mic_H50_0573_fot_71A-22076_W.tif
  2
NAME
  10
197490.406
  20
4470072.500
 40
35.15805
  0
SEQEND
  0
POLYLINE
  8
LC_OH_2021_05_O7
  70
1
  66
1
  0
VERTEX
  8
LC_OH_2021_05_O7
  10
198815.249
  20
4470790.575
  0
VERTEX
  8
LC_OH_2021_05_O7
  10
198841.999
  20
4467868.500
  0
VERTEX
  8
LC_OH_2021_05_O7
  10
196484.499
  20
4467780.500
  0
VERTEX
  8
LC_OH_2021_05_O7
  10
196120.999
  20
4468001.500
  0
VERTEX
  8
LC_OH_2021_05_O7
  10
196174.146
  20
4470896.935
  0
VERTEX
  8
LC_OH_2021_05_O7
  10
197357.904
  20
4470848.955
  0
SEQEND
  8
LC_OH_2021_05_O7
  0
INSERT
  8
FeatureAttribs
  2
FEATURE
  41
1
  42
1
  43
1
  50
0
  10
189166.395
  20
4470280.001
 66
1
  0
ATTRIB
  8
FeatureAttribs
 70
0
  1
PNOA-H_AMS_1956-57_33k_ES_PAN_21mic_H50_0573_fot_71A-22079_W.tif
  2
NAME
  10
189166.395
  20
4470280.001
 40
35.15805
  0
SEQEND
  0
POLYLINE
  8
LC_OH_2021_05_O7
  70
1
  66
1
  0
VERTEX
  8
LC_OH_2021_05_O7
  10
190557.914
  20
4471126.111
  0
VERTEX
  8
LC_OH_2021_05_O7
  10
190514.999
  20
4468218.500
  0
VERTEX
  8
LC_OH_2021_05_O7
  10
188402.499
  20
4467915.500
  0
VERTEX
  8
LC_OH_2021_05_O7
  10
187749.499
  20
4468271.500
  0
VERTEX
  8
LC_OH_2021_05_O7
  10
187805.511
  20
4471240.140
  0
VERTEX
  8
LC_OH_2021_05_O7
  10
190277.014
  20
4471137.629
  0
SEQEND
  8
LC_OH_2021_05_O7
  0
INSERT
  8
FeatureAttribs
  2
FEATURE
  41
1
  42
1
  43
1
  50
0
  10
183626.104
  20
4470443.001
 66
1
  0
ATTRIB
  8
FeatureAttribs
 70
0
  1
PNOA-H_AMS_1956-57_33k_ES_PAN_21mic_H50_0573_fot_71A-22081_W.tif
  2
NAME
  10
183626.104
  20
4470443.001
 40
35.15805
  0
SEQEND
  0
POLYLINE
  8
LC_OH_2021_05_O7
  70
1
  66
1
  0
VERTEX
  8
LC_OH_2021_05_O7
  10
185016.671
  20
4471356.625
  0
VERTEX
  8
LC_OH_2021_05_O7
  10
185005.999
  20
4468334.000
  0
VERTEX
  8
LC_OH_2021_05_O7
  10
185004.999
  20
4468329.500
  0
VERTEX
  8
LC_OH_2021_05_O7
  10
182785.498
  20
4467980.000
  0
VERTEX
  8
LC_OH_2021_05_O7
  10
182167.998
  20
4468338.500
  0
VERTEX
  8
LC_OH_2021_05_O7
  10
182273.390
  20
4471472.141
  0
VERTEX
  8
LC_OH_2021_05_O7
  10
183196.016
  20
4471433.001
  0
SEQEND
  8
LC_OH_2021_05_O7
  0
INSERT
  8
FeatureAttribs
  2
FEATURE
  41
1
  42
1
  43
1
  50
0
  10
191953.206
  20
4470232.502
 66
1
  0
ATTRIB
  8
FeatureAttribs
 70
0
  1
PNOA-H_AMS_1956-57_33k_ES_PAN_21mic_H50_0573_fot_71A-22078_W.tif
  2
NAME
  10
191953.206
  20
4470232.502
 40
35.15805
  0
SEQEND
  0
POLYLINE
  8
LC_OH_2021_05_O7
  70
1
  66
1
  0
VERTEX
  8
LC_OH_2021_05_O7
  10
193355.544
  20
4471011.396
  0
VERTEX
  8
LC_OH_2021_05_O7
  10
193379.499
  20
4468094.500
  0
VERTEX
  8
LC_OH_2021_05_O7
  10
191065.499
  20
4467913.500
  0
VERTEX
  8
LC_OH_2021_05_O7
  10
190514.499
  20
4468218.000
  0
VERTEX
  8
LC_OH_2021_05_O7
  10
190557.783
  20
4471126.117
  0
SEQEND
  8
LC_OH_2021_05_O7
  0
INSERT
  8
FeatureAttribs
  2
FEATURE
  41
1
  42
1
  43
1
  50
0
  10
180866.660
  20
4470542.001
 66
1
  0
ATTRIB
  8
FeatureAttribs
 70
0
  1
PNOA-H_AMS_1956-57_33k_ES_PAN_21mic_H50_0573_fot_71A-22082_W.tif
  2
NAME
  10
180866.660
  20
4470542.001
 40
35.15805
  0
SEQEND
  0
POLYLINE
  8
LC_OH_2021_05_O7
  70
1
  66
1
  0
VERTEX
  8
LC_OH_2021_05_O7
  10
182273.747
  20
4471472.126
  0
VERTEX
  8
LC_OH_2021_05_O7
  10
182167.998
  20
4468338.500
  0
VERTEX
  8
LC_OH_2021_05_O7
  10
179912.498
  20
4468090.000
  0
VERTEX
  8
LC_OH_2021_05_O7
  10
179333.998
  20
4468420.000
  0
VERTEX
  8
LC_OH_2021_05_O7
  10
179568.272
  20
4471586.940
  0
VERTEX
  8
LC_OH_2021_05_O7
  10
179655.477
  20
4471583.199
  0
SEQEND
  8
LC_OH_2021_05_O7
  0
INSERT
  8
FeatureAttribs
  2
FEATURE
  41
1
  42
1
  43
1
  50
0
  10
194761.699
  20
4470185.500
 66
1
  0
ATTRIB
  8
FeatureAttribs
 70
0
  1
PNOA-H_AMS_1956-57_33k_ES_PAN_21mic_H50_0573_fot_71A-22077_W.tif
  2
NAME
  10
194761.699
  20
4470185.500
 40
35.15805
  0
SEQEND
  0
POLYLINE
  8
LC_OH_2021_05_O7
  70
1
  66
1
  0
VERTEX
  8
LC_OH_2021_05_O7
  10
196174.146
  20
4470896.935
  0
VERTEX
  8
LC_OH_2021_05_O7
  10
196120.999
  20
4468001.500
  0
VERTEX
  8
LC_OH_2021_05_O7
  10
193708.999
  20
4467892.500
  0
VERTEX
  8
LC_OH_2021_05_O7
  10
193379.499
  20
4468094.000
  0
VERTEX
  8
LC_OH_2021_05_O7
  10
193355.543
  20
4471011.396
  0
VERTEX
  8
LC_OH_2021_05_O7
  10
193817.472
  20
4470992.455
  0
SEQEND
  8
LC_OH_2021_05_O7
  0
INSERT
  8
FeatureAttribs
  2
FEATURE
  41
1
  42
1
  43
1
  50
0
  10
186401.219
  20
4470389.499
 66
1
  0
ATTRIB
  8
FeatureAttribs
 70
0
  1
PNOA-H_AMS_1956-57_33k_ES_PAN_21mic_H50_0573_fot_71A-22080_W.tif
  2
NAME
  10
186401.219
  20
4470389.499
 40
35.15805
  0
SEQEND
  0
POLYLINE
  8
LC_OH_2021_05_O7
  70
1
  66
1
  0
VERTEX
  8
LC_OH_2021_05_O7
  10
187805.511
  20
4471240.140
  0
VERTEX
  8
LC_OH_2021_05_O7
  10
187749.499
  20
4468271.500
  0
VERTEX
  8
LC_OH_2021_05_O7
  10
185637.499
  20
4467980.500
  0
VERTEX
  8
LC_OH_2021_05_O7
  10
185005.499
  20
4468330.000
  0
VERTEX
  8
LC_OH_2021_05_O7
  10
185016.543
  20
4471356.631
  0
VERTEX
  8
LC_OH_2021_05_O7
  10
186736.528
  20
4471284.478
  0
SEQEND
  8
LC_OH_2021_05_O7
  0
INSERT
  8
FeatureAttribs
  2
FEATURE
  41
1
  42
1
  43
1
  50
0
  10
178116.835
  20
4470673.251
 66
1
  0
ATTRIB
  8
FeatureAttribs
 70
0
  1
PNOA-H_AMS_1956-57_33k_ES_PAN_21mic_H50_0573_fot_71A-22083_W.tif
  2
NAME
  10
178116.835
  20
4470673.251
 40
35.15805
  0
SEQEND
  0
POLYLINE
  8
LC_OH_2021_05_O7
  70
1
  66
1
  0
VERTEX
  8
LC_OH_2021_05_O7
  10
179568.272
  20
4471586.940
  0
VERTEX
  8
LC_OH_2021_05_O7
  10
179333.998
  20
4468420.000
  0
VERTEX
  8
LC_OH_2021_05_O7
  10
177208.998
  20
4468195.500
  0
VERTEX
  8
LC_OH_2021_05_O7
  10
176546.498
  20
4468557.000
  0
VERTEX
  8
LC_OH_2021_05_O7
  10
176823.920
  20
4471704.659
  0
SEQEND
  8
LC_OH_2021_05_O7
  0
INSERT
  8
FeatureAttribs
  2
FEATURE
  41
1
  42
1
  43
1
  50
0
  10
175362.560
  20
4470945.000
 66
1
  0
ATTRIB
  8
FeatureAttribs
 70
0
  1
PNOA-H_AMS_1956-57_33k_ES_PAN_21mic_H50_0573_fot_71A-22084_W.tif
  2
NAME
  10
175362.560
  20
4470945.000
 40
35.15805
  0
SEQEND
  0
POLYLINE
  8
LC_OH_2021_05_O7
  70
1
  66
1
  0
VERTEX
  8
LC_OH_2021_05_O7
  10
176823.891
  20
4471704.660
  0
VERTEX
  8
LC_OH_2021_05_O7
  10
176624.498
  20
4469443.000
  0
VERTEX
  8
LC_OH_2021_05_O7
  10
176624.498
  20
4469438.500
  0
VERTEX
  8
LC_OH_2021_05_O7
  10
176546.498
  20
4468557.000
  0
VERTEX
  8
LC_OH_2021_05_O7
  10
174443.498
  20
4468350.000
  0
VERTEX
  8
LC_OH_2021_05_O7
  10
174437.998
  20
4468350.000
  0
VERTEX
  8
LC_OH_2021_05_O7
  10
174434.998
  20
4468351.500
  0
VERTEX
  8
LC_OH_2021_05_O7
  10
174093.498
  20
4468537.000
  0
VERTEX
  8
LC_OH_2021_05_O7
  10
173922.168
  20
4471830.167
  0
VERTEX
  8
LC_OH_2021_05_O7
  10
176114.910
  20
4471735.072
  0
SEQEND
  8
LC_OH_2021_05_O7
  0
INSERT
  8
FeatureAttribs
  2
FEATURE
  41
1
  42
1
  43
1
  50
0
  10
175777.582
  20
4466245.001
 66
1
  0
ATTRIB
  8
FeatureAttribs
 70
0
  1
PNOA-H_AMS_1956-57_33k_ES_PAN_21mic_H50_0573_fot_72A-46905_E.tif
  2
NAME
  10
175777.582
  20
4466245.001
 40
35.15805
  0
SEQEND
  0
POLYLINE
  8
LC_OH_2021_05_O7
  70
1
  66
1
  0
VERTEX
  8
LC_OH_2021_05_O7
  10
176542.998
  20
4468557.000
  0
VERTEX
  8
LC_OH_2021_05_O7
  10
176548.498
  20
4468556.500
  0
VERTEX
  8
LC_OH_2021_05_O7
  10
177208.998
  20
4468196.000
  0
VERTEX
  8
LC_OH_2021_05_O7
  10
177130.498
  20
4464375.500
  0
VERTEX
  8
LC_OH_2021_05_O7
  10
175548.498
  20
4463933.000
  0
VERTEX
  8
LC_OH_2021_05_O7
  10
175541.498
  20
4463935.000
  0
VERTEX
  8
LC_OH_2021_05_O7
  10
174341.998
  20
4464479.500
  0
VERTEX
  8
LC_OH_2021_05_O7
  10
174438.998
  20
4468350.000
  0
VERTEX
  8
LC_OH_2021_05_O7
  10
176537.998
  20
4468556.500
  0
VERTEX
  8
LC_OH_2021_05_O7
  10
176542.998
  20
4468557.000
  0
SEQEND
  8
LC_OH_2021_05_O7
  0
INSERT
  8
FeatureAttribs
  2
FEATURE
  41
1
  42
1
  43
1
  50
0
  10
173228.801
  20
4466298.750
 66
1
  0
ATTRIB
  8
FeatureAttribs
 70
0
  1
PNOA-H_AMS_1956-57_33k_ES_PAN_21mic_H50_0573_fot_72A-46904_E.tif
  2
NAME
  10
173228.801
  20
4466298.750
 40
35.15805
  0
SEQEND
  0
POLYLINE
  8
LC_OH_2021_05_O7
  70
1
  66
1
  0
VERTEX
  8
LC_OH_2021_05_O7
  10
172421.948
  20
4468393.047
  0
VERTEX
  8
LC_OH_2021_05_O7
  10
174085.998
  20
4468536.500
  0
VERTEX
  8
LC_OH_2021_05_O7
  10
174091.998
  20
4468537.000
  0
VERTEX
  8
LC_OH_2021_05_O7
  10
174093.998
  20
4468537.000
  0
VERTEX
  8
LC_OH_2021_05_O7
  10
174103.498
  20
4468532.000
  0
VERTEX
  8
LC_OH_2021_05_O7
  10
174438.998
  20
4468350.000
  0
VERTEX
  8
LC_OH_2021_05_O7
  10
174341.998
  20
4464479.500
  0
VERTEX
  8
LC_OH_2021_05_O7
  10
172629.998
  20
4464060.500
  0
VERTEX
  8
LC_OH_2021_05_O7
  10
172241.235
  20
4464244.402
  0
VERTEX
  8
LC_OH_2021_05_O7
  10
172271.903
  20
4464948.785
  0
VERTEX
  8
LC_OH_2021_05_O7
  10
172372.663
  20
4467262.059
  0
SEQEND
  8
LC_OH_2021_05_O7
  0
INSERT
  8
FeatureAttribs
  2
FEATURE
  41
1
  42
1
  43
1
  50
0
  10
181345.632
  20
4466082.749
 66
1
  0
ATTRIB
  8
FeatureAttribs
 70
0
  1
PNOA-H_AMS_1956-57_33k_ES_PAN_21mic_H50_0573_fot_72A-46907_E.tif
  2
NAME
  10
181345.632
  20
4466082.749
 40
35.15805
  0
SEQEND
  0
POLYLINE
  8
LC_OH_2021_05_O7
  70
1
  66
1
  0
VERTEX
  8
LC_OH_2021_05_O7
  10
182163.998
  20
4468338.500
  0
VERTEX
  8
LC_OH_2021_05_O7
  10
182169.998
  20
4468338.000
  0
VERTEX
  8
LC_OH_2021_05_O7
  10
182785.998
  20
4467980.000
  0
VERTEX
  8
LC_OH_2021_05_O7
  10
182747.498
  20
4464284.000
  0
VERTEX
  8
LC_OH_2021_05_O7
  10
181401.498
  20
4463827.000
  0
VERTEX
  8
LC_OH_2021_05_O7
  10
181398.498
  20
4463827.000
  0
VERTEX
  8
LC_OH_2021_05_O7
  10
181366.998
  20
4463837.500
  0
VERTEX
  8
LC_OH_2021_05_O7
  10
179936.498
  20
4464320.500
  0
VERTEX
  8
LC_OH_2021_05_O7
  10
179911.998
  20
4468090.000
  0
VERTEX
  8
LC_OH_2021_05_O7
  10
182159.498
  20
4468338.000
  0
VERTEX
  8
LC_OH_2021_05_O7
  10
182163.998
  20
4468338.500
  0
SEQEND
  8
LC_OH_2021_05_O7
  0
INSERT
  8
FeatureAttribs
  2
FEATURE
  41
1
  42
1
  43
1
  50
0
  10
189669.344
  20
4465928.251
 66
1
  0
ATTRIB
  8
FeatureAttribs
 70
0
  1
PNOA-H_AMS_1956-57_33k_ES_PAN_21mic_H50_0573_fot_72A-46910_E.tif
  2
NAME
  10
189669.344
  20
4465928.251
 40
35.15805
  0
SEQEND
  0
POLYLINE
  8
LC_OH_2021_05_O7
  70
1
  66
1
  0
VERTEX
  8
LC_OH_2021_05_O7
  10
190512.499
  20
4468218.000
  0
VERTEX
  8
LC_OH_2021_05_O7
  10
190515.499
  20
4468218.000
  0
VERTEX
  8
LC_OH_2021_05_O7
  10
190520.999
  20
4468215.000
  0
VERTEX
  8
LC_OH_2021_05_O7
  10
191058.499
  20
4467918.000
  0
VERTEX
  8
LC_OH_2021_05_O7
  10
191066.499
  20
4467913.500
  0
VERTEX
  8
LC_OH_2021_05_O7
  10
191066.499
  20
4467912.000
  0
VERTEX
  8
LC_OH_2021_05_O7
  10
190911.499
  20
4463844.500
  0
VERTEX
  8
LC_OH_2021_05_O7
  10
190499.999
  20
4463638.500
  0
VERTEX
  8
LC_OH_2021_05_O7
  10
188304.499
  20
4464060.000
  0
VERTEX
  8
LC_OH_2021_05_O7
  10
188295.999
  20
4464062.500
  0
VERTEX
  8
LC_OH_2021_05_O7
  10
188402.999
  20
4467915.000
  0
VERTEX
  8
LC_OH_2021_05_O7
  10
190508.999
  20
4468217.500
  0
VERTEX
  8
LC_OH_2021_05_O7
  10
190512.499
  20
4468218.000
  0
SEQEND
  8
LC_OH_2021_05_O7
  0
INSERT
  8
FeatureAttribs
  2
FEATURE
  41
1
  42
1
  43
1
  50
0
  10
178545.679
  20
4466135.750
 66
1
  0
ATTRIB
  8
FeatureAttribs
 70
0
  1
PNOA-H_AMS_1956-57_33k_ES_PAN_21mic_H50_0573_fot_72A-46906_E.tif
  2
NAME
  10
178545.679
  20
4466135.750
 40
35.15805
  0
SEQEND
  0
POLYLINE
  8
LC_OH_2021_05_O7
  70
1
  66
1
  0
VERTEX
  8
LC_OH_2021_05_O7
  10
177258.498
  20
4468201.000
  0
VERTEX
  8
LC_OH_2021_05_O7
  10
179334.498
  20
4468420.000
  0
VERTEX
  8
LC_OH_2021_05_O7
  10
179911.998
  20
4468090.500
  0
VERTEX
  8
LC_OH_2021_05_O7
  10
179936.498
  20
4464320.500
  0
VERTEX
  8
LC_OH_2021_05_O7
  10
178479.998
  20
4463851.500
  0
VERTEX
  8
LC_OH_2021_05_O7
  10
178476.998
  20
4463851.500
  0
VERTEX
  8
LC_OH_2021_05_O7
  10
177130.498
  20
4464375.500
  0
VERTEX
  8
LC_OH_2021_05_O7
  10
177208.998
  20
4468195.500
  0
VERTEX
  8
LC_OH_2021_05_O7
  10
177253.998
  20
4468200.500
  0
VERTEX
  8
LC_OH_2021_05_O7
  10
177258.498
  20
4468201.000
  0
SEQEND
  8
LC_OH_2021_05_O7
  0
INSERT
  8
FeatureAttribs
  2
FEATURE
  41
1
  42
1
  43
1
  50
0
  10
186975.183
  20
4465980.502
 66
1
  0
ATTRIB
  8
FeatureAttribs
 70
0
  1
PNOA-H_AMS_1956-57_33k_ES_PAN_21mic_H50_0573_fot_72A-46909_E.tif
  2
NAME
  10
186975.183
  20
4465980.502
 40
35.15805
  0
SEQEND
  0
POLYLINE
  8
LC_OH_2021_05_O7
  70
1
  66
1
  0
VERTEX
  8
LC_OH_2021_05_O7
  10
187746.499
  20
4468271.500
  0
VERTEX
  8
LC_OH_2021_05_O7
  10
187751.499
  20
4468271.000
  0
VERTEX
  8
LC_OH_2021_05_O7
  10
188403.499
  20
4467915.500
  0
VERTEX
  8
LC_OH_2021_05_O7
  10
188296.499
  20
4464062.500
  0
VERTEX
  8
LC_OH_2021_05_O7
  10
188294.999
  20
4464061.000
  0
VERTEX
  8
LC_OH_2021_05_O7
  10
187435.999
  20
4463689.500
  0
VERTEX
  8
LC_OH_2021_05_O7
  10
185566.999
  20
4464182.000
  0
VERTEX
  8
LC_OH_2021_05_O7
  10
185637.999
  20
4467980.500
  0
VERTEX
  8
LC_OH_2021_05_O7
  10
187742.999
  20
4468271.000
  0
VERTEX
  8
LC_OH_2021_05_O7
  10
187746.499
  20
4468271.500
  0
SEQEND
  8
LC_OH_2021_05_O7
  0
INSERT
  8
FeatureAttribs
  2
FEATURE
  41
1
  42
1
  43
1
  50
0
  10
192304.472
  20
4465878.000
 66
1
  0
ATTRIB
  8
FeatureAttribs
 70
0
  1
PNOA-H_AMS_1956-57_33k_ES_PAN_21mic_H50_0573_fot_72A-46911_E.tif
  2
NAME
  10
192304.472
  20
4465878.000
 40
35.15805
  0
SEQEND
  0
POLYLINE
  8
LC_OH_2021_05_O7
  70
1
  66
1
  0
VERTEX
  8
LC_OH_2021_05_O7
  10
191595.499
  20
4467955.000
  0
VERTEX
  8
LC_OH_2021_05_O7
  10
193379.499
  20
4468094.500
  0
VERTEX
  8
LC_OH_2021_05_O7
  10
193709.499
  20
4467892.500
  0
VERTEX
  8
LC_OH_2021_05_O7
  10
193521.999
  20
4463661.500
  0
VERTEX
  8
LC_OH_2021_05_O7
  10
190911.499
  20
4463844.500
  0
VERTEX
  8
LC_OH_2021_05_O7
  10
191065.999
  20
4467912.000
  0
VERTEX
  8
LC_OH_2021_05_O7
  10
191066.499
  20
4467913.500
  0
VERTEX
  8
LC_OH_2021_05_O7
  10
191071.999
  20
4467914.000
  0
VERTEX
  8
LC_OH_2021_05_O7
  10
191588.999
  20
4467954.500
  0
VERTEX
  8
LC_OH_2021_05_O7
  10
191595.499
  20
4467955.000
  0
SEQEND
  8
LC_OH_2021_05_O7
  0
INSERT
  8
FeatureAttribs
  2
FEATURE
  41
1
  42
1
  43
1
  50
0
  10
194980.332
  20
4465813.751
 66
1
  0
ATTRIB
  8
FeatureAttribs
 70
0
  1
PNOA-H_AMS_1956-57_33k_ES_PAN_21mic_H50_0573_fot_72A-46912_E.tif
  2
NAME
  10
194980.332
  20
4465813.751
 40
35.15805
  0
SEQEND
  0
POLYLINE
  8
LC_OH_2021_05_O7
  70
1
  66
1
  0
VERTEX
  8
LC_OH_2021_05_O7
  10
193646.999
  20
4466489.500
  0
VERTEX
  8
LC_OH_2021_05_O7
  10
193709.499
  20
4467892.500
  0
VERTEX
  8
LC_OH_2021_05_O7
  10
196121.499
  20
4468001.500
  0
VERTEX
  8
LC_OH_2021_05_O7
  10
196484.999
  20
4467780.500
  0
VERTEX
  8
LC_OH_2021_05_O7
  10
196185.499
  20
4463627.500
  0
VERTEX
  8
LC_OH_2021_05_O7
  10
193571.499
  20
4463626.000
  0
VERTEX
  8
LC_OH_2021_05_O7
  10
193521.999
  20
4463661.500
  0
VERTEX
  8
LC_OH_2021_05_O7
  10
193646.999
  20
4466478.500
  0
VERTEX
  8
LC_OH_2021_05_O7
  10
193646.999
  20
4466489.500
  0
SEQEND
  8
LC_OH_2021_05_O7
  0
INSERT
  8
FeatureAttribs
  2
FEATURE
  41
1
  42
1
  43
1
  50
0
  10
197740.213
  20
4465609.501
 66
1
  0
ATTRIB
  8
FeatureAttribs
 70
0
  1
PNOA-H_AMS_1956-57_33k_ES_PAN_21mic_H50_0573_fot_72A-46913_E.tif
  2
NAME
  10
197740.213
  20
4465609.501
 40
35.15805
  0
SEQEND
  0
POLYLINE
  8
LC_OH_2021_05_O7
  70
1
  66
1
  0
VERTEX
  8
LC_OH_2021_05_O7
  10
196484.999
  20
4467780.500
  0
VERTEX
  8
LC_OH_2021_05_O7
  10
198822.499
  20
4467868.000
  0
VERTEX
  8
LC_OH_2021_05_O7
  10
198835.999
  20
4467868.500
  0
VERTEX
  8
LC_OH_2021_05_O7
  10
198842.499
  20
4467868.500
  0
VERTEX
  8
LC_OH_2021_05_O7
  10
199308.999
  20
4467612.500
  0
VERTEX
  8
LC_OH_2021_05_O7
  10
198989.999
  20
4463542.500
  0
VERTEX
  8
LC_OH_2021_05_O7
  10
196617.999
  20
4463350.500
  0
VERTEX
  8
LC_OH_2021_05_O7
  10
196613.499
  20
4463350.500
  0
VERTEX
  8
LC_OH_2021_05_O7
  10
196609.999
  20
4463352.500
  0
VERTEX
  8
LC_OH_2021_05_O7
  10
196185.499
  20
4463627.000
  0
VERTEX
  8
LC_OH_2021_05_O7
  10
196484.999
  20
4467780.500
  0
SEQEND
  8
LC_OH_2021_05_O7
  0
INSERT
  8
FeatureAttribs
  2
FEATURE
  41
1
  42
1
  43
1
  50
0
  10
199979.399
  20
4465440.784
 66
1
  0
ATTRIB
  8
FeatureAttribs
 70
0
  1
PNOA-H_AMS_1956-57_33k_ES_PAN_21mic_H50_0574_fot_72A-46914_E.tif
  2
NAME
  10
199979.399
  20
4465440.784
 40
35.15805
  0
SEQEND
  0
POLYLINE
  8
LC_OH_2021_05_O7
  70
1
  66
1
  0
VERTEX
  8
LC_OH_2021_05_O7
  10
200781.178
  20
4467764.913
  0
VERTEX
  8
LC_OH_2021_05_O7
  10
200714.157
  20
4466080.851
  0
VERTEX
  8
LC_OH_2021_05_O7
  10
200622.140
  20
4463767.719
  0
VERTEX
  8
LC_OH_2021_05_O7
  10
200600.696
  20
4463228.429
  0
VERTEX
  8
LC_OH_2021_05_O7
  10
199714.999
  20
4463094.000
  0
VERTEX
  8
LC_OH_2021_05_O7
  10
198989.999
  20
4463542.000
  0
VERTEX
  8
LC_OH_2021_05_O7
  10
199308.999
  20
4467612.500
  0
SEQEND
  8
LC_OH_2021_05_O7
  0
INSERT
  8
FeatureAttribs
  2
FEATURE
  41
1
  42
1
  43
1
  50
0
  10
184183.644
  20
4466032.251
 66
1
  0
ATTRIB
  8
FeatureAttribs
 70
0
  1
PNOA-H_AMS_1956-57_33k_ES_PAN_21mic_H50_0573_fot_72A-46908_E.tif
  2
NAME
  10
184183.644
  20
4466032.251
 40
35.15805
  0
SEQEND
  0
POLYLINE
  8
LC_OH_2021_05_O7
  70
1
  66
1
  0
VERTEX
  8
LC_OH_2021_05_O7
  10
183405.498
  20
4468078.000
  0
VERTEX
  8
LC_OH_2021_05_O7
  10
185005.999
  20
4468330.000
  0
VERTEX
  8
LC_OH_2021_05_O7
  10
185637.999
  20
4467980.500
  0
VERTEX
  8
LC_OH_2021_05_O7
  10
185566.999
  20
4464182.000
  0
VERTEX
  8
LC_OH_2021_05_O7
  10
184359.498
  20
4463734.500
  0
VERTEX
  8
LC_OH_2021_05_O7
  10
184355.498
  20
4463735.000
  0
VERTEX
  8
LC_OH_2021_05_O7
  10
182747.498
  20
4464284.000
  0
VERTEX
  8
LC_OH_2021_05_O7
  10
182785.998
  20
4467980.000
  0
VERTEX
  8
LC_OH_2021_05_O7
  10
183402.498
  20
4468077.500
  0
VERTEX
  8
LC_OH_2021_05_O7
  10
183405.498
  20
4468078.000
  0
SEQEND
  8
LC_OH_2021_05_O7
  0
INSERT
  8
FeatureAttribs
  2
FEATURE
  41
1
  42
1
  43
1
  50
0
  10
172331.469
  20
4463277.843
 66
1
  0
ATTRIB
  8
FeatureAttribs
 70
0
  1
PNOA-H_AMS_1956-57_33k_ES_PAN_21mic_H50_0572_fot_73A-11132_W.tif
  2
NAME
  10
172331.469
  20
4463277.843
 40
35.15805
  0
SEQEND
  0
POLYLINE
  8
LC_OH_2021_05_O7
  70
1
  66
1
  0
VERTEX
  8
LC_OH_2021_05_O7
  10
172241.243
  20
4464244.593
  0
VERTEX
  8
LC_OH_2021_05_O7
  10
172629.998
  20
4464060.500
  0
VERTEX
  8
LC_OH_2021_05_O7
  10
172543.339
  20
4462230.000
  0
VERTEX
  8
LC_OH_2021_05_O7
  10
172153.537
  20
4462230.000
  0
VERTEX
  8
LC_OH_2021_05_O7
  10
172171.186
  20
4462635.516
  0
SEQEND
  8
LC_OH_2021_05_O7
  0
INSERT
  8
FeatureAttribs
  2
FEATURE
  41
1
  42
1
  43
1
  50
0
  10
191990.587
  20
4462597.250
 66
1
  0
ATTRIB
  8
FeatureAttribs
 70
0
  1
PNOA-H_AMS_1956-57_33k_ES_PAN_21mic_H50_0573_fot_73A-11125_W.tif
  2
NAME
  10
191990.587
  20
4462597.250
 40
35.15805
  0
SEQEND
  0
POLYLINE
  8
LC_OH_2021_05_O7
  70
1
  66
1
  0
VERTEX
  8
LC_OH_2021_05_O7
  10
193460.894
  20
4461350.000
  0
VERTEX
  8
LC_OH_2021_05_O7
  10
193339.999
  20
4461350.000
  0
VERTEX
  8
LC_OH_2021_05_O7
  10
193339.999
  20
4461630.000
  0
VERTEX
  8
LC_OH_2021_05_O7
  10
190422.689
  20
4461630.000
  0
VERTEX
  8
LC_OH_2021_05_O7
  10
190499.499
  20
4463638.500
  0
VERTEX
  8
LC_OH_2021_05_O7
  10
190909.999
  20
4463844.000
  0
VERTEX
  8
LC_OH_2021_05_O7
  10
190910.999
  20
4463844.500
  0
VERTEX
  8
LC_OH_2021_05_O7
  10
193519.999
  20
4463662.000
  0
VERTEX
  8
LC_OH_2021_05_O7
  10
193522.499
  20
4463661.500
  0
VERTEX
  8
LC_OH_2021_05_O7
  10
193571.499
  20
4463626.500
  0
VERTEX
  8
LC_OH_2021_05_O7
  10
193460.894
  20
4461350.000
  0
SEQEND
  8
LC_OH_2021_05_O7
  0
INSERT
  8
FeatureAttribs
  2
FEATURE
  41
1
  42
1
  43
1
  50
0
  10
195043.422
  20
4462488.750
 66
1
  0
ATTRIB
  8
FeatureAttribs
 70
0
  1
PNOA-H_AMS_1956-57_33k_ES_PAN_21mic_H50_0573_fot_73A-11124_W.tif
  2
NAME
  10
195043.422
  20
4462488.750
 40
35.15805
  0
SEQEND
  0
POLYLINE
  8
LC_OH_2021_05_O7
  70
1
  66
1
  0
VERTEX
  8
LC_OH_2021_05_O7
  10
196513.234
  20
4461350.000
  0
VERTEX
  8
LC_OH_2021_05_O7
  10
193460.906
  20
4461350.000
  0
VERTEX
  8
LC_OH_2021_05_O7
  10
193571.499
  20
4463626.000
  0
VERTEX
  8
LC_OH_2021_05_O7
  10
194692.499
  20
4463627.000
  0
VERTEX
  8
LC_OH_2021_05_O7
  10
195788.499
  20
4463627.500
  0
VERTEX
  8
LC_OH_2021_05_O7
  10
196185.499
  20
4463627.500
  0
VERTEX
  8
LC_OH_2021_05_O7
  10
196613.999
  20
4463350.500
  0
VERTEX
  8
LC_OH_2021_05_O7
  10
196513.234
  20
4461350.000
  0
SEQEND
  8
LC_OH_2021_05_O7
  0
INSERT
  8
FeatureAttribs
  2
FEATURE
  41
1
  42
1
  43
1
  50
0
  10
176989.350
  20
4463302.750
 66
1
  0
ATTRIB
  8
FeatureAttribs
 70
0
  1
PNOA-H_AMS_1956-57_33k_ES_PAN_21mic_H50_0573_fot_73A-11130_W.tif
  2
NAME
  10
176989.350
  20
4463302.750
 40
35.15805
  0
SEQEND
  0
POLYLINE
  8
LC_OH_2021_05_O7
  70
1
  66
1
  0
VERTEX
  8
LC_OH_2021_05_O7
  10
178426.669
  20
4462230.000
  0
VERTEX
  8
LC_OH_2021_05_O7
  10
175467.921
  20
4462230.000
  0
VERTEX
  8
LC_OH_2021_05_O7
  10
175546.998
  20
4463933.000
  0
VERTEX
  8
LC_OH_2021_05_O7
  10
177128.498
  20
4464375.500
  0
VERTEX
  8
LC_OH_2021_05_O7
  10
177131.998
  20
4464375.500
  0
VERTEX
  8
LC_OH_2021_05_O7
  10
177261.498
  20
4464324.500
  0
VERTEX
  8
LC_OH_2021_05_O7
  10
177263.498
  20
4464324.000
  0
VERTEX
  8
LC_OH_2021_05_O7
  10
178478.498
  20
4463851.500
  0
VERTEX
  8
LC_OH_2021_05_O7
  10
178426.669
  20
4462230.000
  0
SEQEND
  8
LC_OH_2021_05_O7
  0
INSERT
  8
FeatureAttribs
  2
FEATURE
  41
1
  42
1
  43
1
  50
0
  10
185871.714
  20
4462905.999
 66
1
  0
ATTRIB
  8
FeatureAttribs
 70
0
  1
PNOA-H_AMS_1956-57_33k_ES_PAN_21mic_H50_0573_fot_73A-11127_W.tif
  2
NAME
  10
185871.714
  20
4462905.999
 40
35.15805
  0
SEQEND
  0
POLYLINE
  8
LC_OH_2021_05_O7
  70
1
  66
1
  0
VERTEX
  8
LC_OH_2021_05_O7
  10
187363.086
  20
4461630.000
  0
VERTEX
  8
LC_OH_2021_05_O7
  10
186249.999
  20
4461630.000
  0
VERTEX
  8
LC_OH_2021_05_O7
  10
186249.999
  20
4461930.000
  0
VERTEX
  8
LC_OH_2021_05_O7
  10
184308.158
  20
4461930.000
  0
VERTEX
  8
LC_OH_2021_05_O7
  10
184357.998
  20
4463730.500
  0
VERTEX
  8
LC_OH_2021_05_O7
  10
184358.498
  20
4463734.500
  0
VERTEX
  8
LC_OH_2021_05_O7
  10
184369.999
  20
4463739.000
  0
VERTEX
  8
LC_OH_2021_05_O7
  10
185567.499
  20
4464182.000
  0
VERTEX
  8
LC_OH_2021_05_O7
  10
187435.999
  20
4463689.500
  0
VERTEX
  8
LC_OH_2021_05_O7
  10
187363.086
  20
4461630.000
  0
SEQEND
  8
LC_OH_2021_05_O7
  0
INSERT
  8
FeatureAttribs
  2
FEATURE
  41
1
  42
1
  43
1
  50
0
  10
198128.791
  20
4462446.250
 66
1
  0
ATTRIB
  8
FeatureAttribs
 70
0
  1
PNOA-H_AMS_1956-57_33k_ES_PAN_21mic_H50_0573_fot_73A-11123_W.tif
  2
NAME
  10
198128.791
  20
4462446.250
 40
35.15805
  0
SEQEND
  0
POLYLINE
  8
LC_OH_2021_05_O7
  70
1
  66
1
  0
VERTEX
  8
LC_OH_2021_05_O7
  10
196613.499
  20
4463349.000
  0
VERTEX
  8
LC_OH_2021_05_O7
  10
196613.999
  20
4463350.500
  0
VERTEX
  8
LC_OH_2021_05_O7
  10
196623.999
  20
4463351.500
  0
VERTEX
  8
LC_OH_2021_05_O7
  10
197732.499
  20
4463441.000
  0
VERTEX
  8
LC_OH_2021_05_O7
  10
197738.499
  20
4463441.500
  0
VERTEX
  8
LC_OH_2021_05_O7
  10
198989.999
  20
4463542.500
  0
VERTEX
  8
LC_OH_2021_05_O7
  10
199714.499
  20
4463094.000
  0
VERTEX
  8
LC_OH_2021_05_O7
  10
199647.350
  20
4461350.000
  0
VERTEX
  8
LC_OH_2021_05_O7
  10
196512.798
  20
4461350.000
  0
SEQEND
  8
LC_OH_2021_05_O7
  0
INSERT
  8
FeatureAttribs
  2
FEATURE
  41
1
  42
1
  43
1
  50
0
  10
182856.824
  20
4463107.000
 66
1
  0
ATTRIB
  8
FeatureAttribs
 70
0
  1
PNOA-H_AMS_1956-57_33k_ES_PAN_21mic_H50_0573_fot_73A-11128_W.tif
  2
NAME
  10
182856.824
  20
4463107.000
 40
35.15805
  0
SEQEND
  0
POLYLINE
  8
LC_OH_2021_05_O7
  70
1
  66
1
  0
VERTEX
  8
LC_OH_2021_05_O7
  10
184308.535
  20
4461930.000
  0
VERTEX
  8
LC_OH_2021_05_O7
  10
181328.305
  20
4461930.000
  0
VERTEX
  8
LC_OH_2021_05_O7
  10
181358.998
  20
4462739.500
  0
VERTEX
  8
LC_OH_2021_05_O7
  10
181358.998
  20
4462753.000
  0
VERTEX
  8
LC_OH_2021_05_O7
  10
181399.998
  20
4463827.000
  0
VERTEX
  8
LC_OH_2021_05_O7
  10
182746.498
  20
4464284.000
  0
VERTEX
  8
LC_OH_2021_05_O7
  10
184358.498
  20
4463734.500
  0
VERTEX
  8
LC_OH_2021_05_O7
  10
184308.535
  20
4461930.000
  0
SEQEND
  8
LC_OH_2021_05_O7
  0
INSERT
  8
FeatureAttribs
  2
FEATURE
  41
1
  42
1
  43
1
  50
0
  10
188937.662
  20
4462846.001
 66
1
  0
ATTRIB
  8
FeatureAttribs
 70
0
  1
PNOA-H_AMS_1956-57_33k_ES_PAN_21mic_H50_0573_fot_73A-11126_W.tif
  2
NAME
  10
188937.662
  20
4462846.001
 40
35.15805
  0
SEQEND
  0
POLYLINE
  8
LC_OH_2021_05_O7
  70
1
  66
1
  0
VERTEX
  8
LC_OH_2021_05_O7
  10
190422.698
  20
4461630.000
  0
VERTEX
  8
LC_OH_2021_05_O7
  10
187363.120
  20
4461630.000
  0
VERTEX
  8
LC_OH_2021_05_O7
  10
187435.999
  20
4463690.000
  0
VERTEX
  8
LC_OH_2021_05_O7
  10
188295.999
  20
4464062.000
  0
VERTEX
  8
LC_OH_2021_05_O7
  10
189548.999
  20
4463821.000
  0
VERTEX
  8
LC_OH_2021_05_O7
  10
189551.499
  20
4463820.500
  0
VERTEX
  8
LC_OH_2021_05_O7
  10
190499.499
  20
4463638.500
  0
VERTEX
  8
LC_OH_2021_05_O7
  10
190422.698
  20
4461630.000
  0
SEQEND
  8
LC_OH_2021_05_O7
  0
INSERT
  8
FeatureAttribs
  2
FEATURE
  41
1
  42
1
  43
1
  50
0
  10
179914.333
  20
4463125.250
 66
1
  0
ATTRIB
  8
FeatureAttribs
 70
0
  1
PNOA-H_AMS_1956-57_33k_ES_PAN_21mic_H50_0573_fot_73A-11129_W.tif
  2
NAME
  10
179914.333
  20
4463125.250
 40
35.15805
  0
SEQEND
  0
POLYLINE
  8
LC_OH_2021_05_O7
  70
1
  66
1
  0
VERTEX
  8
LC_OH_2021_05_O7
  10
181328.177
  20
4461930.000
  0
VERTEX
  8
LC_OH_2021_05_O7
  10
179159.998
  20
4461930.000
  0
VERTEX
  8
LC_OH_2021_05_O7
  10
179159.998
  20
4462230.000
  0
VERTEX
  8
LC_OH_2021_05_O7
  10
178426.518
  20
4462230.000
  0
VERTEX
  8
LC_OH_2021_05_O7
  10
178478.498
  20
4463851.500
  0
VERTEX
  8
LC_OH_2021_05_O7
  10
179309.498
  20
4464119.000
  0
VERTEX
  8
LC_OH_2021_05_O7
  10
179310.998
  20
4464119.500
  0
VERTEX
  8
LC_OH_2021_05_O7
  10
179925.998
  20
4464317.500
  0
VERTEX
  8
LC_OH_2021_05_O7
  10
179937.998
  20
4464320.500
  0
VERTEX
  8
LC_OH_2021_05_O7
  10
181399.998
  20
4463827.000
  0
VERTEX
  8
LC_OH_2021_05_O7
  10
181328.177
  20
4461930.000
  0
SEQEND
  8
LC_OH_2021_05_O7
  0
INSERT
  8
FeatureAttribs
  2
FEATURE
  41
1
  42
1
  43
1
  50
0
  10
174058.134
  20
4463354.749
 66
1
  0
ATTRIB
  8
FeatureAttribs
 70
0
  1
PNOA-H_AMS_1956-57_33k_ES_PAN_21mic_H50_0573_fot_73A-11131_W.tif
  2
NAME
  10
174058.134
  20
4463354.749
 40
35.15805
  0
SEQEND
  0
POLYLINE
  8
LC_OH_2021_05_O7
  70
1
  66
1
  0
VERTEX
  8
LC_OH_2021_05_O7
  10
172629.498
  20
4464060.000
  0
VERTEX
  8
LC_OH_2021_05_O7
  10
172629.998
  20
4464061.000
  0
VERTEX
  8
LC_OH_2021_05_O7
  10
172641.998
  20
4464064.000
  0
VERTEX
  8
LC_OH_2021_05_O7
  10
173163.498
  20
4464191.500
  0
VERTEX
  8
LC_OH_2021_05_O7
  10
173165.498
  20
4464192.000
  0
VERTEX
  8
LC_OH_2021_05_O7
  10
174342.498
  20
4464479.500
  0
VERTEX
  8
LC_OH_2021_05_O7
  10
175546.998
  20
4463933.000
  0
VERTEX
  8
LC_OH_2021_05_O7
  10
175467.702
  20
4462230.000
  0
VERTEX
  8
LC_OH_2021_05_O7
  10
172543.088
  20
4462230.000
  0
SEQEND
  8
LC_OH_2021_05_O7
  0
INSERT
  8
FeatureAttribs
  2
FEATURE
  41
1
  42
1
  43
1
  50
0
  10
200252.085
  20
4462305.985
 66
1
  0
ATTRIB
  8
FeatureAttribs
 70
0
  1
PNOA-H_AMS_1956-57_33k_ES_PAN_21mic_H50_0574_fot_73A-11122_W.tif
  2
NAME
  10
200252.085
  20
4462305.985
 40
35.15805
  0
SEQEND
  0
POLYLINE
  8
LC_OH_2021_05_O7
  70
1
  66
1
  0
VERTEX
  8
LC_OH_2021_05_O7
  10
200526.005
  20
4461350.000
  0
VERTEX
  8
LC_OH_2021_05_O7
  10
199647.358
  20
4461350.000
  0
VERTEX
  8
LC_OH_2021_05_O7
  10
199714.499
  20
4463094.000
  0
VERTEX
  8
LC_OH_2021_05_O7
  10
200600.705
  20
4463228.653
  0
VERTEX
  8
LC_OH_2021_05_O7
  10
200530.162
  20
4461454.593
  0
SEQEND
  8
LC_OH_2021_05_O7
  0
INSERT
  8
FeatureAttribs
  2
FEATURE
  41
1
  42
1
  43
1
  50
0
  10
173099.472
  20
4471703.617
 66
1
  0
ATTRIB
  8
FeatureAttribs
 70
0
  1
PNOA-H_AMS_1956-57_33k_ES_PAN_21mic_H50_0573_fot_71A-22085_W.tif
  2
NAME
  10
173099.472
  20
4471703.617
 40
35.15805
  0
SEQEND
  0
POLYLINE
  8
LC_OH_2021_05_O7
  70
1
  66
1
  0
VERTEX
  8
LC_OH_2021_05_O7
  10
173922.374
  20
4471830.158
  0
VERTEX
  8
LC_OH_2021_05_O7
  10
174093.498
  20
4468537.000
  0
VERTEX
  8
LC_OH_2021_05_O7
  10
172421.947
  20
4468393.030
  0
VERTEX
  8
LC_OH_2021_05_O7
  10
172473.467
  20
4469575.337
  0
VERTEX
  8
LC_OH_2021_05_O7
  10
172574.315
  20
4471888.620
  0
SEQEND
  8
LC_OH_2021_05_O7
  0
ENDSEC
  0
EOF
