  0
SECTION
  2
HEADER
  9
$ACADVER
  1
AC1009
  9
$LUNITS
  70
2
  9
$LIMMIN
  10
370813.067
  20
4465431.644
  9
$LIMMAX
  10
399377.403
  20
4484365.633
  9
$EXTMIN
  10
370813.067
  20
4465431.644
  9
$EXTMAX
  10
399377.403
  20
4484365.633
  999
Created by Global Mapper
  999
Projection: UTM
  999
Datum: ETRS89
  999
Ground Units: meters
  999
ZONE: 30
  0
ENDSEC
  0
SECTION
  2
TABLES
  0
ENDSEC
  0
SECTION
  2
BLOCKS
  0
BLOCK
  8
FeatureAttribs
  70
0
  2
FEATURE
  3
FEATURE
  10
0.00000000
  20
0.00000000
  0
ATTDEF
  8
FeatureAttribs
  70
0
  1
 
  2
NAME
  3
NAME
  10
0.00000000
  20
0.00000000
  40
1.00000000
  0
ENDBLK
  0
ENDSEC
  0
SECTION
  2
ENTITIES
  0
INSERT
  8
FeatureAttribs
  2
FEATURE
  41
1
  42
1
  43
1
  50
0
  10
371381.889
  20
4474316.674
 66
1
  0
ATTRIB
  8
FeatureAttribs
 70
0
  1
PNOA-H_AMS_1956-57_33k_ES_PAN_21mic_H50_0556_fot_000-46818_R.tif
  2
NAME
  10
371381.889
  20
4474316.674
 40
34.26977
  0
SEQEND
  0
POLYLINE
  8
LC_OH_2021_05_O7
  70
1
  66
1
  0
VERTEX
  8
LC_OH_2021_05_O7
  10
370983.523
  20
4475775.194
  0
VERTEX
  8
LC_OH_2021_05_O7
  10
371828.506
  20
4475497.500
  0
VERTEX
  8
LC_OH_2021_05_O7
  10
371830.347
  20
4474890.000
  0
VERTEX
  8
LC_OH_2021_05_O7
  10
371080.006
  20
4474890.000
  0
VERTEX
  8
LC_OH_2021_05_O7
  10
371080.006
  20
4472858.154
  0
VERTEX
  8
LC_OH_2021_05_O7
  10
370933.431
  20
4472864.793
  0
VERTEX
  8
LC_OH_2021_05_O7
  10
370972.160
  20
4475115.192
  0
SEQEND
  8
LC_OH_2021_05_O7
  0
INSERT
  8
FeatureAttribs
  2
FEATURE
  41
1
  42
1
  43
1
  50
0
  10
373221.280
  20
4475430.750
 66
1
  0
ATTRIB
  8
FeatureAttribs
 70
0
  1
PNOA-H_AMS_1956-57_33k_ES_PAN_21mic_H50_0557_fot_000-46817_R.tif
  2
NAME
  10
373221.280
  20
4475430.750
 40
34.26977
  0
SEQEND
  0
POLYLINE
  8
LC_OH_2021_05_O7
  70
1
  66
1
  0
VERTEX
  8
LC_OH_2021_05_O7
  10
372983.006
  20
4475971.500
  0
VERTEX
  8
LC_OH_2021_05_O7
  10
373870.506
  20
4475677.000
  0
VERTEX
  8
LC_OH_2021_05_O7
  10
373871.506
  20
4475677.000
  0
VERTEX
  8
LC_OH_2021_05_O7
  10
374688.506
  20
4475406.000
  0
VERTEX
  8
LC_OH_2021_05_O7
  10
374678.686
  20
4474890.000
  0
VERTEX
  8
LC_OH_2021_05_O7
  10
371830.237
  20
4474890.000
  0
VERTEX
  8
LC_OH_2021_05_O7
  10
371828.506
  20
4475497.500
  0
SEQEND
  8
LC_OH_2021_05_O7
  0
INSERT
  8
FeatureAttribs
  2
FEATURE
  41
1
  42
1
  43
1
  50
0
  10
381979.514
  20
4475272.000
 66
1
  0
ATTRIB
  8
FeatureAttribs
 70
0
  1
PNOA-H_AMS_1956-57_33k_ES_PAN_21mic_H50_0557_fot_000-46814_R.tif
  2
NAME
  10
381979.514
  20
4475272.000
 40
34.26977
  0
SEQEND
  0
POLYLINE
  8
LC_OH_2021_05_O7
  70
1
  66
1
  0
VERTEX
  8
LC_OH_2021_05_O7
  10
383438.856
  20
4474780.000
  0
VERTEX
  8
LC_OH_2021_05_O7
  10
380548.336
  20
4474780.000
  0
VERTEX
  8
LC_OH_2021_05_O7
  10
380587.507
  20
4475278.500
  0
VERTEX
  8
LC_OH_2021_05_O7
  10
381737.507
  20
4475763.500
  0
VERTEX
  8
LC_OH_2021_05_O7
  10
381738.507
  20
4475764.000
  0
VERTEX
  8
LC_OH_2021_05_O7
  10
381759.507
  20
4475758.500
  0
VERTEX
  8
LC_OH_2021_05_O7
  10
383466.507
  20
4475243.500
  0
VERTEX
  8
LC_OH_2021_05_O7
  10
383438.856
  20
4474780.000
  0
SEQEND
  8
LC_OH_2021_05_O7
  0
INSERT
  8
FeatureAttribs
  2
FEATURE
  41
1
  42
1
  43
1
  50
0
  10
376085.489
  20
4475416.250
 66
1
  0
ATTRIB
  8
FeatureAttribs
 70
0
  1
PNOA-H_AMS_1956-57_33k_ES_PAN_21mic_H50_0557_fot_000-46816_R.tif
  2
NAME
  10
376085.489
  20
4475416.250
 40
34.26977
  0
SEQEND
  0
POLYLINE
  8
LC_OH_2021_05_O7
  70
1
  66
1
  0
VERTEX
  8
LC_OH_2021_05_O7
  10
377578.599
  20
4474890.000
  0
VERTEX
  8
LC_OH_2021_05_O7
  10
374678.681
  20
4474890.000
  0
VERTEX
  8
LC_OH_2021_05_O7
  10
374688.506
  20
4475406.500
  0
VERTEX
  8
LC_OH_2021_05_O7
  10
375825.506
  20
4475941.500
  0
VERTEX
  8
LC_OH_2021_05_O7
  10
375829.506
  20
4475942.500
  0
VERTEX
  8
LC_OH_2021_05_O7
  10
375918.006
  20
4475913.500
  0
VERTEX
  8
LC_OH_2021_05_O7
  10
375919.506
  20
4475913.000
  0
VERTEX
  8
LC_OH_2021_05_O7
  10
377594.507
  20
4475373.500
  0
VERTEX
  8
LC_OH_2021_05_O7
  10
377578.599
  20
4474890.000
  0
SEQEND
  8
LC_OH_2021_05_O7
  0
INSERT
  8
FeatureAttribs
  2
FEATURE
  41
1
  42
1
  43
1
  50
0
  10
378995.876
  20
4475344.750
 66
1
  0
ATTRIB
  8
FeatureAttribs
 70
0
  1
PNOA-H_AMS_1956-57_33k_ES_PAN_21mic_H50_0557_fot_000-46815_R.tif
  2
NAME
  10
378995.876
  20
4475344.750
 40
34.26977
  0
SEQEND
  0
POLYLINE
  8
LC_OH_2021_05_O7
  70
1
  66
1
  0
VERTEX
  8
LC_OH_2021_05_O7
  10
380548.273
  20
4474780.000
  0
VERTEX
  8
LC_OH_2021_05_O7
  10
377940.007
  20
4474780.000
  0
VERTEX
  8
LC_OH_2021_05_O7
  10
377940.007
  20
4474890.000
  0
VERTEX
  8
LC_OH_2021_05_O7
  10
377578.602
  20
4474890.000
  0
VERTEX
  8
LC_OH_2021_05_O7
  10
377594.507
  20
4475373.500
  0
VERTEX
  8
LC_OH_2021_05_O7
  10
377965.507
  20
4475541.000
  0
VERTEX
  8
LC_OH_2021_05_O7
  10
377966.507
  20
4475541.500
  0
VERTEX
  8
LC_OH_2021_05_O7
  10
378781.507
  20
4475909.000
  0
VERTEX
  8
LC_OH_2021_05_O7
  10
378784.507
  20
4475909.500
  0
VERTEX
  8
LC_OH_2021_05_O7
  10
380587.507
  20
4475278.500
  0
VERTEX
  8
LC_OH_2021_05_O7
  10
380548.273
  20
4474780.000
  0
SEQEND
  8
LC_OH_2021_05_O7
  0
INSERT
  8
FeatureAttribs
  2
FEATURE
  41
1
  42
1
  43
1
  50
0
  10
384378.175
  20
4475240.999
 66
1
  0
ATTRIB
  8
FeatureAttribs
 70
0
  1
PNOA-H_AMS_1956-57_33k_ES_PAN_21mic_H50_0557_fot_000-46813_R.tif
  2
NAME
  10
384378.175
  20
4475240.999
 40
34.26977
  0
SEQEND
  0
POLYLINE
  8
LC_OH_2021_05_O7
  70
1
  66
1
  0
VERTEX
  8
LC_OH_2021_05_O7
  10
385290.008
  20
4475512.009
  0
VERTEX
  8
LC_OH_2021_05_O7
  10
385290.008
  20
4474780.000
  0
VERTEX
  8
LC_OH_2021_05_O7
  10
383438.916
  20
4474780.000
  0
VERTEX
  8
LC_OH_2021_05_O7
  10
383466.507
  20
4475243.500
  0
VERTEX
  8
LC_OH_2021_05_O7
  10
384109.507
  20
4475492.000
  0
VERTEX
  8
LC_OH_2021_05_O7
  10
384110.507
  20
4475492.500
  0
VERTEX
  8
LC_OH_2021_05_O7
  10
384650.007
  20
4475701.000
  0
VERTEX
  8
LC_OH_2021_05_O7
  10
384655.507
  20
4475702.000
  0
VERTEX
  8
LC_OH_2021_05_O7
  10
385290.008
  20
4475512.009
  0
SEQEND
  8
LC_OH_2021_05_O7
  0
INSERT
  8
FeatureAttribs
  2
FEATURE
  41
1
  42
1
  43
1
  50
0
  10
370838.331
  20
4466840.550
 66
1
  0
ATTRIB
  8
FeatureAttribs
 70
0
  1
PNOA-H_AMS_1956-57_33k_ES_PAN_21mic_H50_0556_fot_70A-46772_E.tif
  2
NAME
  10
370838.331
  20
4466840.550
 40
34.26977
  0
SEQEND
  0
POLYLINE
  8
LC_OH_2021_05_O7
  70
1
  66
1
  0
VERTEX
  8
LC_OH_2021_05_O7
  10
370834.516
  20
4467112.816
  0
VERTEX
  8
LC_OH_2021_05_O7
  10
370851.506
  20
4466588.000
  0
VERTEX
  8
LC_OH_2021_05_O7
  10
370825.157
  20
4466568.284
  0
SEQEND
  8
LC_OH_2021_05_O7
  0
INSERT
  8
FeatureAttribs
  2
FEATURE
  41
1
  42
1
  43
1
  50
0
  10
370900.021
  20
4468177.952
 66
1
  0
ATTRIB
  8
FeatureAttribs
 70
0
  1
PNOA-H_AMS_1956-57_33k_ES_PAN_21mic_H50_0557_fot_000-46773_R.tif
  2
NAME
  10
370900.021
  20
4468177.952
 40
34.26977
  0
SEQEND
  0
POLYLINE
  8
LC_OH_2021_05_O7
  70
1
  66
1
  0
VERTEX
  8
LC_OH_2021_05_O7
  10
370879.622
  20
4469736.471
  0
VERTEX
  8
LC_OH_2021_05_O7
  10
371000.006
  20
4469792.353
  0
VERTEX
  8
LC_OH_2021_05_O7
  10
371000.006
  20
4466563.550
  0
VERTEX
  8
LC_OH_2021_05_O7
  10
370851.506
  20
4466588.000
  0
VERTEX
  8
LC_OH_2021_05_O7
  10
370834.516
  20
4467112.816
  0
VERTEX
  8
LC_OH_2021_05_O7
  10
370852.814
  20
4468177.443
  0
SEQEND
  8
LC_OH_2021_05_O7
  0
INSERT
  8
FeatureAttribs
  2
FEATURE
  41
1
  42
1
  43
1
  50
0
  10
371529.134
  20
4482787.239
 66
1
  0
ATTRIB
  8
FeatureAttribs
 70
0
  1
PNOA-H_AMS_1956-57_33k_ES_PAN_21mic_H50_0556_fot_000-18374_R.tif
  2
NAME
  10
371529.134
  20
4482787.239
 40
34.26977
  0
SEQEND
  0
POLYLINE
  8
LC_OH_2021_05_O7
  70
1
  66
1
  0
VERTEX
  8
LC_OH_2021_05_O7
  10
371116.372
  20
4483486.535
  0
VERTEX
  8
LC_OH_2021_05_O7
  10
371822.006
  20
4483362.000
  0
VERTEX
  8
LC_OH_2021_05_O7
  10
371823.506
  20
4483362.000
  0
VERTEX
  8
LC_OH_2021_05_O7
  10
371964.006
  20
4483337.500
  0
VERTEX
  8
LC_OH_2021_05_O7
  10
371966.006
  20
4483337.000
  0
VERTEX
  8
LC_OH_2021_05_O7
  10
371965.506
  20
4483335.500
  0
VERTEX
  8
LC_OH_2021_05_O7
  10
371092.262
  20
4482087.942
  0
SEQEND
  8
LC_OH_2021_05_O7
  0
INSERT
  8
FeatureAttribs
  2
FEATURE
  41
1
  42
1
  43
1
  50
0
  10
380246.604
  20
4477702.000
 66
1
  0
ATTRIB
  8
FeatureAttribs
 70
0
  1
PNOA-H_AMS_1956-57_33k_ES_PAN_21mic_H50_0557_fot_000-27827_R.tif
  2
NAME
  10
380246.604
  20
4477702.000
 40
34.26977
  0
SEQEND
  0
POLYLINE
  8
LC_OH_2021_05_O7
  70
1
  66
1
  0
VERTEX
  8
LC_OH_2021_05_O7
  10
379086.007
  20
4480124.500
  0
VERTEX
  8
LC_OH_2021_05_O7
  10
379086.507
  20
4480125.500
  0
VERTEX
  8
LC_OH_2021_05_O7
  10
381680.507
  20
4480011.500
  0
VERTEX
  8
LC_OH_2021_05_O7
  10
381739.507
  20
4475764.000
  0
VERTEX
  8
LC_OH_2021_05_O7
  10
380596.007
  20
4475281.500
  0
VERTEX
  8
LC_OH_2021_05_O7
  10
380586.007
  20
4475278.500
  0
VERTEX
  8
LC_OH_2021_05_O7
  10
378783.507
  20
4475909.500
  0
VERTEX
  8
LC_OH_2021_05_O7
  10
378777.007
  20
4479958.000
  0
VERTEX
  8
LC_OH_2021_05_O7
  10
379086.007
  20
4480124.500
  0
SEQEND
  8
LC_OH_2021_05_O7
  0
INSERT
  8
FeatureAttribs
  2
FEATURE
  41
1
  42
1
  43
1
  50
0
  10
384940.316
  20
4477896.529
 66
1
  0
ATTRIB
  8
FeatureAttribs
 70
0
  1
PNOA-H_AMS_1956-57_33k_ES_PAN_21mic_H50_0557_fot_000-27825_R.tif
  2
NAME
  10
384940.316
  20
4477896.529
 40
34.26977
  0
SEQEND
  0
POLYLINE
  8
LC_OH_2021_05_O7
  70
1
  66
1
  0
VERTEX
  8
LC_OH_2021_05_O7
  10
385360.008
  20
4480250.829
  0
VERTEX
  8
LC_OH_2021_05_O7
  10
385360.008
  20
4479410.000
  0
VERTEX
  8
LC_OH_2021_05_O7
  10
385290.008
  20
4479410.000
  0
VERTEX
  8
LC_OH_2021_05_O7
  10
385290.008
  20
4475511.560
  0
VERTEX
  8
LC_OH_2021_05_O7
  10
384654.007
  20
4475702.000
  0
VERTEX
  8
LC_OH_2021_05_O7
  10
384529.507
  20
4480011.500
  0
VERTEX
  8
LC_OH_2021_05_O7
  10
385095.007
  20
4480281.000
  0
VERTEX
  8
LC_OH_2021_05_O7
  10
385096.007
  20
4480281.500
  0
VERTEX
  8
LC_OH_2021_05_O7
  10
385360.008
  20
4480250.829
  0
SEQEND
  8
LC_OH_2021_05_O7
  0
INSERT
  8
FeatureAttribs
  2
FEATURE
  41
1
  42
1
  43
1
  50
0
  10
374443.556
  20
4477684.000
 66
1
  0
ATTRIB
  8
FeatureAttribs
 70
0
  1
PNOA-H_AMS_1956-57_33k_ES_PAN_21mic_H50_0557_fot_000-27829_R.tif
  2
NAME
  10
374443.556
  20
4477684.000
 40
34.26977
  0
SEQEND
  0
POLYLINE
  8
LC_OH_2021_05_O7
  70
1
  66
1
  0
VERTEX
  8
LC_OH_2021_05_O7
  10
373123.506
  20
4479920.500
  0
VERTEX
  8
LC_OH_2021_05_O7
  10
373456.506
  20
4479962.000
  0
VERTEX
  8
LC_OH_2021_05_O7
  10
375862.006
  20
4479916.000
  0
VERTEX
  8
LC_OH_2021_05_O7
  10
375828.506
  20
4475942.500
  0
VERTEX
  8
LC_OH_2021_05_O7
  10
375063.506
  20
4475582.500
  0
VERTEX
  8
LC_OH_2021_05_O7
  10
375062.506
  20
4475582.500
  0
VERTEX
  8
LC_OH_2021_05_O7
  10
374688.006
  20
4475406.000
  0
VERTEX
  8
LC_OH_2021_05_O7
  10
372983.006
  20
4475971.500
  0
VERTEX
  8
LC_OH_2021_05_O7
  10
373123.506
  20
4479920.500
  0
SEQEND
  8
LC_OH_2021_05_O7
  0
INSERT
  8
FeatureAttribs
  2
FEATURE
  41
1
  42
1
  43
1
  50
0
  10
371668.270
  20
4477745.750
 66
1
  0
ATTRIB
  8
FeatureAttribs
 70
0
  1
PNOA-H_AMS_1956-57_33k_ES_PAN_21mic_H50_0557_fot_000-27830_R.tif
  2
NAME
  10
371668.270
  20
4477745.750
 40
34.26977
  0
SEQEND
  0
POLYLINE
  8
LC_OH_2021_05_O7
  70
1
  66
1
  0
VERTEX
  8
LC_OH_2021_05_O7
  10
371054.835
  20
4479915.982
  0
VERTEX
  8
LC_OH_2021_05_O7
  10
371805.506
  20
4479947.000
  0
VERTEX
  8
LC_OH_2021_05_O7
  10
371817.506
  20
4479947.500
  0
VERTEX
  8
LC_OH_2021_05_O7
  10
372949.506
  20
4479994.000
  0
VERTEX
  8
LC_OH_2021_05_O7
  10
373123.506
  20
4479921.000
  0
VERTEX
  8
LC_OH_2021_05_O7
  10
372983.006
  20
4475971.000
  0
VERTEX
  8
LC_OH_2021_05_O7
  10
371829.506
  20
4475497.500
  0
VERTEX
  8
LC_OH_2021_05_O7
  10
370983.523
  20
4475775.175
  0
VERTEX
  8
LC_OH_2021_05_O7
  10
371011.976
  20
4477427.791
  0
VERTEX
  8
LC_OH_2021_05_O7
  10
371051.809
  20
4479740.397
  0
SEQEND
  8
LC_OH_2021_05_O7
  0
INSERT
  8
FeatureAttribs
  2
FEATURE
  41
1
  42
1
  43
1
  50
0
  10
377312.063
  20
4477727.750
 66
1
  0
ATTRIB
  8
FeatureAttribs
 70
0
  1
PNOA-H_AMS_1956-57_33k_ES_PAN_21mic_H50_0557_fot_000-27828_R.tif
  2
NAME
  10
377312.063
  20
4477727.750
 40
34.26977
  0
SEQEND
  0
POLYLINE
  8
LC_OH_2021_05_O7
  70
1
  66
1
  0
VERTEX
  8
LC_OH_2021_05_O7
  10
375862.006
  20
4479916.000
  0
VERTEX
  8
LC_OH_2021_05_O7
  10
376152.506
  20
4480082.000
  0
VERTEX
  8
LC_OH_2021_05_O7
  10
378777.007
  20
4479958.000
  0
VERTEX
  8
LC_OH_2021_05_O7
  10
378783.507
  20
4475909.500
  0
VERTEX
  8
LC_OH_2021_05_O7
  10
378059.007
  20
4475582.500
  0
VERTEX
  8
LC_OH_2021_05_O7
  10
378057.507
  20
4475582.500
  0
VERTEX
  8
LC_OH_2021_05_O7
  10
377605.507
  20
4475378.000
  0
VERTEX
  8
LC_OH_2021_05_O7
  10
377593.507
  20
4475373.500
  0
VERTEX
  8
LC_OH_2021_05_O7
  10
375828.506
  20
4475942.500
  0
VERTEX
  8
LC_OH_2021_05_O7
  10
375862.006
  20
4479916.000
  0
SEQEND
  8
LC_OH_2021_05_O7
  0
INSERT
  8
FeatureAttribs
  2
FEATURE
  41
1
  42
1
  43
1
  50
0
  10
383153.699
  20
4477735.500
 66
1
  0
ATTRIB
  8
FeatureAttribs
 70
0
  1
PNOA-H_AMS_1956-57_33k_ES_PAN_21mic_H50_0557_fot_000-27826_R.tif
  2
NAME
  10
383153.699
  20
4477735.500
 40
34.26977
  0
SEQEND
  0
POLYLINE
  8
LC_OH_2021_05_O7
  70
1
  66
1
  0
VERTEX
  8
LC_OH_2021_05_O7
  10
382097.507
  20
4480227.500
  0
VERTEX
  8
LC_OH_2021_05_O7
  10
384529.507
  20
4480011.500
  0
VERTEX
  8
LC_OH_2021_05_O7
  10
384654.007
  20
4475702.000
  0
VERTEX
  8
LC_OH_2021_05_O7
  10
384345.007
  20
4475582.500
  0
VERTEX
  8
LC_OH_2021_05_O7
  10
384343.507
  20
4475582.500
  0
VERTEX
  8
LC_OH_2021_05_O7
  10
383479.507
  20
4475248.000
  0
VERTEX
  8
LC_OH_2021_05_O7
  10
383465.507
  20
4475243.500
  0
VERTEX
  8
LC_OH_2021_05_O7
  10
381739.507
  20
4475764.000
  0
VERTEX
  8
LC_OH_2021_05_O7
  10
381680.507
  20
4480011.500
  0
VERTEX
  8
LC_OH_2021_05_O7
  10
382097.507
  20
4480227.500
  0
SEQEND
  8
LC_OH_2021_05_O7
  0
INSERT
  8
FeatureAttribs
  2
FEATURE
  41
1
  42
1
  43
1
  50
0
  10
370906.536
  20
4466224.853
 66
1
  0
ATTRIB
  8
FeatureAttribs
 70
0
  1
PNOA-H_AMS_1956-57_33k_ES_PAN_21mic_H50_0580_fot_29380.tif
  2
NAME
  10
370906.536
  20
4466224.853
 40
34.26977
  0
SEQEND
  0
POLYLINE
  8
LC_OH_2021_05_O7
  70
1
  66
1
  0
VERTEX
  8
LC_OH_2021_05_O7
  10
371000.006
  20
4465861.707
  0
VERTEX
  8
LC_OH_2021_05_O7
  10
370813.067
  20
4465864.876
  0
VERTEX
  8
LC_OH_2021_05_O7
  10
370825.163
  20
4466568.663
  0
VERTEX
  8
LC_OH_2021_05_O7
  10
370851.006
  20
4466588.000
  0
VERTEX
  8
LC_OH_2021_05_O7
  10
371000.006
  20
4466563.448
  0
SEQEND
  8
LC_OH_2021_05_O7
  0
INSERT
  8
FeatureAttribs
  2
FEATURE
  41
1
  42
1
  43
1
  50
0
  10
373332.959
  20
4481848.750
 66
1
  0
ATTRIB
  8
FeatureAttribs
 70
0
  1
PNOA-H_AMS_1956-57_33k_ES_PAN_21mic_H50_0556_fot_000-18375_R.tif
  2
NAME
  10
373332.959
  20
4481848.750
 40
34.26977
  0
SEQEND
  0
POLYLINE
  8
LC_OH_2021_05_O7
  70
1
  66
1
  0
VERTEX
  8
LC_OH_2021_05_O7
  10
372847.506
  20
4483777.000
  0
VERTEX
  8
LC_OH_2021_05_O7
  10
374372.506
  20
4483394.000
  0
VERTEX
  8
LC_OH_2021_05_O7
  10
373928.506
  20
4481729.000
  0
VERTEX
  8
LC_OH_2021_05_O7
  10
373928.006
  20
4481726.500
  0
VERTEX
  8
LC_OH_2021_05_O7
  10
373458.006
  20
4479962.000
  0
VERTEX
  8
LC_OH_2021_05_O7
  10
373123.506
  20
4479920.500
  0
VERTEX
  8
LC_OH_2021_05_O7
  10
372949.006
  20
4479994.000
  0
VERTEX
  8
LC_OH_2021_05_O7
  10
372509.006
  20
4483345.000
  0
SEQEND
  8
LC_OH_2021_05_O7
  0
INSERT
  8
FeatureAttribs
  2
FEATURE
  41
1
  42
1
  43
1
  50
0
  10
371748.824
  20
4481616.001
 66
1
  0
ATTRIB
  8
FeatureAttribs
 70
0
  1
PNOA-H_AMS_1956-57_33k_ES_PAN_21mic_H50_0557_fot_000-11000_R.tif
  2
NAME
  10
371748.824
  20
4481616.001
 40
34.26977
  0
SEQEND
  0
POLYLINE
  8
LC_OH_2021_05_O7
  70
1
  66
1
  0
VERTEX
  8
LC_OH_2021_05_O7
  10
371092.271
  20
4482088.480
  0
VERTEX
  8
LC_OH_2021_05_O7
  10
371823.006
  20
4483132.000
  0
VERTEX
  8
LC_OH_2021_05_O7
  10
371823.006
  20
4483133.000
  0
VERTEX
  8
LC_OH_2021_05_O7
  10
371966.006
  20
4483337.000
  0
VERTEX
  8
LC_OH_2021_05_O7
  10
372509.506
  20
4483344.500
  0
VERTEX
  8
LC_OH_2021_05_O7
  10
372949.006
  20
4479994.000
  0
VERTEX
  8
LC_OH_2021_05_O7
  10
371054.834
  20
4479915.916
  0
VERTEX
  8
LC_OH_2021_05_O7
  10
371091.659
  20
4482053.011
  0
SEQEND
  8
LC_OH_2021_05_O7
  0
INSERT
  8
FeatureAttribs
  2
FEATURE
  41
1
  42
1
  43
1
  50
0
  10
374993.862
  20
4481756.501
 66
1
  0
ATTRIB
  8
FeatureAttribs
 70
0
  1
PNOA-H_AMS_1956-57_33k_ES_PAN_21mic_H50_0557_fot_000-10999_R.tif
  2
NAME
  10
374993.862
  20
4481756.501
 40
34.26977
  0
SEQEND
  0
POLYLINE
  8
LC_OH_2021_05_O7
  70
1
  66
1
  0
VERTEX
  8
LC_OH_2021_05_O7
  10
374372.006
  20
4483393.500
  0
VERTEX
  8
LC_OH_2021_05_O7
  10
375915.006
  20
4483594.000
  0
VERTEX
  8
LC_OH_2021_05_O7
  10
375919.006
  20
4483594.500
  0
VERTEX
  8
LC_OH_2021_05_O7
  10
375940.506
  20
4483597.000
  0
VERTEX
  8
LC_OH_2021_05_O7
  10
375941.006
  20
4483592.500
  0
VERTEX
  8
LC_OH_2021_05_O7
  10
376153.006
  20
4480082.000
  0
VERTEX
  8
LC_OH_2021_05_O7
  10
375862.506
  20
4479916.000
  0
VERTEX
  8
LC_OH_2021_05_O7
  10
373467.506
  20
4479961.500
  0
VERTEX
  8
LC_OH_2021_05_O7
  10
373458.006
  20
4479962.000
  0
VERTEX
  8
LC_OH_2021_05_O7
  10
373458.006
  20
4479963.000
  0
SEQEND
  8
LC_OH_2021_05_O7
  0
INSERT
  8
FeatureAttribs
  2
FEATURE
  41
1
  42
1
  43
1
  50
0
  10
377505.505
  20
4482653.749
 66
1
  0
ATTRIB
  8
FeatureAttribs
 70
0
  1
PNOA-H_AMS_1956-57_33k_ES_PAN_21mic_H50_0557_fot_000-10998_R.tif
  2
NAME
  10
377505.505
  20
4482653.749
 40
34.26977
  0
SEQEND
  0
POLYLINE
  8
LC_OH_2021_05_O7
  70
1
  66
1
  0
VERTEX
  8
LC_OH_2021_05_O7
  10
378967.642
  20
4484234.770
  0
VERTEX
  8
LC_OH_2021_05_O7
  10
379087.007
  20
4480125.500
  0
VERTEX
  8
LC_OH_2021_05_O7
  10
378777.507
  20
4479958.000
  0
VERTEX
  8
LC_OH_2021_05_O7
  10
376158.006
  20
4480081.500
  0
VERTEX
  8
LC_OH_2021_05_O7
  10
376153.006
  20
4480082.000
  0
VERTEX
  8
LC_OH_2021_05_O7
  10
376152.506
  20
4480084.500
  0
VERTEX
  8
LC_OH_2021_05_O7
  10
375940.506
  20
4483597.500
  0
VERTEX
  8
LC_OH_2021_05_O7
  10
376318.525
  20
4484278.204
  0
VERTEX
  8
LC_OH_2021_05_O7
  10
378193.055
  20
4484247.211
  0
SEQEND
  8
LC_OH_2021_05_O7
  0
INSERT
  8
FeatureAttribs
  2
FEATURE
  41
1
  42
1
  43
1
  50
0
  10
385243.277
  20
4482845.807
 66
1
  0
ATTRIB
  8
FeatureAttribs
 70
0
  1
PNOA-H_AMS_1956-57_33k_ES_PAN_21mic_H50_0557_fot_000-10995_R.tif
  2
NAME
  10
385243.277
  20
4482845.807
 40
34.26977
  0
SEQEND
  0
POLYLINE
  8
LC_OH_2021_05_O7
  70
1
  66
1
  0
VERTEX
  8
LC_OH_2021_05_O7
  10
385430.008
  20
4484132.811
  0
VERTEX
  8
LC_OH_2021_05_O7
  10
385430.008
  20
4484030.000
  0
VERTEX
  8
LC_OH_2021_05_O7
  10
385360.008
  20
4484030.000
  0
VERTEX
  8
LC_OH_2021_05_O7
  10
385360.008
  20
4480250.849
  0
VERTEX
  8
LC_OH_2021_05_O7
  10
385096.507
  20
4480281.500
  0
VERTEX
  8
LC_OH_2021_05_O7
  10
385141.622
  20
4484137.223
  0
VERTEX
  8
LC_OH_2021_05_O7
  10
385254.542
  20
4484135.463
  0
SEQEND
  8
LC_OH_2021_05_O7
  0
INSERT
  8
FeatureAttribs
  2
FEATURE
  41
1
  42
1
  43
1
  50
0
  10
380534.441
  20
4482738.499
 66
1
  0
ATTRIB
  8
FeatureAttribs
 70
0
  1
PNOA-H_AMS_1956-57_33k_ES_PAN_21mic_H50_0557_fot_000-10997_R.tif
  2
NAME
  10
380534.441
  20
4482738.499
 40
34.26977
  0
SEQEND
  0
POLYLINE
  8
LC_OH_2021_05_O7
  70
1
  66
1
  0
VERTEX
  8
LC_OH_2021_05_O7
  10
382034.988
  20
4484185.651
  0
VERTEX
  8
LC_OH_2021_05_O7
  10
382098.007
  20
4480227.500
  0
VERTEX
  8
LC_OH_2021_05_O7
  10
381681.007
  20
4480011.500
  0
VERTEX
  8
LC_OH_2021_05_O7
  10
379087.007
  20
4480125.500
  0
VERTEX
  8
LC_OH_2021_05_O7
  10
378967.233
  20
4484234.776
  0
VERTEX
  8
LC_OH_2021_05_O7
  10
381723.803
  20
4484190.502
  0
SEQEND
  8
LC_OH_2021_05_O7
  0
INSERT
  8
FeatureAttribs
  2
FEATURE
  41
1
  42
1
  43
1
  50
0
  10
383591.545
  20
4482786.999
 66
1
  0
ATTRIB
  8
FeatureAttribs
 70
0
  1
PNOA-H_AMS_1956-57_33k_ES_PAN_21mic_H50_0557_fot_000-10996_R.tif
  2
NAME
  10
383591.545
  20
4482786.999
 40
34.26977
  0
SEQEND
  0
POLYLINE
  8
LC_OH_2021_05_O7
  70
1
  66
1
  0
VERTEX
  8
LC_OH_2021_05_O7
  10
385141.626
  20
4484137.223
  0
VERTEX
  8
LC_OH_2021_05_O7
  10
385096.507
  20
4480281.500
  0
VERTEX
  8
LC_OH_2021_05_O7
  10
384530.007
  20
4480011.500
  0
VERTEX
  8
LC_OH_2021_05_O7
  10
382098.007
  20
4480227.500
  0
VERTEX
  8
LC_OH_2021_05_O7
  10
382034.956
  20
4484185.652
  0
SEQEND
  8
LC_OH_2021_05_O7
  0
INSERT
  8
FeatureAttribs
  2
FEATURE
  41
1
  42
1
  43
1
  50
0
  10
370979.812
  20
4471300.510
 66
1
  0
ATTRIB
  8
FeatureAttribs
 70
0
  1
PNOA-H_AMS_1956-57_33k_ES_PAN_21mic_H50_0556_fot_000-52051_R.tif
  2
NAME
  10
370979.812
  20
4471300.510
 40
34.26977
  0
SEQEND
  0
POLYLINE
  8
LC_OH_2021_05_O7
  70
1
  66
1
  0
VERTEX
  8
LC_OH_2021_05_O7
  10
370933.431
  20
4472864.793
  0
VERTEX
  8
LC_OH_2021_05_O7
  10
371080.006
  20
4472858.154
  0
VERTEX
  8
LC_OH_2021_05_O7
  10
371080.006
  20
4470390.000
  0
VERTEX
  8
LC_OH_2021_05_O7
  10
371000.006
  20
4470390.000
  0
VERTEX
  8
LC_OH_2021_05_O7
  10
371000.006
  20
4469792.100
  0
VERTEX
  8
LC_OH_2021_05_O7
  10
370879.618
  20
4469736.226
  0
VERTEX
  8
LC_OH_2021_05_O7
  10
370892.579
  20
4470490.018
  0
VERTEX
  8
LC_OH_2021_05_O7
  10
370932.361
  20
4472802.601
  0
SEQEND
  8
LC_OH_2021_05_O7
  0
INSERT
  8
FeatureAttribs
  2
FEATURE
  41
1
  42
1
  43
1
  50
0
  10
371981.940
  20
4483851.316
 66
1
  0
ATTRIB
  8
FeatureAttribs
 70
0
  1
PNOA-H_AMS_1956-57_33k_ES_PAN_21mic_H50_0531_fot_000-51058_R.tif
  2
NAME
  10
371981.940
  20
4483851.316
 40
34.26977
  0
SEQEND
  0
POLYLINE
  8
LC_OH_2021_05_O7
  70
1
  66
1
  0
VERTEX
  8
LC_OH_2021_05_O7
  10
372844.099
  20
4484336.508
  0
VERTEX
  8
LC_OH_2021_05_O7
  10
372847.506
  20
4483776.500
  0
VERTEX
  8
LC_OH_2021_05_O7
  10
372509.006
  20
4483344.500
  0
VERTEX
  8
LC_OH_2021_05_O7
  10
371964.006
  20
4483337.000
  0
VERTEX
  8
LC_OH_2021_05_O7
  10
371116.373
  20
4483486.608
  0
VERTEX
  8
LC_OH_2021_05_O7
  10
371131.527
  20
4484365.633
  0
SEQEND
  8
LC_OH_2021_05_O7
  0
INSERT
  8
FeatureAttribs
  2
FEATURE
  41
1
  42
1
  43
1
  50
0
  10
374581.480
  20
4483865.254
 66
1
  0
ATTRIB
  8
FeatureAttribs
 70
0
  1
PNOA-H_AMS_1956-57_33k_ES_PAN_21mic_H50_0531_fot_000-51059_R.tif
  2
NAME
  10
374581.480
  20
4483865.254
 40
34.26977
  0
SEQEND
  0
POLYLINE
  8
LC_OH_2021_05_O7
  70
1
  66
1
  0
VERTEX
  8
LC_OH_2021_05_O7
  10
376318.859
  20
4484278.198
  0
VERTEX
  8
LC_OH_2021_05_O7
  10
375942.506
  20
4483600.000
  0
VERTEX
  8
LC_OH_2021_05_O7
  10
375940.506
  20
4483597.000
  0
VERTEX
  8
LC_OH_2021_05_O7
  10
375938.006
  20
4483596.500
  0
VERTEX
  8
LC_OH_2021_05_O7
  10
374371.006
  20
4483394.000
  0
VERTEX
  8
LC_OH_2021_05_O7
  10
372847.506
  20
4483777.000
  0
VERTEX
  8
LC_OH_2021_05_O7
  10
372844.101
  20
4484336.508
  0
VERTEX
  8
LC_OH_2021_05_O7
  10
374662.296
  20
4484305.587
  0
SEQEND
  8
LC_OH_2021_05_O7
  0
ENDSEC
  0
EOF
