  0
SECTION
  2
HEADER
  9
$ACADVER
  1
AC1009
  9
$LUNITS
  70
2
  9
$LIMMIN
  10
342496.645
  20
4465864.876
  9
$LIMMAX
  10
371131.527
  20
4484906.088
  9
$EXTMIN
  10
342496.645
  20
4465864.876
  9
$EXTMAX
  10
371131.527
  20
4484906.088
  999
Created by Global Mapper
  999
Projection: UTM
  999
Datum: ETRS89
  999
Ground Units: meters
  999
ZONE: 30
  0
ENDSEC
  0
SECTION
  2
TABLES
  0
ENDSEC
  0
SECTION
  2
BLOCKS
  0
BLOCK
  8
FeatureAttribs
  70
0
  2
FEATURE
  3
FEATURE
  10
0.00000000
  20
0.00000000
  0
ATTDEF
  8
FeatureAttribs
  70
0
  1
 
  2
NAME
  3
NAME
  10
0.00000000
  20
0.00000000
  40
1.00000000
  0
ENDBLK
  0
ENDSEC
  0
SECTION
  2
ENTITIES
  0
INSERT
  8
FeatureAttribs
  2
FEATURE
  41
1
  42
1
  43
1
  50
0
  10
344088.035
  20
4466599.500
 66
1
  0
ATTRIB
  8
FeatureAttribs
 70
0
  1
PNOA-H_AMS_1956-57_33k_ES_PAN_21mic_H50_0579_fot_71B-22018_W.tif
  2
NAME
  10
344088.035
  20
4466599.500
 40
34.38785
  0
SEQEND
  0
POLYLINE
  8
LC_OH_2021_05_O7
  70
1
  66
1
  0
VERTEX
  8
LC_OH_2021_05_O7
  10
344369.751
  20
4466366.014
  0
VERTEX
  8
LC_OH_2021_05_O7
  10
343819.572
  20
4466377.412
  0
VERTEX
  8
LC_OH_2021_05_O7
  10
343950.003
  20
4467049.000
  0
VERTEX
  8
LC_OH_2021_05_O7
  10
344218.003
  20
4466994.500
  0
SEQEND
  8
LC_OH_2021_05_O7
  0
INSERT
  8
FeatureAttribs
  2
FEATURE
  41
1
  42
1
  43
1
  50
0
  10
343265.050
  20
4475807.849
 66
1
  0
ATTRIB
  8
FeatureAttribs
 70
0
  1
PNOA-H_AMS_1956-57_33k_ES_PAN_21mic_H50_0555_fot_69C-46828_W.tif
  2
NAME
  10
343265.050
  20
4475807.849
 40
34.38785
  0
SEQEND
  0
POLYLINE
  8
LC_OH_2021_05_O7
  70
1
  66
1
  0
VERTEX
  8
LC_OH_2021_05_O7
  10
342725.604
  20
4477321.120
  0
VERTEX
  8
LC_OH_2021_05_O7
  10
342983.003
  20
4477367.500
  0
VERTEX
  8
LC_OH_2021_05_O7
  10
342986.003
  20
4477368.000
  0
VERTEX
  8
LC_OH_2021_05_O7
  10
343869.003
  20
4476926.000
  0
VERTEX
  8
LC_OH_2021_05_O7
  10
343867.503
  20
4475272.000
  0
VERTEX
  8
LC_OH_2021_05_O7
  10
342661.096
  20
4474247.699
  0
VERTEX
  8
LC_OH_2021_05_O7
  10
342690.636
  20
4475655.394
  0
SEQEND
  8
LC_OH_2021_05_O7
  0
INSERT
  8
FeatureAttribs
  2
FEATURE
  41
1
  42
1
  43
1
  50
0
  10
367725.732
  20
4474469.001
 66
1
  0
ATTRIB
  8
FeatureAttribs
 70
0
  1
PNOA-H_AMS_1956-57_33k_ES_PAN_21mic_H50_0556_fot_69C-46819_W.tif
  2
NAME
  10
367725.732
  20
4474469.001
 40
34.38785
  0
SEQEND
  0
POLYLINE
  8
LC_OH_2021_05_O7
  70
1
  66
1
  0
VERTEX
  8
LC_OH_2021_05_O7
  10
367727.505
  20
4475941.000
  0
VERTEX
  8
LC_OH_2021_05_O7
  10
369085.506
  20
4475549.500
  0
VERTEX
  8
LC_OH_2021_05_O7
  10
369140.506
  20
4472945.500
  0
VERTEX
  8
LC_OH_2021_05_O7
  10
369115.006
  20
4472912.000
  0
VERTEX
  8
LC_OH_2021_05_O7
  10
366456.505
  20
4472891.500
  0
VERTEX
  8
LC_OH_2021_05_O7
  10
366350.005
  20
4473070.500
  0
VERTEX
  8
LC_OH_2021_05_O7
  10
366337.505
  20
4475613.000
  0
VERTEX
  8
LC_OH_2021_05_O7
  10
367361.005
  20
4476046.500
  0
VERTEX
  8
LC_OH_2021_05_O7
  10
367725.005
  20
4475941.500
  0
VERTEX
  8
LC_OH_2021_05_O7
  10
367727.505
  20
4475941.000
  0
SEQEND
  8
LC_OH_2021_05_O7
  0
INSERT
  8
FeatureAttribs
  2
FEATURE
  41
1
  42
1
  43
1
  50
0
  10
362302.094
  20
4474694.500
 66
1
  0
ATTRIB
  8
FeatureAttribs
 70
0
  1
PNOA-H_AMS_1956-57_33k_ES_PAN_21mic_H50_0556_fot_69C-46821_W.tif
  2
NAME
  10
362302.094
  20
4474694.500
 40
34.38785
  0
SEQEND
  0
POLYLINE
  8
LC_OH_2021_05_O7
  70
1
  66
1
  0
VERTEX
  8
LC_OH_2021_05_O7
  10
361651.005
  20
4476230.000
  0
VERTEX
  8
LC_OH_2021_05_O7
  10
363602.005
  20
4475761.000
  0
VERTEX
  8
LC_OH_2021_05_O7
  10
363550.005
  20
4473159.000
  0
VERTEX
  8
LC_OH_2021_05_O7
  10
360922.505
  20
4473176.500
  0
VERTEX
  8
LC_OH_2021_05_O7
  10
361109.505
  20
4475987.000
  0
VERTEX
  8
LC_OH_2021_05_O7
  10
361650.005
  20
4476229.500
  0
VERTEX
  8
LC_OH_2021_05_O7
  10
361651.005
  20
4476230.000
  0
SEQEND
  8
LC_OH_2021_05_O7
  0
INSERT
  8
FeatureAttribs
  2
FEATURE
  41
1
  42
1
  43
1
  50
0
  10
345307.870
  20
4475624.001
 66
1
  0
ATTRIB
  8
FeatureAttribs
 70
0
  1
PNOA-H_AMS_1956-57_33k_ES_PAN_21mic_H50_0556_fot_69C-46827_W.tif
  2
NAME
  10
345307.870
  20
4475624.001
 40
34.38785
  0
SEQEND
  0
POLYLINE
  8
LC_OH_2021_05_O7
  70
1
  66
1
  0
VERTEX
  8
LC_OH_2021_05_O7
  10
343869.003
  20
4476926.000
  0
VERTEX
  8
LC_OH_2021_05_O7
  10
345196.504
  20
4477296.500
  0
VERTEX
  8
LC_OH_2021_05_O7
  10
345198.504
  20
4477297.000
  0
VERTEX
  8
LC_OH_2021_05_O7
  10
345447.004
  20
4477366.000
  0
VERTEX
  8
LC_OH_2021_05_O7
  10
346840.504
  20
4476819.000
  0
VERTEX
  8
LC_OH_2021_05_O7
  10
346731.504
  20
4475412.500
  0
VERTEX
  8
LC_OH_2021_05_O7
  10
345199.004
  20
4473882.000
  0
VERTEX
  8
LC_OH_2021_05_O7
  10
343867.503
  20
4475272.000
  0
SEQEND
  8
LC_OH_2021_05_O7
  0
INSERT
  8
FeatureAttribs
  2
FEATURE
  41
1
  42
1
  43
1
  50
0
  10
348149.087
  20
4475413.501
 66
1
  0
ATTRIB
  8
FeatureAttribs
 70
0
  1
PNOA-H_AMS_1956-57_33k_ES_PAN_21mic_H50_0556_fot_69C-46826_W.tif
  2
NAME
  10
348149.087
  20
4475413.501
 40
34.38785
  0
SEQEND
  0
POLYLINE
  8
LC_OH_2021_05_O7
  70
1
  66
1
  0
VERTEX
  8
LC_OH_2021_05_O7
  10
349295.504
  20
4476825.000
  0
VERTEX
  8
LC_OH_2021_05_O7
  10
349745.004
  20
4476678.000
  0
VERTEX
  8
LC_OH_2021_05_O7
  10
349622.504
  20
4475488.000
  0
VERTEX
  8
LC_OH_2021_05_O7
  10
348184.504
  20
4473573.000
  0
VERTEX
  8
LC_OH_2021_05_O7
  10
348180.004
  20
4473577.000
  0
VERTEX
  8
LC_OH_2021_05_O7
  10
346731.504
  20
4475412.500
  0
VERTEX
  8
LC_OH_2021_05_O7
  10
346840.504
  20
4476819.000
  0
VERTEX
  8
LC_OH_2021_05_O7
  10
347982.004
  20
4477254.000
  0
VERTEX
  8
LC_OH_2021_05_O7
  10
349294.504
  20
4476825.000
  0
VERTEX
  8
LC_OH_2021_05_O7
  10
349295.504
  20
4476825.000
  0
SEQEND
  8
LC_OH_2021_05_O7
  0
INSERT
  8
FeatureAttribs
  2
FEATURE
  41
1
  42
1
  43
1
  50
0
  10
360132.009
  20
4473816.000
 66
1
  0
ATTRIB
  8
FeatureAttribs
 70
0
  1
PNOA-H_AMS_1956-57_33k_ES_PAN_21mic_H50_0556_fot_69C-46822_W.tif
  2
NAME
  10
360132.009
  20
4473816.000
 40
34.38785
  0
SEQEND
  0
POLYLINE
  8
LC_OH_2021_05_O7
  70
1
  66
1
  0
VERTEX
  8
LC_OH_2021_05_O7
  10
359840.505
  20
4471486.500
  0
VERTEX
  8
LC_OH_2021_05_O7
  10
359759.005
  20
4471358.500
  0
VERTEX
  8
LC_OH_2021_05_O7
  10
359757.505
  20
4471357.000
  0
VERTEX
  8
LC_OH_2021_05_O7
  10
359757.005
  20
4471359.000
  0
VERTEX
  8
LC_OH_2021_05_O7
  10
358840.505
  20
4476275.000
  0
VERTEX
  8
LC_OH_2021_05_O7
  10
361109.505
  20
4475987.000
  0
VERTEX
  8
LC_OH_2021_05_O7
  10
360922.505
  20
4473176.000
  0
VERTEX
  8
LC_OH_2021_05_O7
  10
359841.005
  20
4471487.500
  0
VERTEX
  8
LC_OH_2021_05_O7
  10
359840.505
  20
4471486.500
  0
SEQEND
  8
LC_OH_2021_05_O7
  0
INSERT
  8
FeatureAttribs
  2
FEATURE
  41
1
  42
1
  43
1
  50
0
  10
354110.571
  20
4474354.750
 66
1
  0
ATTRIB
  8
FeatureAttribs
 70
0
  1
PNOA-H_AMS_1956-57_33k_ES_PAN_21mic_H50_0556_fot_69C-46824_W.tif
  2
NAME
  10
354110.571
  20
4474354.750
 40
34.38785
  0
SEQEND
  0
POLYLINE
  8
LC_OH_2021_05_O7
  70
1
  66
1
  0
VERTEX
  8
LC_OH_2021_05_O7
  10
353216.504
  20
4476705.500
  0
VERTEX
  8
LC_OH_2021_05_O7
  10
355407.504
  20
4476323.500
  0
VERTEX
  8
LC_OH_2021_05_O7
  10
354301.504
  20
4472004.000
  0
VERTEX
  8
LC_OH_2021_05_O7
  10
352631.504
  20
4475994.500
  0
VERTEX
  8
LC_OH_2021_05_O7
  10
352691.004
  20
4476472.500
  0
VERTEX
  8
LC_OH_2021_05_O7
  10
353215.504
  20
4476705.000
  0
VERTEX
  8
LC_OH_2021_05_O7
  10
353216.504
  20
4476705.500
  0
SEQEND
  8
LC_OH_2021_05_O7
  0
INSERT
  8
FeatureAttribs
  2
FEATURE
  41
1
  42
1
  43
1
  50
0
  10
370094.474
  20
4474440.328
 66
1
  0
ATTRIB
  8
FeatureAttribs
 70
0
  1
PNOA-H_AMS_1956-57_33k_ES_PAN_21mic_H50_0556_fot_000-46818_R.tif
  2
NAME
  10
370094.474
  20
4474440.328
 40
34.38785
  0
SEQEND
  0
POLYLINE
  8
LC_OH_2021_05_O7
  70
1
  66
1
  0
VERTEX
  8
LC_OH_2021_05_O7
  10
370983.523
  20
4475775.194
  0
VERTEX
  8
LC_OH_2021_05_O7
  10
370972.160
  20
4475115.192
  0
VERTEX
  8
LC_OH_2021_05_O7
  10
370933.431
  20
4472864.793
  0
VERTEX
  8
LC_OH_2021_05_O7
  10
369140.506
  20
4472946.000
  0
VERTEX
  8
LC_OH_2021_05_O7
  10
369085.506
  20
4475549.500
  0
VERTEX
  8
LC_OH_2021_05_O7
  10
369773.006
  20
4475834.000
  0
VERTEX
  8
LC_OH_2021_05_O7
  10
369774.506
  20
4475834.500
  0
VERTEX
  8
LC_OH_2021_05_O7
  10
370213.006
  20
4476016.000
  0
VERTEX
  8
LC_OH_2021_05_O7
  10
370231.006
  20
4476022.500
  0
SEQEND
  8
LC_OH_2021_05_O7
  0
INSERT
  8
FeatureAttribs
  2
FEATURE
  41
1
  42
1
  43
1
  50
0
  10
357116.262
  20
4473841.750
 66
1
  0
ATTRIB
  8
FeatureAttribs
 70
0
  1
PNOA-H_AMS_1956-57_33k_ES_PAN_21mic_H50_0556_fot_69C-46823_W.tif
  2
NAME
  10
357116.262
  20
4473841.750
 40
34.38785
  0
SEQEND
  0
POLYLINE
  8
LC_OH_2021_05_O7
  70
1
  66
1
  0
VERTEX
  8
LC_OH_2021_05_O7
  10
357745.005
  20
4473534.500
  0
VERTEX
  8
LC_OH_2021_05_O7
  10
357268.504
  20
4471223.000
  0
VERTEX
  8
LC_OH_2021_05_O7
  10
357077.504
  20
4471225.000
  0
VERTEX
  8
LC_OH_2021_05_O7
  10
357064.004
  20
4471226.000
  0
VERTEX
  8
LC_OH_2021_05_O7
  10
355793.004
  20
4476421.500
  0
VERTEX
  8
LC_OH_2021_05_O7
  10
355868.504
  20
4476460.500
  0
VERTEX
  8
LC_OH_2021_05_O7
  10
358295.505
  20
4476201.500
  0
VERTEX
  8
LC_OH_2021_05_O7
  10
357745.505
  20
4473537.000
  0
VERTEX
  8
LC_OH_2021_05_O7
  10
357745.005
  20
4473534.500
  0
SEQEND
  8
LC_OH_2021_05_O7
  0
INSERT
  8
FeatureAttribs
  2
FEATURE
  41
1
  42
1
  43
1
  50
0
  10
364960.057
  20
4474533.501
 66
1
  0
ATTRIB
  8
FeatureAttribs
 70
0
  1
PNOA-H_AMS_1956-57_33k_ES_PAN_21mic_H50_0556_fot_69C-46820_W.tif
  2
NAME
  10
364960.057
  20
4474533.501
 40
34.38785
  0
SEQEND
  0
POLYLINE
  8
LC_OH_2021_05_O7
  70
1
  66
1
  0
VERTEX
  8
LC_OH_2021_05_O7
  10
363630.505
  20
4475772.500
  0
VERTEX
  8
LC_OH_2021_05_O7
  10
364520.505
  20
4476126.500
  0
VERTEX
  8
LC_OH_2021_05_O7
  10
366337.505
  20
4475613.000
  0
VERTEX
  8
LC_OH_2021_05_O7
  10
366350.005
  20
4473071.500
  0
VERTEX
  8
LC_OH_2021_05_O7
  10
363659.505
  20
4472940.500
  0
VERTEX
  8
LC_OH_2021_05_O7
  10
363550.005
  20
4473159.000
  0
VERTEX
  8
LC_OH_2021_05_O7
  10
363601.505
  20
4475751.500
  0
VERTEX
  8
LC_OH_2021_05_O7
  10
363602.005
  20
4475761.000
  0
VERTEX
  8
LC_OH_2021_05_O7
  10
363629.005
  20
4475772.000
  0
VERTEX
  8
LC_OH_2021_05_O7
  10
363630.505
  20
4475772.500
  0
SEQEND
  8
LC_OH_2021_05_O7
  0
INSERT
  8
FeatureAttribs
  2
FEATURE
  41
1
  42
1
  43
1
  50
0
  10
351053.456
  20
4475039.250
 66
1
  0
ATTRIB
  8
FeatureAttribs
 70
0
  1
PNOA-H_AMS_1956-57_33k_ES_PAN_21mic_H50_0556_fot_69C-46825_W.tif
  2
NAME
  10
351053.456
  20
4475039.250
 40
34.38785
  0
SEQEND
  0
POLYLINE
  8
LC_OH_2021_05_O7
  70
1
  66
1
  0
VERTEX
  8
LC_OH_2021_05_O7
  10
351343.504
  20
4476838.000
  0
VERTEX
  8
LC_OH_2021_05_O7
  10
352691.004
  20
4476473.000
  0
VERTEX
  8
LC_OH_2021_05_O7
  10
352691.004
  20
4476469.500
  0
VERTEX
  8
LC_OH_2021_05_O7
  10
352631.504
  20
4475994.000
  0
VERTEX
  8
LC_OH_2021_05_O7
  10
351253.004
  20
4473045.500
  0
VERTEX
  8
LC_OH_2021_05_O7
  10
349746.004
  20
4475302.500
  0
VERTEX
  8
LC_OH_2021_05_O7
  10
349623.004
  20
4475487.000
  0
VERTEX
  8
LC_OH_2021_05_O7
  10
349622.504
  20
4475491.000
  0
VERTEX
  8
LC_OH_2021_05_O7
  10
349745.504
  20
4476678.500
  0
VERTEX
  8
LC_OH_2021_05_O7
  10
350624.004
  20
4477033.000
  0
VERTEX
  8
LC_OH_2021_05_O7
  10
351342.504
  20
4476838.000
  0
VERTEX
  8
LC_OH_2021_05_O7
  10
351343.504
  20
4476838.000
  0
SEQEND
  8
LC_OH_2021_05_O7
  0
INSERT
  8
FeatureAttribs
  2
FEATURE
  41
1
  42
1
  43
1
  50
0
  10
342601.395
  20
4469390.998
 66
1
  0
ATTRIB
  8
FeatureAttribs
 70
0
  1
PNOA-H_AMS_1956-57_33k_ES_PAN_21mic_H50_0556_fot_70A-46761_E.tif
  2
NAME
  10
342601.395
  20
4469390.998
 40
34.38785
  0
SEQEND
  0
POLYLINE
  8
LC_OH_2021_05_O7
  70
1
  66
1
  0
VERTEX
  8
LC_OH_2021_05_O7
  10
342606.450
  20
4471642.807
  0
VERTEX
  8
LC_OH_2021_05_O7
  10
344001.003
  20
4471302.500
  0
VERTEX
  8
LC_OH_2021_05_O7
  10
343727.003
  20
4467181.500
  0
VERTEX
  8
LC_OH_2021_05_O7
  10
342511.496
  20
4467113.441
  0
VERTEX
  8
LC_OH_2021_05_O7
  10
342545.111
  20
4468717.452
  0
VERTEX
  8
LC_OH_2021_05_O7
  10
342593.599
  20
4471030.091
  0
SEQEND
  8
LC_OH_2021_05_O7
  0
INSERT
  8
FeatureAttribs
  2
FEATURE
  41
1
  42
1
  43
1
  50
0
  10
345174.865
  20
4469334.249
 66
1
  0
ATTRIB
  8
FeatureAttribs
 70
0
  1
PNOA-H_AMS_1956-57_33k_ES_PAN_21mic_H50_0556_fot_70A-46762_E.tif
  2
NAME
  10
345174.865
  20
4469334.249
 40
34.38785
  0
SEQEND
  0
POLYLINE
  8
LC_OH_2021_05_O7
  70
1
  66
1
  0
VERTEX
  8
LC_OH_2021_05_O7
  10
344001.003
  20
4471302.500
  0
VERTEX
  8
LC_OH_2021_05_O7
  10
345197.004
  20
4471649.000
  0
VERTEX
  8
LC_OH_2021_05_O7
  10
345198.504
  20
4471649.500
  0
VERTEX
  8
LC_OH_2021_05_O7
  10
345283.504
  20
4471674.000
  0
VERTEX
  8
LC_OH_2021_05_O7
  10
346636.504
  20
4471254.500
  0
VERTEX
  8
LC_OH_2021_05_O7
  10
346290.004
  20
4467015.000
  0
VERTEX
  8
LC_OH_2021_05_O7
  10
344215.503
  20
4466994.500
  0
VERTEX
  8
LC_OH_2021_05_O7
  10
343950.503
  20
4467048.500
  0
VERTEX
  8
LC_OH_2021_05_O7
  10
343727.003
  20
4467181.000
  0
SEQEND
  8
LC_OH_2021_05_O7
  0
INSERT
  8
FeatureAttribs
  2
FEATURE
  41
1
  42
1
  43
1
  50
0
  10
350116.713
  20
4469073.249
 66
1
  0
ATTRIB
  8
FeatureAttribs
 70
0
  1
PNOA-H_AMS_1956-57_33k_ES_PAN_21mic_H50_0556_fot_70A-46764_E.tif
  2
NAME
  10
350116.713
  20
4469073.249
 40
34.38785
  0
SEQEND
  0
POLYLINE
  8
LC_OH_2021_05_O7
  70
1
  66
1
  0
VERTEX
  8
LC_OH_2021_05_O7
  10
349111.004
  20
4471233.000
  0
VERTEX
  8
LC_OH_2021_05_O7
  10
351259.004
  20
4471407.000
  0
VERTEX
  8
LC_OH_2021_05_O7
  10
351266.504
  20
4471407.000
  0
VERTEX
  8
LC_OH_2021_05_O7
  10
351342.004
  20
4471369.000
  0
VERTEX
  8
LC_OH_2021_05_O7
  10
351343.504
  20
4471368.500
  0
VERTEX
  8
LC_OH_2021_05_O7
  10
351452.004
  20
4471315.000
  0
VERTEX
  8
LC_OH_2021_05_O7
  10
351452.004
  20
4471309.500
  0
VERTEX
  8
LC_OH_2021_05_O7
  10
351077.004
  20
4466767.500
  0
VERTEX
  8
LC_OH_2021_05_O7
  10
348915.004
  20
4466739.500
  0
VERTEX
  8
LC_OH_2021_05_O7
  10
348815.504
  20
4466809.500
  0
VERTEX
  8
LC_OH_2021_05_O7
  10
348814.504
  20
4466810.500
  0
VERTEX
  8
LC_OH_2021_05_O7
  10
348814.504
  20
4466815.500
  0
SEQEND
  8
LC_OH_2021_05_O7
  0
INSERT
  8
FeatureAttribs
  2
FEATURE
  41
1
  42
1
  43
1
  50
0
  10
347721.240
  20
4469194.249
 66
1
  0
ATTRIB
  8
FeatureAttribs
 70
0
  1
PNOA-H_AMS_1956-57_33k_ES_PAN_21mic_H50_0556_fot_70A-46763_E.tif
  2
NAME
  10
347721.240
  20
4469194.249
 40
34.38785
  0
SEQEND
  0
POLYLINE
  8
LC_OH_2021_05_O7
  70
1
  66
1
  0
VERTEX
  8
LC_OH_2021_05_O7
  10
346636.504
  20
4471254.500
  0
VERTEX
  8
LC_OH_2021_05_O7
  10
348184.004
  20
4471577.500
  0
VERTEX
  8
LC_OH_2021_05_O7
  10
348186.504
  20
4471578.000
  0
VERTEX
  8
LC_OH_2021_05_O7
  10
349111.004
  20
4471233.000
  0
VERTEX
  8
LC_OH_2021_05_O7
  10
348814.504
  20
4466810.500
  0
VERTEX
  8
LC_OH_2021_05_O7
  10
346402.004
  20
4466938.500
  0
VERTEX
  8
LC_OH_2021_05_O7
  10
346395.504
  20
4466942.000
  0
VERTEX
  8
LC_OH_2021_05_O7
  10
346290.004
  20
4467014.500
  0
SEQEND
  8
LC_OH_2021_05_O7
  0
INSERT
  8
FeatureAttribs
  2
FEATURE
  41
1
  42
1
  43
1
  50
0
  10
352363.539
  20
4468905.750
 66
1
  0
ATTRIB
  8
FeatureAttribs
 70
0
  1
PNOA-H_AMS_1956-57_33k_ES_PAN_21mic_H50_0556_fot_70A-46765_E.tif
  2
NAME
  10
352363.539
  20
4468905.750
 40
34.38785
  0
SEQEND
  0
POLYLINE
  8
LC_OH_2021_05_O7
  70
1
  66
1
  0
VERTEX
  8
LC_OH_2021_05_O7
  10
351343.004
  20
4469989.000
  0
VERTEX
  8
LC_OH_2021_05_O7
  10
351343.004
  20
4469995.000
  0
VERTEX
  8
LC_OH_2021_05_O7
  10
351452.004
  20
4471314.500
  0
VERTEX
  8
LC_OH_2021_05_O7
  10
353612.504
  20
4471128.000
  0
VERTEX
  8
LC_OH_2021_05_O7
  10
353338.004
  20
4466740.000
  0
VERTEX
  8
LC_OH_2021_05_O7
  10
351524.004
  20
4466497.000
  0
VERTEX
  8
LC_OH_2021_05_O7
  10
351077.004
  20
4466767.000
  0
SEQEND
  8
LC_OH_2021_05_O7
  0
INSERT
  8
FeatureAttribs
  2
FEATURE
  41
1
  42
1
  43
1
  50
0
  10
366966.964
  20
4468113.499
 66
1
  0
ATTRIB
  8
FeatureAttribs
 70
0
  1
PNOA-H_AMS_1956-57_33k_ES_PAN_21mic_H50_0556_fot_70A-46771_E.tif
  2
NAME
  10
366966.964
  20
4468113.499
 40
34.38785
  0
SEQEND
  0
POLYLINE
  8
LC_OH_2021_05_O7
  70
1
  66
1
  0
VERTEX
  8
LC_OH_2021_05_O7
  10
365782.505
  20
4469919.000
  0
VERTEX
  8
LC_OH_2021_05_O7
  10
366241.005
  20
4470132.500
  0
VERTEX
  8
LC_OH_2021_05_O7
  10
368202.006
  20
4469759.000
  0
VERTEX
  8
LC_OH_2021_05_O7
  10
368219.506
  20
4467439.500
  0
VERTEX
  8
LC_OH_2021_05_O7
  10
368219.506
  20
4467390.500
  0
VERTEX
  8
LC_OH_2021_05_O7
  10
368226.006
  20
4466539.000
  0
VERTEX
  8
LC_OH_2021_05_O7
  10
367511.505
  20
4466094.500
  0
VERTEX
  8
LC_OH_2021_05_O7
  10
365667.005
  20
4466609.500
  0
SEQEND
  8
LC_OH_2021_05_O7
  0
INSERT
  8
FeatureAttribs
  2
FEATURE
  41
1
  42
1
  43
1
  50
0
  10
369508.008
  20
4468123.249
 66
1
  0
ATTRIB
  8
FeatureAttribs
 70
0
  1
PNOA-H_AMS_1956-57_33k_ES_PAN_21mic_H50_0556_fot_70A-46772_E.tif
  2
NAME
  10
369508.008
  20
4468123.249
 40
34.38785
  0
SEQEND
  0
POLYLINE
  8
LC_OH_2021_05_O7
  70
1
  66
1
  0
VERTEX
  8
LC_OH_2021_05_O7
  10
370834.516
  20
4467112.816
  0
VERTEX
  8
LC_OH_2021_05_O7
  10
370825.157
  20
4466568.284
  0
VERTEX
  8
LC_OH_2021_05_O7
  10
370279.506
  20
4466160.000
  0
VERTEX
  8
LC_OH_2021_05_O7
  10
368226.006
  20
4466539.000
  0
VERTEX
  8
LC_OH_2021_05_O7
  10
368202.006
  20
4469759.500
  0
VERTEX
  8
LC_OH_2021_05_O7
  10
369022.006
  20
4470086.500
  0
VERTEX
  8
LC_OH_2021_05_O7
  10
369774.006
  20
4469908.500
  0
VERTEX
  8
LC_OH_2021_05_O7
  10
369775.506
  20
4469908.500
  0
VERTEX
  8
LC_OH_2021_05_O7
  10
370751.506
  20
4469677.000
  0
SEQEND
  8
LC_OH_2021_05_O7
  0
INSERT
  8
FeatureAttribs
  2
FEATURE
  41
1
  42
1
  43
1
  50
0
  10
354595.937
  20
4468824.249
 66
1
  0
ATTRIB
  8
FeatureAttribs
 70
0
  1
PNOA-H_AMS_1956-57_33k_ES_PAN_21mic_H50_0556_fot_70A-46766_E.tif
  2
NAME
  10
354595.937
  20
4468824.249
 40
34.38785
  0
SEQEND
  0
POLYLINE
  8
LC_OH_2021_05_O7
  70
1
  66
1
  0
VERTEX
  8
LC_OH_2021_05_O7
  10
353391.004
  20
4467582.000
  0
VERTEX
  8
LC_OH_2021_05_O7
  10
353391.004
  20
4467590.000
  0
VERTEX
  8
LC_OH_2021_05_O7
  10
353612.504
  20
4471128.000
  0
VERTEX
  8
LC_OH_2021_05_O7
  10
354297.504
  20
4471340.500
  0
VERTEX
  8
LC_OH_2021_05_O7
  10
354302.504
  20
4471341.000
  0
VERTEX
  8
LC_OH_2021_05_O7
  10
355826.004
  20
4471007.000
  0
VERTEX
  8
LC_OH_2021_05_O7
  10
355624.504
  20
4466713.000
  0
VERTEX
  8
LC_OH_2021_05_O7
  10
354190.504
  20
4466307.500
  0
VERTEX
  8
LC_OH_2021_05_O7
  10
353338.004
  20
4466740.000
  0
SEQEND
  8
LC_OH_2021_05_O7
  0
INSERT
  8
FeatureAttribs
  2
FEATURE
  41
1
  42
1
  43
1
  50
0
  10
356886.069
  20
4468717.999
 66
1
  0
ATTRIB
  8
FeatureAttribs
 70
0
  1
PNOA-H_AMS_1956-57_33k_ES_PAN_21mic_H50_0556_fot_70A-46767_E.tif
  2
NAME
  10
356886.069
  20
4468717.999
 40
34.38785
  0
SEQEND
  0
POLYLINE
  8
LC_OH_2021_05_O7
  70
1
  66
1
  0
VERTEX
  8
LC_OH_2021_05_O7
  10
355826.004
  20
4471007.000
  0
VERTEX
  8
LC_OH_2021_05_O7
  10
357063.504
  20
4471225.500
  0
VERTEX
  8
LC_OH_2021_05_O7
  10
357269.504
  20
4471223.000
  0
VERTEX
  8
LC_OH_2021_05_O7
  10
357486.004
  20
4471147.000
  0
VERTEX
  8
LC_OH_2021_05_O7
  10
357487.504
  20
4471146.500
  0
VERTEX
  8
LC_OH_2021_05_O7
  10
358167.005
  20
4470909.500
  0
VERTEX
  8
LC_OH_2021_05_O7
  10
357946.505
  20
4466651.000
  0
VERTEX
  8
LC_OH_2021_05_O7
  10
357946.005
  20
4466648.500
  0
VERTEX
  8
LC_OH_2021_05_O7
  10
357937.005
  20
4466644.500
  0
VERTEX
  8
LC_OH_2021_05_O7
  10
356953.504
  20
4466210.500
  0
VERTEX
  8
LC_OH_2021_05_O7
  10
355624.504
  20
4466713.000
  0
SEQEND
  8
LC_OH_2021_05_O7
  0
INSERT
  8
FeatureAttribs
  2
FEATURE
  41
1
  42
1
  43
1
  50
0
  10
370815.564
  20
4468424.643
 66
1
  0
ATTRIB
  8
FeatureAttribs
 70
0
  1
PNOA-H_AMS_1956-57_33k_ES_PAN_21mic_H50_0557_fot_000-46773_R.tif
  2
NAME
  10
370815.564
  20
4468424.643
 40
34.38785
  0
SEQEND
  0
POLYLINE
  8
LC_OH_2021_05_O7
  70
1
  66
1
  0
VERTEX
  8
LC_OH_2021_05_O7
  10
370879.622
  20
4469736.471
  0
VERTEX
  8
LC_OH_2021_05_O7
  10
370852.814
  20
4468177.443
  0
VERTEX
  8
LC_OH_2021_05_O7
  10
370834.516
  20
4467112.816
  0
VERTEX
  8
LC_OH_2021_05_O7
  10
370751.506
  20
4469677.000
  0
SEQEND
  8
LC_OH_2021_05_O7
  0
INSERT
  8
FeatureAttribs
  2
FEATURE
  41
1
  42
1
  43
1
  50
0
  10
359259.263
  20
4468598.500
 66
1
  0
ATTRIB
  8
FeatureAttribs
 70
0
  1
PNOA-H_AMS_1956-57_33k_ES_PAN_21mic_H50_0556_fot_70A-46768_E.tif
  2
NAME
  10
359259.263
  20
4468598.500
 40
34.38785
  0
SEQEND
  0
POLYLINE
  8
LC_OH_2021_05_O7
  70
1
  66
1
  0
VERTEX
  8
LC_OH_2021_05_O7
  10
358167.005
  20
4470909.500
  0
VERTEX
  8
LC_OH_2021_05_O7
  10
359603.505
  20
4471010.000
  0
VERTEX
  8
LC_OH_2021_05_O7
  10
359611.005
  20
4471010.500
  0
VERTEX
  8
LC_OH_2021_05_O7
  10
359614.505
  20
4471010.500
  0
VERTEX
  8
LC_OH_2021_05_O7
  10
360513.505
  20
4470398.500
  0
VERTEX
  8
LC_OH_2021_05_O7
  10
360424.505
  20
4466596.000
  0
VERTEX
  8
LC_OH_2021_05_O7
  10
359678.005
  20
4466186.500
  0
VERTEX
  8
LC_OH_2021_05_O7
  10
357946.005
  20
4466649.000
  0
SEQEND
  8
LC_OH_2021_05_O7
  0
INSERT
  8
FeatureAttribs
  2
FEATURE
  41
1
  42
1
  43
1
  50
0
  10
364392.708
  20
4468179.499
 66
1
  0
ATTRIB
  8
FeatureAttribs
 70
0
  1
PNOA-H_AMS_1956-57_33k_ES_PAN_21mic_H50_0556_fot_70A-46770_E.tif
  2
NAME
  10
364392.708
  20
4468179.499
 40
34.38785
  0
SEQEND
  0
POLYLINE
  8
LC_OH_2021_05_O7
  70
1
  66
1
  0
VERTEX
  8
LC_OH_2021_05_O7
  10
363110.005
  20
4470105.500
  0
VERTEX
  8
LC_OH_2021_05_O7
  10
363392.505
  20
4470244.000
  0
VERTEX
  8
LC_OH_2021_05_O7
  10
363393.505
  20
4470244.500
  0
VERTEX
  8
LC_OH_2021_05_O7
  10
365782.505
  20
4469919.000
  0
VERTEX
  8
LC_OH_2021_05_O7
  10
365667.005
  20
4466609.500
  0
VERTEX
  8
LC_OH_2021_05_O7
  10
364796.005
  20
4466116.500
  0
VERTEX
  8
LC_OH_2021_05_O7
  10
364791.505
  20
4466114.500
  0
VERTEX
  8
LC_OH_2021_05_O7
  10
364783.005
  20
4466117.000
  0
VERTEX
  8
LC_OH_2021_05_O7
  10
363026.505
  20
4466639.500
  0
SEQEND
  8
LC_OH_2021_05_O7
  0
INSERT
  8
FeatureAttribs
  2
FEATURE
  41
1
  42
1
  43
1
  50
0
  10
361765.549
  20
4468303.999
 66
1
  0
ATTRIB
  8
FeatureAttribs
 70
0
  1
PNOA-H_AMS_1956-57_33k_ES_PAN_21mic_H50_0556_fot_70A-46769_E.tif
  2
NAME
  10
361765.549
  20
4468303.999
 40
34.38785
  0
SEQEND
  0
POLYLINE
  8
LC_OH_2021_05_O7
  70
1
  66
1
  0
VERTEX
  8
LC_OH_2021_05_O7
  10
360513.505
  20
4470398.500
  0
VERTEX
  8
LC_OH_2021_05_O7
  10
361582.005
  20
4470277.500
  0
VERTEX
  8
LC_OH_2021_05_O7
  10
361583.505
  20
4470277.500
  0
VERTEX
  8
LC_OH_2021_05_O7
  10
363110.005
  20
4470105.500
  0
VERTEX
  8
LC_OH_2021_05_O7
  10
363026.505
  20
4466639.500
  0
VERTEX
  8
LC_OH_2021_05_O7
  10
362245.505
  20
4466209.500
  0
VERTEX
  8
LC_OH_2021_05_O7
  10
360424.505
  20
4466596.000
  0
SEQEND
  8
LC_OH_2021_05_O7
  0
INSERT
  8
FeatureAttribs
  2
FEATURE
  41
1
  42
1
  43
1
  50
0
  10
343760.030
  20
4473287.249
 66
1
  0
ATTRIB
  8
FeatureAttribs
 70
0
  1
PNOA-H_AMS_1956-57_33k_ES_PAN_21mic_H50_0555_fot_000-47576_R.tif
  2
NAME
  10
343760.030
  20
4473287.249
 40
34.38785
  0
SEQEND
  0
POLYLINE
  8
LC_OH_2021_05_O7
  70
1
  66
1
  0
VERTEX
  8
LC_OH_2021_05_O7
  10
342661.113
  20
4474248.481
  0
VERTEX
  8
LC_OH_2021_05_O7
  10
343853.003
  20
4475260.500
  0
VERTEX
  8
LC_OH_2021_05_O7
  10
343866.003
  20
4475271.500
  0
VERTEX
  8
LC_OH_2021_05_O7
  10
343868.003
  20
4475272.000
  0
VERTEX
  8
LC_OH_2021_05_O7
  10
345195.504
  20
4473886.000
  0
VERTEX
  8
LC_OH_2021_05_O7
  10
345199.004
  20
4473880.500
  0
VERTEX
  8
LC_OH_2021_05_O7
  10
345199.504
  20
4473867.500
  0
VERTEX
  8
LC_OH_2021_05_O7
  10
345199.504
  20
4473854.500
  0
VERTEX
  8
LC_OH_2021_05_O7
  10
345283.504
  20
4471674.000
  0
VERTEX
  8
LC_OH_2021_05_O7
  10
344000.003
  20
4471302.500
  0
VERTEX
  8
LC_OH_2021_05_O7
  10
342606.454
  20
4471642.969
  0
VERTEX
  8
LC_OH_2021_05_O7
  10
342642.107
  20
4473342.739
  0
SEQEND
  8
LC_OH_2021_05_O7
  0
INSERT
  8
FeatureAttribs
  2
FEATURE
  41
1
  42
1
  43
1
  50
0
  10
358549.465
  20
4473618.499
 66
1
  0
ATTRIB
  8
FeatureAttribs
 70
0
  1
PNOA-H_AMS_1956-57_33k_ES_PAN_21mic_H50_0556_fot_000-47581_R.tif
  2
NAME
  10
358549.465
  20
4473618.499
 40
34.38785
  0
SEQEND
  0
POLYLINE
  8
LC_OH_2021_05_O7
  70
1
  66
1
  0
VERTEX
  8
LC_OH_2021_05_O7
  10
359535.505
  20
4472546.500
  0
VERTEX
  8
LC_OH_2021_05_O7
  10
359757.505
  20
4471359.000
  0
VERTEX
  8
LC_OH_2021_05_O7
  10
359755.505
  20
4471351.000
  0
VERTEX
  8
LC_OH_2021_05_O7
  10
359614.005
  20
4471010.500
  0
VERTEX
  8
LC_OH_2021_05_O7
  10
358166.505
  20
4470909.500
  0
VERTEX
  8
LC_OH_2021_05_O7
  10
357268.504
  20
4471223.000
  0
VERTEX
  8
LC_OH_2021_05_O7
  10
358296.005
  20
4476202.000
  0
VERTEX
  8
LC_OH_2021_05_O7
  10
358682.005
  20
4476327.500
  0
VERTEX
  8
LC_OH_2021_05_O7
  10
358685.005
  20
4476327.500
  0
VERTEX
  8
LC_OH_2021_05_O7
  10
358840.505
  20
4476275.000
  0
VERTEX
  8
LC_OH_2021_05_O7
  10
359535.505
  20
4472549.500
  0
VERTEX
  8
LC_OH_2021_05_O7
  10
359535.505
  20
4472546.500
  0
SEQEND
  8
LC_OH_2021_05_O7
  0
INSERT
  8
FeatureAttribs
  2
FEATURE
  41
1
  42
1
  43
1
  50
0
  10
355597.343
  20
4473714.000
 66
1
  0
ATTRIB
  8
FeatureAttribs
 70
0
  1
PNOA-H_AMS_1956-57_33k_ES_PAN_21mic_H50_0556_fot_000-47580_R.tif
  2
NAME
  10
355597.343
  20
4473714.000
 40
34.38785
  0
SEQEND
  0
POLYLINE
  8
LC_OH_2021_05_O7
  70
1
  66
1
  0
VERTEX
  8
LC_OH_2021_05_O7
  10
355438.504
  20
4476331.500
  0
VERTEX
  8
LC_OH_2021_05_O7
  10
355793.004
  20
4476421.000
  0
VERTEX
  8
LC_OH_2021_05_O7
  10
357064.004
  20
4471228.500
  0
VERTEX
  8
LC_OH_2021_05_O7
  10
357064.504
  20
4471225.500
  0
VERTEX
  8
LC_OH_2021_05_O7
  10
357063.504
  20
4471225.000
  0
VERTEX
  8
LC_OH_2021_05_O7
  10
355825.504
  20
4471007.000
  0
VERTEX
  8
LC_OH_2021_05_O7
  10
354300.504
  20
4471341.000
  0
VERTEX
  8
LC_OH_2021_05_O7
  10
354301.504
  20
4472005.500
  0
VERTEX
  8
LC_OH_2021_05_O7
  10
355407.004
  20
4476322.000
  0
VERTEX
  8
LC_OH_2021_05_O7
  10
355409.004
  20
4476324.000
  0
VERTEX
  8
LC_OH_2021_05_O7
  10
355436.504
  20
4476331.000
  0
VERTEX
  8
LC_OH_2021_05_O7
  10
355438.504
  20
4476331.500
  0
SEQEND
  8
LC_OH_2021_05_O7
  0
INSERT
  8
FeatureAttribs
  2
FEATURE
  41
1
  42
1
  43
1
  50
0
  10
346701.978
  20
4473333.498
 66
1
  0
ATTRIB
  8
FeatureAttribs
 70
0
  1
PNOA-H_AMS_1956-57_33k_ES_PAN_21mic_H50_0556_fot_000-47577_R.tif
  2
NAME
  10
346701.978
  20
4473333.498
 40
34.38785
  0
SEQEND
  0
POLYLINE
  8
LC_OH_2021_05_O7
  70
1
  66
1
  0
VERTEX
  8
LC_OH_2021_05_O7
  10
347748.004
  20
4471486.500
  0
VERTEX
  8
LC_OH_2021_05_O7
  10
346680.004
  20
4471263.000
  0
VERTEX
  8
LC_OH_2021_05_O7
  10
346635.004
  20
4471254.500
  0
VERTEX
  8
LC_OH_2021_05_O7
  10
345283.504
  20
4471673.500
  0
VERTEX
  8
LC_OH_2021_05_O7
  10
345198.504
  20
4473882.000
  0
VERTEX
  8
LC_OH_2021_05_O7
  10
346731.004
  20
4475412.500
  0
VERTEX
  8
LC_OH_2021_05_O7
  10
346733.004
  20
4475411.500
  0
VERTEX
  8
LC_OH_2021_05_O7
  10
348184.004
  20
4473573.000
  0
VERTEX
  8
LC_OH_2021_05_O7
  10
348187.004
  20
4471578.000
  0
VERTEX
  8
LC_OH_2021_05_O7
  10
347750.504
  20
4471486.500
  0
VERTEX
  8
LC_OH_2021_05_O7
  10
347748.004
  20
4471486.500
  0
SEQEND
  8
LC_OH_2021_05_O7
  0
INSERT
  8
FeatureAttribs
  2
FEATURE
  41
1
  42
1
  43
1
  50
0
  10
349613.543
  20
4473360.499
 66
1
  0
ATTRIB
  8
FeatureAttribs
 70
0
  1
PNOA-H_AMS_1956-57_33k_ES_PAN_21mic_H50_0556_fot_000-47578_R.tif
  2
NAME
  10
349613.543
  20
4473360.499
 40
34.38785
  0
SEQEND
  0
POLYLINE
  8
LC_OH_2021_05_O7
  70
1
  66
1
  0
VERTEX
  8
LC_OH_2021_05_O7
  10
349622.004
  20
4475488.000
  0
VERTEX
  8
LC_OH_2021_05_O7
  10
349623.004
  20
4475488.000
  0
VERTEX
  8
LC_OH_2021_05_O7
  10
351253.004
  20
4473045.500
  0
VERTEX
  8
LC_OH_2021_05_O7
  10
351265.504
  20
4471448.000
  0
VERTEX
  8
LC_OH_2021_05_O7
  10
351265.504
  20
4471407.000
  0
VERTEX
  8
LC_OH_2021_05_O7
  10
349110.504
  20
4471233.000
  0
VERTEX
  8
LC_OH_2021_05_O7
  10
348187.004
  20
4471578.000
  0
VERTEX
  8
LC_OH_2021_05_O7
  10
348184.004
  20
4473573.000
  0
VERTEX
  8
LC_OH_2021_05_O7
  10
349622.004
  20
4475487.000
  0
VERTEX
  8
LC_OH_2021_05_O7
  10
349622.004
  20
4475488.000
  0
SEQEND
  8
LC_OH_2021_05_O7
  0
INSERT
  8
FeatureAttribs
  2
FEATURE
  41
1
  42
1
  43
1
  50
0
  10
352571.916
  20
4473561.249
 66
1
  0
ATTRIB
  8
FeatureAttribs
 70
0
  1
PNOA-H_AMS_1956-57_33k_ES_PAN_21mic_H50_0556_fot_000-47579_R.tif
  2
NAME
  10
352571.916
  20
4473561.249
 40
34.38785
  0
SEQEND
  0
POLYLINE
  8
LC_OH_2021_05_O7
  70
1
  66
1
  0
VERTEX
  8
LC_OH_2021_05_O7
  10
351343.004
  20
4473238.500
  0
VERTEX
  8
LC_OH_2021_05_O7
  10
352628.004
  20
4475988.000
  0
VERTEX
  8
LC_OH_2021_05_O7
  10
352632.004
  20
4475994.500
  0
VERTEX
  8
LC_OH_2021_05_O7
  10
354301.504
  20
4472004.000
  0
VERTEX
  8
LC_OH_2021_05_O7
  10
354300.504
  20
4471341.000
  0
VERTEX
  8
LC_OH_2021_05_O7
  10
353613.004
  20
4471128.000
  0
VERTEX
  8
LC_OH_2021_05_O7
  10
351452.004
  20
4471314.500
  0
VERTEX
  8
LC_OH_2021_05_O7
  10
351265.504
  20
4471407.000
  0
VERTEX
  8
LC_OH_2021_05_O7
  10
351253.004
  20
4473046.000
  0
VERTEX
  8
LC_OH_2021_05_O7
  10
351343.004
  20
4473237.500
  0
VERTEX
  8
LC_OH_2021_05_O7
  10
351343.004
  20
4473238.500
  0
SEQEND
  8
LC_OH_2021_05_O7
  0
INSERT
  8
FeatureAttribs
  2
FEATURE
  41
1
  42
1
  43
1
  50
0
  10
343204.448
  20
4481984.547
 66
1
  0
ATTRIB
  8
FeatureAttribs
 70
0
  1
PNOA-H_AMS_1956-57_33k_ES_PAN_21mic_H50_0555_fot_67B-18363_E.tif
  2
NAME
  10
343204.448
  20
4481984.547
 40
34.38785
  0
SEQEND
  0
POLYLINE
  8
LC_OH_2021_05_O7
  70
1
  66
1
  0
VERTEX
  8
LC_OH_2021_05_O7
  10
342854.712
  20
4483467.094
  0
VERTEX
  8
LC_OH_2021_05_O7
  10
343615.503
  20
4483253.000
  0
VERTEX
  8
LC_OH_2021_05_O7
  10
343503.003
  20
4480759.500
  0
VERTEX
  8
LC_OH_2021_05_O7
  10
343064.003
  20
4480503.500
  0
VERTEX
  8
LC_OH_2021_05_O7
  10
343061.003
  20
4480502.000
  0
VERTEX
  8
LC_OH_2021_05_O7
  10
343055.003
  20
4480502.500
  0
VERTEX
  8
LC_OH_2021_05_O7
  10
342793.392
  20
4480548.977
  0
VERTEX
  8
LC_OH_2021_05_O7
  10
342836.348
  20
4482593.403
  0
SEQEND
  8
LC_OH_2021_05_O7
  0
INSERT
  8
FeatureAttribs
  2
FEATURE
  41
1
  42
1
  43
1
  50
0
  10
344786.271
  20
4482042.249
 66
1
  0
ATTRIB
  8
FeatureAttribs
 70
0
  1
PNOA-H_AMS_1956-57_33k_ES_PAN_21mic_H50_0556_fot_67B-18364_E.tif
  2
NAME
  10
344786.271
  20
4482042.249
 40
34.38785
  0
SEQEND
  0
POLYLINE
  8
LC_OH_2021_05_O7
  70
1
  66
1
  0
VERTEX
  8
LC_OH_2021_05_O7
  10
343615.503
  20
4483253.000
  0
VERTEX
  8
LC_OH_2021_05_O7
  10
344194.503
  20
4483650.000
  0
VERTEX
  8
LC_OH_2021_05_O7
  10
344195.503
  20
4483650.500
  0
VERTEX
  8
LC_OH_2021_05_O7
  10
345948.504
  20
4483166.500
  0
VERTEX
  8
LC_OH_2021_05_O7
  10
345957.504
  20
4483161.000
  0
VERTEX
  8
LC_OH_2021_05_O7
  10
346072.504
  20
4483072.500
  0
VERTEX
  8
LC_OH_2021_05_O7
  10
345931.004
  20
4480677.000
  0
VERTEX
  8
LC_OH_2021_05_O7
  10
345519.504
  20
4480434.000
  0
VERTEX
  8
LC_OH_2021_05_O7
  10
345502.004
  20
4480436.000
  0
VERTEX
  8
LC_OH_2021_05_O7
  10
343503.003
  20
4480759.500
  0
SEQEND
  8
LC_OH_2021_05_O7
  0
INSERT
  8
FeatureAttribs
  2
FEATURE
  41
1
  42
1
  43
1
  50
0
  10
349718.559
  20
4481817.249
 66
1
  0
ATTRIB
  8
FeatureAttribs
 70
0
  1
PNOA-H_AMS_1956-57_33k_ES_PAN_21mic_H50_0556_fot_67B-18366_E.tif
  2
NAME
  10
349718.559
  20
4481817.249
 40
34.38785
  0
SEQEND
  0
POLYLINE
  8
LC_OH_2021_05_O7
  70
1
  66
1
  0
VERTEX
  8
LC_OH_2021_05_O7
  10
348828.004
  20
4483347.000
  0
VERTEX
  8
LC_OH_2021_05_O7
  10
350632.504
  20
4483081.500
  0
VERTEX
  8
LC_OH_2021_05_O7
  10
350961.504
  20
4482863.500
  0
VERTEX
  8
LC_OH_2021_05_O7
  10
350957.504
  20
4480415.000
  0
VERTEX
  8
LC_OH_2021_05_O7
  10
350780.504
  20
4480287.500
  0
VERTEX
  8
LC_OH_2021_05_O7
  10
348450.004
  20
4480547.500
  0
VERTEX
  8
LC_OH_2021_05_O7
  10
348504.504
  20
4483082.000
  0
VERTEX
  8
LC_OH_2021_05_O7
  10
348827.004
  20
4483346.500
  0
VERTEX
  8
LC_OH_2021_05_O7
  10
348828.004
  20
4483347.000
  0
SEQEND
  8
LC_OH_2021_05_O7
  0
INSERT
  8
FeatureAttribs
  2
FEATURE
  41
1
  42
1
  43
1
  50
0
  10
365537.806
  20
4482748.250
 66
1
  0
ATTRIB
  8
FeatureAttribs
 70
0
  1
PNOA-H_AMS_1956-57_33k_ES_PAN_21mic_H50_0556_fot_67B-18372_E.tif
  2
NAME
  10
365537.806
  20
4482748.250
 40
34.38785
  0
SEQEND
  0
POLYLINE
  8
LC_OH_2021_05_O7
  70
1
  66
1
  0
VERTEX
  8
LC_OH_2021_05_O7
  10
364787.505
  20
4483570.500
  0
VERTEX
  8
LC_OH_2021_05_O7
  10
366886.005
  20
4483029.500
  0
VERTEX
  8
LC_OH_2021_05_O7
  10
366945.005
  20
4481926.000
  0
VERTEX
  8
LC_OH_2021_05_O7
  10
364192.005
  20
4482404.000
  0
VERTEX
  8
LC_OH_2021_05_O7
  10
364163.505
  20
4482966.500
  0
VERTEX
  8
LC_OH_2021_05_O7
  10
364787.005
  20
4483569.500
  0
VERTEX
  8
LC_OH_2021_05_O7
  10
364787.505
  20
4483570.500
  0
SEQEND
  8
LC_OH_2021_05_O7
  0
INSERT
  8
FeatureAttribs
  2
FEATURE
  41
1
  42
1
  43
1
  50
0
  10
347237.654
  20
4481812.749
 66
1
  0
ATTRIB
  8
FeatureAttribs
 70
0
  1
PNOA-H_AMS_1956-57_33k_ES_PAN_21mic_H50_0556_fot_67B-18365_E.tif
  2
NAME
  10
347237.654
  20
4481812.749
 40
34.38785
  0
SEQEND
  0
POLYLINE
  8
LC_OH_2021_05_O7
  70
1
  66
1
  0
VERTEX
  8
LC_OH_2021_05_O7
  10
347067.504
  20
4483328.500
  0
VERTEX
  8
LC_OH_2021_05_O7
  10
348504.504
  20
4483081.500
  0
VERTEX
  8
LC_OH_2021_05_O7
  10
348450.004
  20
4480547.500
  0
VERTEX
  8
LC_OH_2021_05_O7
  10
348075.504
  20
4480297.000
  0
VERTEX
  8
LC_OH_2021_05_O7
  10
345931.004
  20
4480677.500
  0
VERTEX
  8
LC_OH_2021_05_O7
  10
346072.504
  20
4483072.000
  0
VERTEX
  8
LC_OH_2021_05_O7
  10
347065.504
  20
4483328.000
  0
VERTEX
  8
LC_OH_2021_05_O7
  10
347067.504
  20
4483328.500
  0
SEQEND
  8
LC_OH_2021_05_O7
  0
INSERT
  8
FeatureAttribs
  2
FEATURE
  41
1
  42
1
  43
1
  50
0
  10
360529.312
  20
4481622.000
 66
1
  0
ATTRIB
  8
FeatureAttribs
 70
0
  1
PNOA-H_AMS_1956-57_33k_ES_PAN_21mic_H50_0556_fot_67B-18370_E.tif
  2
NAME
  10
360529.312
  20
4481622.000
 40
34.38785
  0
SEQEND
  0
POLYLINE
  8
LC_OH_2021_05_O7
  70
1
  66
1
  0
VERTEX
  8
LC_OH_2021_05_O7
  10
360466.505
  20
4483149.000
  0
VERTEX
  8
LC_OH_2021_05_O7
  10
361340.505
  20
4482995.500
  0
VERTEX
  8
LC_OH_2021_05_O7
  10
361506.505
  20
4480108.000
  0
VERTEX
  8
LC_OH_2021_05_O7
  10
358919.505
  20
4480095.000
  0
VERTEX
  8
LC_OH_2021_05_O7
  10
358917.505
  20
4480250.000
  0
VERTEX
  8
LC_OH_2021_05_O7
  10
358918.005
  20
4480291.500
  0
VERTEX
  8
LC_OH_2021_05_O7
  10
360466.005
  20
4483147.500
  0
VERTEX
  8
LC_OH_2021_05_O7
  10
360466.505
  20
4483149.000
  0
SEQEND
  8
LC_OH_2021_05_O7
  0
INSERT
  8
FeatureAttribs
  2
FEATURE
  41
1
  42
1
  43
1
  50
0
  10
354962.610
  20
4481650.999
 66
1
  0
ATTRIB
  8
FeatureAttribs
 70
0
  1
PNOA-H_AMS_1956-57_33k_ES_PAN_21mic_H50_0556_fot_67B-18368_E.tif
  2
NAME
  10
354962.610
  20
4481650.999
 40
34.38785
  0
SEQEND
  0
POLYLINE
  8
LC_OH_2021_05_O7
  70
1
  66
1
  0
VERTEX
  8
LC_OH_2021_05_O7
  10
354807.004
  20
4483154.000
  0
VERTEX
  8
LC_OH_2021_05_O7
  10
355462.504
  20
4483111.500
  0
VERTEX
  8
LC_OH_2021_05_O7
  10
355467.004
  20
4483111.000
  0
VERTEX
  8
LC_OH_2021_05_O7
  10
355468.004
  20
4483109.000
  0
VERTEX
  8
LC_OH_2021_05_O7
  10
356253.004
  20
4480820.500
  0
VERTEX
  8
LC_OH_2021_05_O7
  10
356249.504
  20
4480247.000
  0
VERTEX
  8
LC_OH_2021_05_O7
  10
356101.004
  20
4480148.500
  0
VERTEX
  8
LC_OH_2021_05_O7
  10
356096.004
  20
4480148.000
  0
VERTEX
  8
LC_OH_2021_05_O7
  10
353584.004
  20
4480384.000
  0
VERTEX
  8
LC_OH_2021_05_O7
  10
353585.004
  20
4480993.000
  0
VERTEX
  8
LC_OH_2021_05_O7
  10
354806.504
  20
4483153.000
  0
VERTEX
  8
LC_OH_2021_05_O7
  10
354807.004
  20
4483154.000
  0
SEQEND
  8
LC_OH_2021_05_O7
  0
INSERT
  8
FeatureAttribs
  2
FEATURE
  41
1
  42
1
  43
1
  50
0
  10
357690.894
  20
4481620.499
 66
1
  0
ATTRIB
  8
FeatureAttribs
 70
0
  1
PNOA-H_AMS_1956-57_33k_ES_PAN_21mic_H50_0556_fot_67B-18369_E.tif
  2
NAME
  10
357690.894
  20
4481620.499
 40
34.38785
  0
SEQEND
  0
POLYLINE
  8
LC_OH_2021_05_O7
  70
1
  66
1
  0
VERTEX
  8
LC_OH_2021_05_O7
  10
357487.004
  20
4483011.000
  0
VERTEX
  8
LC_OH_2021_05_O7
  10
357566.504
  20
4483152.500
  0
VERTEX
  8
LC_OH_2021_05_O7
  10
358422.505
  20
4483017.500
  0
VERTEX
  8
LC_OH_2021_05_O7
  10
358425.505
  20
4483016.000
  0
VERTEX
  8
LC_OH_2021_05_O7
  10
358917.505
  20
4480290.000
  0
VERTEX
  8
LC_OH_2021_05_O7
  10
358919.505
  20
4480109.000
  0
VERTEX
  8
LC_OH_2021_05_O7
  10
358919.505
  20
4480095.000
  0
VERTEX
  8
LC_OH_2021_05_O7
  10
358911.505
  20
4480089.000
  0
VERTEX
  8
LC_OH_2021_05_O7
  10
358907.505
  20
4480088.500
  0
VERTEX
  8
LC_OH_2021_05_O7
  10
356249.504
  20
4480247.000
  0
VERTEX
  8
LC_OH_2021_05_O7
  10
356253.004
  20
4480819.000
  0
VERTEX
  8
LC_OH_2021_05_O7
  10
357487.004
  20
4483010.000
  0
VERTEX
  8
LC_OH_2021_05_O7
  10
357487.004
  20
4483011.000
  0
SEQEND
  8
LC_OH_2021_05_O7
  0
INSERT
  8
FeatureAttribs
  2
FEATURE
  41
1
  42
1
  43
1
  50
0
  10
370494.978
  20
4482147.249
 66
1
  0
ATTRIB
  8
FeatureAttribs
 70
0
  1
PNOA-H_AMS_1956-57_33k_ES_PAN_21mic_H50_0556_fot_000-18374_R.tif
  2
NAME
  10
370494.978
  20
4482147.249
 40
34.38785
  0
SEQEND
  0
POLYLINE
  8
LC_OH_2021_05_O7
  70
1
  66
1
  0
VERTEX
  8
LC_OH_2021_05_O7
  10
371092.262
  20
4482087.942
  0
VERTEX
  8
LC_OH_2021_05_O7
  10
370066.506
  20
4480622.500
  0
VERTEX
  8
LC_OH_2021_05_O7
  10
370064.506
  20
4480631.500
  0
VERTEX
  8
LC_OH_2021_05_O7
  10
369714.506
  20
4483178.000
  0
VERTEX
  8
LC_OH_2021_05_O7
  10
369712.006
  20
4483196.500
  0
VERTEX
  8
LC_OH_2021_05_O7
  10
369712.506
  20
4483201.000
  0
VERTEX
  8
LC_OH_2021_05_O7
  10
370065.506
  20
4483672.000
  0
VERTEX
  8
LC_OH_2021_05_O7
  10
371116.372
  20
4483486.535
  0
SEQEND
  8
LC_OH_2021_05_O7
  0
INSERT
  8
FeatureAttribs
  2
FEATURE
  41
1
  42
1
  43
1
  50
0
  10
352095.286
  20
4481751.750
 66
1
  0
ATTRIB
  8
FeatureAttribs
 70
0
  1
PNOA-H_AMS_1956-57_33k_ES_PAN_21mic_H50_0556_fot_67B-18367_E.tif
  2
NAME
  10
352095.286
  20
4481751.750
 40
34.38785
  0
SEQEND
  0
POLYLINE
  8
LC_OH_2021_05_O7
  70
1
  66
1
  0
VERTEX
  8
LC_OH_2021_05_O7
  10
351343.004
  20
4483011.500
  0
VERTEX
  8
LC_OH_2021_05_O7
  10
351847.504
  20
4483207.000
  0
VERTEX
  8
LC_OH_2021_05_O7
  10
352590.504
  20
4483122.000
  0
VERTEX
  8
LC_OH_2021_05_O7
  10
353585.004
  20
4480994.000
  0
VERTEX
  8
LC_OH_2021_05_O7
  10
353584.004
  20
4480384.000
  0
VERTEX
  8
LC_OH_2021_05_O7
  10
353462.004
  20
4480296.500
  0
VERTEX
  8
LC_OH_2021_05_O7
  10
350957.504
  20
4480415.000
  0
VERTEX
  8
LC_OH_2021_05_O7
  10
350961.504
  20
4482863.500
  0
VERTEX
  8
LC_OH_2021_05_O7
  10
351341.504
  20
4483011.000
  0
VERTEX
  8
LC_OH_2021_05_O7
  10
351343.004
  20
4483011.500
  0
SEQEND
  8
LC_OH_2021_05_O7
  0
INSERT
  8
FeatureAttribs
  2
FEATURE
  41
1
  42
1
  43
1
  50
0
  10
367642.154
  20
4482200.000
 66
1
  0
ATTRIB
  8
FeatureAttribs
 70
0
  1
PNOA-H_AMS_1956-57_33k_ES_PAN_21mic_H50_0556_fot_000-18373_R.tif
  2
NAME
  10
367642.154
  20
4482200.000
 40
34.38785
  0
SEQEND
  0
POLYLINE
  8
LC_OH_2021_05_O7
  70
1
  66
1
  0
VERTEX
  8
LC_OH_2021_05_O7
  10
367374.505
  20
4483566.000
  0
VERTEX
  8
LC_OH_2021_05_O7
  10
367374.505
  20
4483567.000
  0
VERTEX
  8
LC_OH_2021_05_O7
  10
369337.506
  20
4483223.500
  0
VERTEX
  8
LC_OH_2021_05_O7
  10
367040.505
  20
4480833.000
  0
VERTEX
  8
LC_OH_2021_05_O7
  10
366945.005
  20
4481923.500
  0
VERTEX
  8
LC_OH_2021_05_O7
  10
366886.005
  20
4483030.000
  0
VERTEX
  8
LC_OH_2021_05_O7
  10
367374.505
  20
4483566.000
  0
SEQEND
  8
LC_OH_2021_05_O7
  0
INSERT
  8
FeatureAttribs
  2
FEATURE
  41
1
  42
1
  43
1
  50
0
  10
363434.150
  20
4481672.249
 66
1
  0
ATTRIB
  8
FeatureAttribs
 70
0
  1
PNOA-H_AMS_1956-57_33k_ES_PAN_21mic_H50_0556_fot_67B-18371_E.tif
  2
NAME
  10
363434.150
  20
4481672.249
 40
34.38785
  0
SEQEND
  0
POLYLINE
  8
LC_OH_2021_05_O7
  70
1
  66
1
  0
VERTEX
  8
LC_OH_2021_05_O7
  10
362826.505
  20
4483312.000
  0
VERTEX
  8
LC_OH_2021_05_O7
  10
364163.505
  20
4482966.500
  0
VERTEX
  8
LC_OH_2021_05_O7
  10
364192.005
  20
4482405.000
  0
VERTEX
  8
LC_OH_2021_05_O7
  10
364223.005
  20
4480209.000
  0
VERTEX
  8
LC_OH_2021_05_O7
  10
364223.005
  20
4480181.500
  0
VERTEX
  8
LC_OH_2021_05_O7
  10
364220.005
  20
4480181.000
  0
VERTEX
  8
LC_OH_2021_05_O7
  10
362505.005
  20
4480032.500
  0
VERTEX
  8
LC_OH_2021_05_O7
  10
362826.505
  20
4483308.000
  0
VERTEX
  8
LC_OH_2021_05_O7
  10
362826.505
  20
4483312.000
  0
SEQEND
  8
LC_OH_2021_05_O7
  0
INSERT
  8
FeatureAttribs
  2
FEATURE
  41
1
  42
1
  43
1
  50
0
  10
342893.049
  20
4478935.005
 66
1
  0
ATTRIB
  8
FeatureAttribs
 70
0
  1
PNOA-H_AMS_1956-57_33k_ES_PAN_21mic_H50_0555_fot_68C-27841_W.tif
  2
NAME
  10
342893.049
  20
4478935.005
 40
34.38785
  0
SEQEND
  0
POLYLINE
  8
LC_OH_2021_05_O7
  70
1
  66
1
  0
VERTEX
  8
LC_OH_2021_05_O7
  10
342793.400
  20
4480549.354
  0
VERTEX
  8
LC_OH_2021_05_O7
  10
343060.503
  20
4480502.000
  0
VERTEX
  8
LC_OH_2021_05_O7
  10
342986.003
  20
4477367.500
  0
VERTEX
  8
LC_OH_2021_05_O7
  10
342725.594
  20
4477320.657
  0
VERTEX
  8
LC_OH_2021_05_O7
  10
342739.185
  20
4477968.056
  0
VERTEX
  8
LC_OH_2021_05_O7
  10
342787.756
  20
4480280.726
  0
SEQEND
  8
LC_OH_2021_05_O7
  0
INSERT
  8
FeatureAttribs
  2
FEATURE
  41
1
  42
1
  43
1
  50
0
  10
357388.222
  20
4478224.250
 66
1
  0
ATTRIB
  8
FeatureAttribs
 70
0
  1
PNOA-H_AMS_1956-57_33k_ES_PAN_21mic_H50_0556_fot_68C-27835_W.tif
  2
NAME
  10
357388.222
  20
4478224.250
 40
34.38785
  0
SEQEND
  0
POLYLINE
  8
LC_OH_2021_05_O7
  70
1
  66
1
  0
VERTEX
  8
LC_OH_2021_05_O7
  10
357487.504
  20
4480173.000
  0
VERTEX
  8
LC_OH_2021_05_O7
  10
358910.505
  20
4480088.500
  0
VERTEX
  8
LC_OH_2021_05_O7
  10
358683.505
  20
4476327.500
  0
VERTEX
  8
LC_OH_2021_05_O7
  10
358296.005
  20
4476201.500
  0
VERTEX
  8
LC_OH_2021_05_O7
  10
355867.504
  20
4476460.500
  0
VERTEX
  8
LC_OH_2021_05_O7
  10
356099.504
  20
4480148.000
  0
VERTEX
  8
LC_OH_2021_05_O7
  10
356249.004
  20
4480247.000
  0
VERTEX
  8
LC_OH_2021_05_O7
  10
357486.504
  20
4480173.000
  0
VERTEX
  8
LC_OH_2021_05_O7
  10
357487.504
  20
4480173.000
  0
SEQEND
  8
LC_OH_2021_05_O7
  0
INSERT
  8
FeatureAttribs
  2
FEATURE
  41
1
  42
1
  43
1
  50
0
  10
366060.157
  20
4477889.501
 66
1
  0
ATTRIB
  8
FeatureAttribs
 70
0
  1
PNOA-H_AMS_1956-57_33k_ES_PAN_21mic_H50_0556_fot_68C-27832_W.tif
  2
NAME
  10
366060.157
  20
4477889.501
 40
34.38785
  0
SEQEND
  0
POLYLINE
  8
LC_OH_2021_05_O7
  70
1
  66
1
  0
VERTEX
  8
LC_OH_2021_05_O7
  10
367047.505
  20
4480166.000
  0
VERTEX
  8
LC_OH_2021_05_O7
  10
367051.005
  20
4480166.000
  0
VERTEX
  8
LC_OH_2021_05_O7
  10
367054.005
  20
4480164.500
  0
VERTEX
  8
LC_OH_2021_05_O7
  10
367612.505
  20
4479843.500
  0
VERTEX
  8
LC_OH_2021_05_O7
  10
367362.005
  20
4476047.000
  0
VERTEX
  8
LC_OH_2021_05_O7
  10
366338.505
  20
4475613.000
  0
VERTEX
  8
LC_OH_2021_05_O7
  10
364520.005
  20
4476126.500
  0
VERTEX
  8
LC_OH_2021_05_O7
  10
364768.005
  20
4479871.000
  0
VERTEX
  8
LC_OH_2021_05_O7
  10
364768.505
  20
4479873.000
  0
VERTEX
  8
LC_OH_2021_05_O7
  10
364776.005
  20
4479874.000
  0
VERTEX
  8
LC_OH_2021_05_O7
  10
367043.505
  20
4480165.500
  0
VERTEX
  8
LC_OH_2021_05_O7
  10
367047.505
  20
4480166.000
  0
SEQEND
  8
LC_OH_2021_05_O7
  0
INSERT
  8
FeatureAttribs
  2
FEATURE
  41
1
  42
1
  43
1
  50
0
  10
349362.154
  20
4478612.750
 66
1
  0
ATTRIB
  8
FeatureAttribs
 70
0
  1
PNOA-H_AMS_1956-57_33k_ES_PAN_21mic_H50_0556_fot_68C-27838_W.tif
  2
NAME
  10
349362.154
  20
4478612.750
 40
34.38785
  0
SEQEND
  0
POLYLINE
  8
LC_OH_2021_05_O7
  70
1
  66
1
  0
VERTEX
  8
LC_OH_2021_05_O7
  10
349295.504
  20
4480453.500
  0
VERTEX
  8
LC_OH_2021_05_O7
  10
350780.504
  20
4480287.500
  0
VERTEX
  8
LC_OH_2021_05_O7
  10
350624.504
  20
4477033.000
  0
VERTEX
  8
LC_OH_2021_05_O7
  10
349745.504
  20
4476678.000
  0
VERTEX
  8
LC_OH_2021_05_O7
  10
347983.004
  20
4477254.000
  0
VERTEX
  8
LC_OH_2021_05_O7
  10
348075.004
  20
4480297.000
  0
VERTEX
  8
LC_OH_2021_05_O7
  10
348449.004
  20
4480547.500
  0
VERTEX
  8
LC_OH_2021_05_O7
  10
349291.504
  20
4480453.500
  0
VERTEX
  8
LC_OH_2021_05_O7
  10
349295.504
  20
4480453.500
  0
SEQEND
  8
LC_OH_2021_05_O7
  0
INSERT
  8
FeatureAttribs
  2
FEATURE
  41
1
  42
1
  43
1
  50
0
  10
363189.307
  20
4477971.251
 66
1
  0
ATTRIB
  8
FeatureAttribs
 70
0
  1
PNOA-H_AMS_1956-57_33k_ES_PAN_21mic_H50_0556_fot_68C-27833_W.tif
  2
NAME
  10
363189.307
  20
4477971.251
 40
34.38785
  0
SEQEND
  0
POLYLINE
  8
LC_OH_2021_05_O7
  70
1
  66
1
  0
VERTEX
  8
LC_OH_2021_05_O7
  10
364220.005
  20
4480181.500
  0
VERTEX
  8
LC_OH_2021_05_O7
  10
364223.505
  20
4480181.500
  0
VERTEX
  8
LC_OH_2021_05_O7
  10
364226.505
  20
4480180.000
  0
VERTEX
  8
LC_OH_2021_05_O7
  10
364768.505
  20
4479873.000
  0
VERTEX
  8
LC_OH_2021_05_O7
  10
364520.005
  20
4476126.500
  0
VERTEX
  8
LC_OH_2021_05_O7
  10
363603.005
  20
4475761.000
  0
VERTEX
  8
LC_OH_2021_05_O7
  10
361652.005
  20
4476230.000
  0
VERTEX
  8
LC_OH_2021_05_O7
  10
361830.505
  20
4479919.000
  0
VERTEX
  8
LC_OH_2021_05_O7
  10
362507.005
  20
4480033.000
  0
VERTEX
  8
LC_OH_2021_05_O7
  10
364214.005
  20
4480181.000
  0
VERTEX
  8
LC_OH_2021_05_O7
  10
364220.005
  20
4480181.500
  0
SEQEND
  8
LC_OH_2021_05_O7
  0
INSERT
  8
FeatureAttribs
  2
FEATURE
  41
1
  42
1
  43
1
  50
0
  10
354658.291
  20
4478353.750
 66
1
  0
ATTRIB
  8
FeatureAttribs
 70
0
  1
PNOA-H_AMS_1956-57_33k_ES_PAN_21mic_H50_0556_fot_68C-27836_W.tif
  2
NAME
  10
354658.291
  20
4478353.750
 40
34.38785
  0
SEQEND
  0
POLYLINE
  8
LC_OH_2021_05_O7
  70
1
  66
1
  0
VERTEX
  8
LC_OH_2021_05_O7
  10
353391.004
  20
4479260.500
  0
VERTEX
  8
LC_OH_2021_05_O7
  10
353461.504
  20
4480296.500
  0
VERTEX
  8
LC_OH_2021_05_O7
  10
353583.504
  20
4480384.000
  0
VERTEX
  8
LC_OH_2021_05_O7
  10
356099.504
  20
4480148.000
  0
VERTEX
  8
LC_OH_2021_05_O7
  10
355868.004
  20
4476461.500
  0
VERTEX
  8
LC_OH_2021_05_O7
  10
355867.504
  20
4476460.000
  0
VERTEX
  8
LC_OH_2021_05_O7
  10
355793.004
  20
4476421.000
  0
VERTEX
  8
LC_OH_2021_05_O7
  10
355421.004
  20
4476326.500
  0
VERTEX
  8
LC_OH_2021_05_O7
  10
355406.004
  20
4476323.500
  0
VERTEX
  8
LC_OH_2021_05_O7
  10
353217.504
  20
4476705.500
  0
VERTEX
  8
LC_OH_2021_05_O7
  10
353391.004
  20
4479253.000
  0
VERTEX
  8
LC_OH_2021_05_O7
  10
353391.004
  20
4479260.500
  0
SEQEND
  8
LC_OH_2021_05_O7
  0
INSERT
  8
FeatureAttribs
  2
FEATURE
  41
1
  42
1
  43
1
  50
0
  10
346753.553
  20
4478748.249
 66
1
  0
ATTRIB
  8
FeatureAttribs
 70
0
  1
PNOA-H_AMS_1956-57_33k_ES_PAN_21mic_H50_0556_fot_68C-27839_W.tif
  2
NAME
  10
346753.553
  20
4478748.249
 40
34.38785
  0
SEQEND
  0
POLYLINE
  8
LC_OH_2021_05_O7
  70
1
  66
1
  0
VERTEX
  8
LC_OH_2021_05_O7
  10
347247.504
  20
4480443.500
  0
VERTEX
  8
LC_OH_2021_05_O7
  10
348075.004
  20
4480297.000
  0
VERTEX
  8
LC_OH_2021_05_O7
  10
347983.004
  20
4477254.000
  0
VERTEX
  8
LC_OH_2021_05_O7
  10
346839.504
  20
4476819.000
  0
VERTEX
  8
LC_OH_2021_05_O7
  10
345446.504
  20
4477366.000
  0
VERTEX
  8
LC_OH_2021_05_O7
  10
345518.504
  20
4480434.000
  0
VERTEX
  8
LC_OH_2021_05_O7
  10
345931.004
  20
4480677.500
  0
VERTEX
  8
LC_OH_2021_05_O7
  10
347244.504
  20
4480444.000
  0
VERTEX
  8
LC_OH_2021_05_O7
  10
347247.504
  20
4480443.500
  0
SEQEND
  8
LC_OH_2021_05_O7
  0
INSERT
  8
FeatureAttribs
  2
FEATURE
  41
1
  42
1
  43
1
  50
0
  10
352013.879
  20
4478443.750
 66
1
  0
ATTRIB
  8
FeatureAttribs
 70
0
  1
PNOA-H_AMS_1956-57_33k_ES_PAN_21mic_H50_0556_fot_68C-27837_W.tif
  2
NAME
  10
352013.879
  20
4478443.750
 40
34.38785
  0
SEQEND
  0
POLYLINE
  8
LC_OH_2021_05_O7
  70
1
  66
1
  0
VERTEX
  8
LC_OH_2021_05_O7
  10
350957.004
  20
4480415.000
  0
VERTEX
  8
LC_OH_2021_05_O7
  10
353461.504
  20
4480296.500
  0
VERTEX
  8
LC_OH_2021_05_O7
  10
353218.004
  20
4476706.500
  0
VERTEX
  8
LC_OH_2021_05_O7
  10
353205.504
  20
4476700.000
  0
VERTEX
  8
LC_OH_2021_05_O7
  10
352691.004
  20
4476472.500
  0
VERTEX
  8
LC_OH_2021_05_O7
  10
350624.504
  20
4477033.000
  0
VERTEX
  8
LC_OH_2021_05_O7
  10
350780.004
  20
4480287.000
  0
VERTEX
  8
LC_OH_2021_05_O7
  10
350956.504
  20
4480414.000
  0
VERTEX
  8
LC_OH_2021_05_O7
  10
350957.004
  20
4480415.000
  0
SEQEND
  8
LC_OH_2021_05_O7
  0
INSERT
  8
FeatureAttribs
  2
FEATURE
  41
1
  42
1
  43
1
  50
0
  10
344250.916
  20
4478842.750
 66
1
  0
ATTRIB
  8
FeatureAttribs
 70
0
  1
PNOA-H_AMS_1956-57_33k_ES_PAN_21mic_H50_0556_fot_68C-27840_W.tif
  2
NAME
  10
344250.916
  20
4478842.750
 40
34.38785
  0
SEQEND
  0
POLYLINE
  8
LC_OH_2021_05_O7
  70
1
  66
1
  0
VERTEX
  8
LC_OH_2021_05_O7
  10
343060.003
  20
4480494.000
  0
VERTEX
  8
LC_OH_2021_05_O7
  10
343061.003
  20
4480502.500
  0
VERTEX
  8
LC_OH_2021_05_O7
  10
343149.503
  20
4480554.000
  0
VERTEX
  8
LC_OH_2021_05_O7
  10
343150.503
  20
4480554.500
  0
VERTEX
  8
LC_OH_2021_05_O7
  10
343502.003
  20
4480759.500
  0
VERTEX
  8
LC_OH_2021_05_O7
  10
343506.003
  20
4480759.500
  0
VERTEX
  8
LC_OH_2021_05_O7
  10
345518.504
  20
4480433.500
  0
VERTEX
  8
LC_OH_2021_05_O7
  10
345446.004
  20
4477365.500
  0
VERTEX
  8
LC_OH_2021_05_O7
  10
343868.503
  20
4476926.000
  0
VERTEX
  8
LC_OH_2021_05_O7
  10
342986.003
  20
4477368.000
  0
SEQEND
  8
LC_OH_2021_05_O7
  0
INSERT
  8
FeatureAttribs
  2
FEATURE
  41
1
  42
1
  43
1
  50
0
  10
368884.663
  20
4477797.500
 66
1
  0
ATTRIB
  8
FeatureAttribs
 70
0
  1
PNOA-H_AMS_1956-57_33k_ES_PAN_21mic_H50_0556_fot_000-27831_R.tif
  2
NAME
  10
368884.663
  20
4477797.500
 40
34.38785
  0
SEQEND
  0
POLYLINE
  8
LC_OH_2021_05_O7
  70
1
  66
1
  0
VERTEX
  8
LC_OH_2021_05_O7
  10
367612.005
  20
4479840.000
  0
VERTEX
  8
LC_OH_2021_05_O7
  10
367613.005
  20
4479843.500
  0
VERTEX
  8
LC_OH_2021_05_O7
  10
367717.005
  20
4479852.000
  0
VERTEX
  8
LC_OH_2021_05_O7
  10
367723.005
  20
4479852.500
  0
VERTEX
  8
LC_OH_2021_05_O7
  10
370081.506
  20
4480045.500
  0
VERTEX
  8
LC_OH_2021_05_O7
  10
370088.006
  20
4480045.500
  0
VERTEX
  8
LC_OH_2021_05_O7
  10
370365.506
  20
4479888.000
  0
VERTEX
  8
LC_OH_2021_05_O7
  10
370230.006
  20
4476022.500
  0
VERTEX
  8
LC_OH_2021_05_O7
  10
369086.506
  20
4475549.500
  0
VERTEX
  8
LC_OH_2021_05_O7
  10
367361.505
  20
4476046.500
  0
SEQEND
  8
LC_OH_2021_05_O7
  0
INSERT
  8
FeatureAttribs
  2
FEATURE
  41
1
  42
1
  43
1
  50
0
  10
360263.626
  20
4478047.500
 66
1
  0
ATTRIB
  8
FeatureAttribs
 70
0
  1
PNOA-H_AMS_1956-57_33k_ES_PAN_21mic_H50_0556_fot_68C-27834_W.tif
  2
NAME
  10
360263.626
  20
4478047.500
 40
34.38785
  0
SEQEND
  0
POLYLINE
  8
LC_OH_2021_05_O7
  70
1
  66
1
  0
VERTEX
  8
LC_OH_2021_05_O7
  10
359457.005
  20
4480098.000
  0
VERTEX
  8
LC_OH_2021_05_O7
  10
361506.505
  20
4480108.000
  0
VERTEX
  8
LC_OH_2021_05_O7
  10
361830.505
  20
4479919.000
  0
VERTEX
  8
LC_OH_2021_05_O7
  10
361652.005
  20
4476230.000
  0
VERTEX
  8
LC_OH_2021_05_O7
  10
361110.505
  20
4475987.000
  0
VERTEX
  8
LC_OH_2021_05_O7
  10
358843.505
  20
4476274.500
  0
VERTEX
  8
LC_OH_2021_05_O7
  10
358683.505
  20
4476327.500
  0
VERTEX
  8
LC_OH_2021_05_O7
  10
358910.505
  20
4480089.000
  0
VERTEX
  8
LC_OH_2021_05_O7
  10
358919.005
  20
4480095.000
  0
VERTEX
  8
LC_OH_2021_05_O7
  10
359356.505
  20
4480097.500
  0
VERTEX
  8
LC_OH_2021_05_O7
  10
359457.005
  20
4480098.000
  0
SEQEND
  8
LC_OH_2021_05_O7
  0
INSERT
  8
FeatureAttribs
  2
FEATURE
  41
1
  42
1
  43
1
  50
0
  10
370642.420
  20
4477845.579
 66
1
  0
ATTRIB
  8
FeatureAttribs
 70
0
  1
PNOA-H_AMS_1956-57_33k_ES_PAN_21mic_H50_0557_fot_000-27830_R.tif
  2
NAME
  10
370642.420
  20
4477845.579
 40
34.38785
  0
SEQEND
  0
POLYLINE
  8
LC_OH_2021_05_O7
  70
1
  66
1
  0
VERTEX
  8
LC_OH_2021_05_O7
  10
370983.523
  20
4475775.175
  0
VERTEX
  8
LC_OH_2021_05_O7
  10
370230.006
  20
4476022.500
  0
VERTEX
  8
LC_OH_2021_05_O7
  10
370365.506
  20
4479887.500
  0
VERTEX
  8
LC_OH_2021_05_O7
  10
371054.835
  20
4479915.982
  0
VERTEX
  8
LC_OH_2021_05_O7
  10
371051.809
  20
4479740.397
  0
VERTEX
  8
LC_OH_2021_05_O7
  10
371011.976
  20
4477427.791
  0
SEQEND
  8
LC_OH_2021_05_O7
  0
INSERT
  8
FeatureAttribs
  2
FEATURE
  41
1
  42
1
  43
1
  50
0
  10
343223.324
  20
4466779.456
 66
1
  0
ATTRIB
  8
FeatureAttribs
 70
0
  1
PNOA-H_AMS_1956-57_33k_ES_PAN_21mic_H50_0578_fot_000-29369_R.tif
  2
NAME
  10
343223.324
  20
4466779.456
 40
34.38785
  0
SEQEND
  0
POLYLINE
  8
LC_OH_2021_05_O7
  70
1
  66
1
  0
VERTEX
  8
LC_OH_2021_05_O7
  10
343819.558
  20
4466377.412
  0
VERTEX
  8
LC_OH_2021_05_O7
  10
342496.645
  20
4466404.819
  0
VERTEX
  8
LC_OH_2021_05_O7
  10
342511.496
  20
4467113.451
  0
VERTEX
  8
LC_OH_2021_05_O7
  10
343136.503
  20
4467148.500
  0
VERTEX
  8
LC_OH_2021_05_O7
  10
343145.503
  20
4467149.000
  0
VERTEX
  8
LC_OH_2021_05_O7
  10
343727.003
  20
4467181.500
  0
VERTEX
  8
LC_OH_2021_05_O7
  10
343950.003
  20
4467049.000
  0
SEQEND
  8
LC_OH_2021_05_O7
  0
INSERT
  8
FeatureAttribs
  2
FEATURE
  41
1
  42
1
  43
1
  50
0
  10
345355.134
  20
4466582.499
 66
1
  0
ATTRIB
  8
FeatureAttribs
 70
0
  1
PNOA-H_AMS_1956-57_33k_ES_PAN_21mic_H50_0579_fot_000-29370_R.tif
  2
NAME
  10
345355.134
  20
4466582.499
 40
34.38785
  0
SEQEND
  0
POLYLINE
  8
LC_OH_2021_05_O7
  70
1
  66
1
  0
VERTEX
  8
LC_OH_2021_05_O7
  10
346388.182
  20
4466324.364
  0
VERTEX
  8
LC_OH_2021_05_O7
  10
346036.243
  20
4466331.489
  0
VERTEX
  8
LC_OH_2021_05_O7
  10
344369.190
  20
4466366.025
  0
VERTEX
  8
LC_OH_2021_05_O7
  10
344218.003
  20
4466992.000
  0
VERTEX
  8
LC_OH_2021_05_O7
  10
344218.003
  20
4466994.500
  0
VERTEX
  8
LC_OH_2021_05_O7
  10
344262.503
  20
4466995.000
  0
VERTEX
  8
LC_OH_2021_05_O7
  10
346231.004
  20
4467014.500
  0
VERTEX
  8
LC_OH_2021_05_O7
  10
346281.504
  20
4467015.000
  0
VERTEX
  8
LC_OH_2021_05_O7
  10
346291.004
  20
4467014.500
  0
VERTEX
  8
LC_OH_2021_05_O7
  10
346400.504
  20
4466939.000
  0
SEQEND
  8
LC_OH_2021_05_O7
  0
INSERT
  8
FeatureAttribs
  2
FEATURE
  41
1
  42
1
  43
1
  50
0
  10
347651.036
  20
4466544.499
 66
1
  0
ATTRIB
  8
FeatureAttribs
 70
0
  1
PNOA-H_AMS_1956-57_33k_ES_PAN_21mic_H50_0579_fot_000-29371_R.tif
  2
NAME
  10
347651.036
  20
4466544.499
 40
34.38785
  0
SEQEND
  0
POLYLINE
  8
LC_OH_2021_05_O7
  70
1
  66
1
  0
VERTEX
  8
LC_OH_2021_05_O7
  10
348901.782
  20
4466273.473
  0
VERTEX
  8
LC_OH_2021_05_O7
  10
346388.182
  20
4466324.364
  0
VERTEX
  8
LC_OH_2021_05_O7
  10
346400.504
  20
4466939.000
  0
VERTEX
  8
LC_OH_2021_05_O7
  10
347240.004
  20
4466894.000
  0
VERTEX
  8
LC_OH_2021_05_O7
  10
347247.504
  20
4466894.000
  0
VERTEX
  8
LC_OH_2021_05_O7
  10
348813.004
  20
4466811.000
  0
VERTEX
  8
LC_OH_2021_05_O7
  10
348819.504
  20
4466807.500
  0
VERTEX
  8
LC_OH_2021_05_O7
  10
348915.004
  20
4466740.000
  0
SEQEND
  8
LC_OH_2021_05_O7
  0
INSERT
  8
FeatureAttribs
  2
FEATURE
  41
1
  42
1
  43
1
  50
0
  10
355458.791
  20
4466296.499
 66
1
  0
ATTRIB
  8
FeatureAttribs
 70
0
  1
PNOA-H_AMS_1956-57_33k_ES_PAN_21mic_H50_0579_fot_000-29374_R.tif
  2
NAME
  10
355458.791
  20
4466296.499
 40
34.38785
  0
SEQEND
  0
POLYLINE
  8
LC_OH_2021_05_O7
  70
1
  66
1
  0
VERTEX
  8
LC_OH_2021_05_O7
  10
356953.809
  20
4466115.878
  0
VERTEX
  8
LC_OH_2021_05_O7
  10
356654.956
  20
4466121.506
  0
VERTEX
  8
LC_OH_2021_05_O7
  10
354189.171
  20
4466169.105
  0
VERTEX
  8
LC_OH_2021_05_O7
  10
354190.504
  20
4466307.500
  0
VERTEX
  8
LC_OH_2021_05_O7
  10
355621.004
  20
4466712.500
  0
VERTEX
  8
LC_OH_2021_05_O7
  10
355622.504
  20
4466713.000
  0
VERTEX
  8
LC_OH_2021_05_O7
  10
355626.004
  20
4466713.000
  0
VERTEX
  8
LC_OH_2021_05_O7
  10
355642.004
  20
4466707.000
  0
VERTEX
  8
LC_OH_2021_05_O7
  10
356954.504
  20
4466210.500
  0
SEQEND
  8
LC_OH_2021_05_O7
  0
INSERT
  8
FeatureAttribs
  2
FEATURE
  41
1
  42
1
  43
1
  50
0
  10
366051.610
  20
4466184.748
 66
1
  0
ATTRIB
  8
FeatureAttribs
 70
0
  1
PNOA-H_AMS_1956-57_33k_ES_PAN_21mic_H50_0579_fot_000-29378_R.tif
  2
NAME
  10
366051.610
  20
4466184.748
 40
34.38785
  0
SEQEND
  0
POLYLINE
  8
LC_OH_2021_05_O7
  70
1
  66
1
  0
VERTEX
  8
LC_OH_2021_05_O7
  10
367512.012
  20
4465922.378
  0
VERTEX
  8
LC_OH_2021_05_O7
  10
367273.557
  20
4465926.532
  0
VERTEX
  8
LC_OH_2021_05_O7
  10
364795.357
  20
4465970.868
  0
VERTEX
  8
LC_OH_2021_05_O7
  10
364792.005
  20
4466115.000
  0
VERTEX
  8
LC_OH_2021_05_O7
  10
365665.505
  20
4466609.000
  0
VERTEX
  8
LC_OH_2021_05_O7
  10
365668.005
  20
4466609.500
  0
VERTEX
  8
LC_OH_2021_05_O7
  10
365677.005
  20
4466606.500
  0
VERTEX
  8
LC_OH_2021_05_O7
  10
365679.505
  20
4466606.000
  0
VERTEX
  8
LC_OH_2021_05_O7
  10
367511.005
  20
4466094.500
  0
SEQEND
  8
LC_OH_2021_05_O7
  0
INSERT
  8
FeatureAttribs
  2
FEATURE
  41
1
  42
1
  43
1
  50
0
  10
360941.129
  20
4466237.999
 66
1
  0
ATTRIB
  8
FeatureAttribs
 70
0
  1
PNOA-H_AMS_1956-57_33k_ES_PAN_21mic_H50_0579_fot_000-29376_R.tif
  2
NAME
  10
360941.129
  20
4466237.999
 40
34.38785
  0
SEQEND
  0
POLYLINE
  8
LC_OH_2021_05_O7
  70
1
  66
1
  0
VERTEX
  8
LC_OH_2021_05_O7
  10
362245.673
  20
4466017.184
  0
VERTEX
  8
LC_OH_2021_05_O7
  10
360194.501
  20
4466054.847
  0
VERTEX
  8
LC_OH_2021_05_O7
  10
359677.961
  20
4466064.575
  0
VERTEX
  8
LC_OH_2021_05_O7
  10
359678.005
  20
4466187.000
  0
VERTEX
  8
LC_OH_2021_05_O7
  10
360424.005
  20
4466596.000
  0
VERTEX
  8
LC_OH_2021_05_O7
  10
361580.505
  20
4466350.500
  0
VERTEX
  8
LC_OH_2021_05_O7
  10
361583.505
  20
4466350.000
  0
VERTEX
  8
LC_OH_2021_05_O7
  10
362245.505
  20
4466209.500
  0
SEQEND
  8
LC_OH_2021_05_O7
  0
INSERT
  8
FeatureAttribs
  2
FEATURE
  41
1
  42
1
  43
1
  50
0
  10
363375.390
  20
4466199.749
 66
1
  0
ATTRIB
  8
FeatureAttribs
 70
0
  1
PNOA-H_AMS_1956-57_33k_ES_PAN_21mic_H50_0579_fot_000-29377_R.tif
  2
NAME
  10
363375.390
  20
4466199.749
 40
34.38785
  0
SEQEND
  0
POLYLINE
  8
LC_OH_2021_05_O7
  70
1
  66
1
  0
VERTEX
  8
LC_OH_2021_05_O7
  10
364795.346
  20
4465970.868
  0
VERTEX
  8
LC_OH_2021_05_O7
  10
363734.035
  20
4465989.856
  0
VERTEX
  8
LC_OH_2021_05_O7
  10
362245.674
  20
4466017.184
  0
VERTEX
  8
LC_OH_2021_05_O7
  10
362245.505
  20
4466210.000
  0
VERTEX
  8
LC_OH_2021_05_O7
  10
363026.005
  20
4466639.500
  0
VERTEX
  8
LC_OH_2021_05_O7
  10
363629.505
  20
4466460.000
  0
VERTEX
  8
LC_OH_2021_05_O7
  10
363631.505
  20
4466459.500
  0
VERTEX
  8
LC_OH_2021_05_O7
  10
364792.005
  20
4466114.500
  0
SEQEND
  8
LC_OH_2021_05_O7
  0
INSERT
  8
FeatureAttribs
  2
FEATURE
  41
1
  42
1
  43
1
  50
0
  10
350213.745
  20
4466393.749
 66
1
  0
ATTRIB
  8
FeatureAttribs
 70
0
  1
PNOA-H_AMS_1956-57_33k_ES_PAN_21mic_H50_0579_fot_000-29372_R.tif
  2
NAME
  10
350213.745
  20
4466393.749
 40
34.38785
  0
SEQEND
  0
POLYLINE
  8
LC_OH_2021_05_O7
  70
1
  66
1
  0
VERTEX
  8
LC_OH_2021_05_O7
  10
351518.496
  20
4466221.411
  0
VERTEX
  8
LC_OH_2021_05_O7
  10
349575.826
  20
4466259.827
  0
VERTEX
  8
LC_OH_2021_05_O7
  10
348901.743
  20
4466273.474
  0
VERTEX
  8
LC_OH_2021_05_O7
  10
348915.004
  20
4466739.500
  0
VERTEX
  8
LC_OH_2021_05_O7
  10
349231.004
  20
4466744.000
  0
VERTEX
  8
LC_OH_2021_05_O7
  10
349270.504
  20
4466744.500
  0
VERTEX
  8
LC_OH_2021_05_O7
  10
351077.004
  20
4466767.500
  0
VERTEX
  8
LC_OH_2021_05_O7
  10
351524.004
  20
4466497.500
  0
VERTEX
  8
LC_OH_2021_05_O7
  10
351524.504
  20
4466492.000
  0
SEQEND
  8
LC_OH_2021_05_O7
  0
INSERT
  8
FeatureAttribs
  2
FEATURE
  41
1
  42
1
  43
1
  50
0
  10
358231.268
  20
4466264.499
 66
1
  0
ATTRIB
  8
FeatureAttribs
 70
0
  1
PNOA-H_AMS_1956-57_33k_ES_PAN_21mic_H50_0579_fot_000-29375_R.tif
  2
NAME
  10
358231.268
  20
4466264.499
 40
34.38785
  0
SEQEND
  0
POLYLINE
  8
LC_OH_2021_05_O7
  70
1
  66
1
  0
VERTEX
  8
LC_OH_2021_05_O7
  10
359677.939
  20
4466064.575
  0
VERTEX
  8
LC_OH_2021_05_O7
  10
356953.809
  20
4466115.878
  0
VERTEX
  8
LC_OH_2021_05_O7
  10
356954.504
  20
4466210.500
  0
VERTEX
  8
LC_OH_2021_05_O7
  10
357485.504
  20
4466445.500
  0
VERTEX
  8
LC_OH_2021_05_O7
  10
357486.504
  20
4466446.000
  0
VERTEX
  8
LC_OH_2021_05_O7
  10
357946.505
  20
4466649.000
  0
VERTEX
  8
LC_OH_2021_05_O7
  10
359678.005
  20
4466186.500
  0
SEQEND
  8
LC_OH_2021_05_O7
  0
INSERT
  8
FeatureAttribs
  2
FEATURE
  41
1
  42
1
  43
1
  50
0
  10
352785.190
  20
4466379.999
 66
1
  0
ATTRIB
  8
FeatureAttribs
 70
0
  1
PNOA-H_AMS_1956-57_33k_ES_PAN_21mic_H50_0579_fot_000-29373_R.tif
  2
NAME
  10
352785.190
  20
4466379.999
 40
34.38785
  0
SEQEND
  0
POLYLINE
  8
LC_OH_2021_05_O7
  70
1
  66
1
  0
VERTEX
  8
LC_OH_2021_05_O7
  10
354189.166
  20
4466169.105
  0
VERTEX
  8
LC_OH_2021_05_O7
  10
353115.397
  20
4466189.832
  0
VERTEX
  8
LC_OH_2021_05_O7
  10
351518.394
  20
4466221.413
  0
VERTEX
  8
LC_OH_2021_05_O7
  10
351524.504
  20
4466497.000
  0
VERTEX
  8
LC_OH_2021_05_O7
  10
353335.004
  20
4466740.000
  0
VERTEX
  8
LC_OH_2021_05_O7
  10
353339.004
  20
4466740.000
  0
VERTEX
  8
LC_OH_2021_05_O7
  10
353390.004
  20
4466713.500
  0
VERTEX
  8
LC_OH_2021_05_O7
  10
353391.504
  20
4466713.000
  0
VERTEX
  8
LC_OH_2021_05_O7
  10
354190.504
  20
4466308.000
  0
SEQEND
  8
LC_OH_2021_05_O7
  0
INSERT
  8
FeatureAttribs
  2
FEATURE
  41
1
  42
1
  43
1
  50
0
  10
368939.281
  20
4466149.499
 66
1
  0
ATTRIB
  8
FeatureAttribs
 70
0
  1
PNOA-H_AMS_1956-57_33k_ES_PAN_21mic_H50_0579_fot_000-29379_R.tif
  2
NAME
  10
368939.281
  20
4466149.499
 40
34.38785
  0
SEQEND
  0
POLYLINE
  8
LC_OH_2021_05_O7
  70
1
  66
1
  0
VERTEX
  8
LC_OH_2021_05_O7
  10
370278.067
  20
4465874.195
  0
VERTEX
  8
LC_OH_2021_05_O7
  10
367512.012
  20
4465922.378
  0
VERTEX
  8
LC_OH_2021_05_O7
  10
367511.005
  20
4466094.500
  0
VERTEX
  8
LC_OH_2021_05_O7
  10
367726.005
  20
4466228.000
  0
VERTEX
  8
LC_OH_2021_05_O7
  10
367726.505
  20
4466229.000
  0
VERTEX
  8
LC_OH_2021_05_O7
  10
368222.506
  20
4466537.500
  0
VERTEX
  8
LC_OH_2021_05_O7
  10
368225.006
  20
4466539.000
  0
VERTEX
  8
LC_OH_2021_05_O7
  10
368229.006
  20
4466539.000
  0
VERTEX
  8
LC_OH_2021_05_O7
  10
370279.006
  20
4466160.000
  0
SEQEND
  8
LC_OH_2021_05_O7
  0
INSERT
  8
FeatureAttribs
  2
FEATURE
  41
1
  42
1
  43
1
  50
0
  10
370648.863
  20
4466174.000
 66
1
  0
ATTRIB
  8
FeatureAttribs
 70
0
  1
PNOA-H_AMS_1956-57_33k_ES_PAN_21mic_H50_0580_fot_29380.tif
  2
NAME
  10
370648.863
  20
4466174.000
 40
34.38785
  0
SEQEND
  0
POLYLINE
  8
LC_OH_2021_05_O7
  70
1
  66
1
  0
VERTEX
  8
LC_OH_2021_05_O7
  10
370825.163
  20
4466568.663
  0
VERTEX
  8
LC_OH_2021_05_O7
  10
370813.067
  20
4465864.876
  0
VERTEX
  8
LC_OH_2021_05_O7
  10
370278.067
  20
4465874.195
  0
VERTEX
  8
LC_OH_2021_05_O7
  10
370279.006
  20
4466160.000
  0
SEQEND
  8
LC_OH_2021_05_O7
  0
INSERT
  8
FeatureAttribs
  2
FEATURE
  41
1
  42
1
  43
1
  50
0
  10
356425.874
  20
4482388.751
 66
1
  0
ATTRIB
  8
FeatureAttribs
 70
0
  1
PNOA-H_AMS_1956-57_33k_ES_PAN_21mic_H50_0556_fot_000-11005_R.tif
  2
NAME
  10
356425.874
  20
4482388.751
 40
34.38785
  0
SEQEND
  0
POLYLINE
  8
LC_OH_2021_05_O7
  70
1
  66
1
  0
VERTEX
  8
LC_OH_2021_05_O7
  10
356519.004
  20
4483958.500
  0
VERTEX
  8
LC_OH_2021_05_O7
  10
356520.504
  20
4483958.500
  0
VERTEX
  8
LC_OH_2021_05_O7
  10
356546.004
  20
4483939.000
  0
VERTEX
  8
LC_OH_2021_05_O7
  10
357486.504
  20
4483214.000
  0
VERTEX
  8
LC_OH_2021_05_O7
  10
357487.504
  20
4483213.500
  0
VERTEX
  8
LC_OH_2021_05_O7
  10
357566.504
  20
4483153.000
  0
VERTEX
  8
LC_OH_2021_05_O7
  10
357565.504
  20
4483149.500
  0
VERTEX
  8
LC_OH_2021_05_O7
  10
356253.004
  20
4480819.000
  0
VERTEX
  8
LC_OH_2021_05_O7
  10
355467.004
  20
4483111.000
  0
SEQEND
  8
LC_OH_2021_05_O7
  0
INSERT
  8
FeatureAttribs
  2
FEATURE
  41
1
  42
1
  43
1
  50
0
  10
365611.867
  20
4481138.500
 66
1
  0
ATTRIB
  8
FeatureAttribs
 70
0
  1
PNOA-H_AMS_1956-57_33k_ES_PAN_21mic_H50_0556_fot_000-11002_R.tif
  2
NAME
  10
365611.867
  20
4481138.500
 40
34.38785
  0
SEQEND
  0
POLYLINE
  8
LC_OH_2021_05_O7
  70
1
  66
1
  0
VERTEX
  8
LC_OH_2021_05_O7
  10
364192.005
  20
4482404.000
  0
VERTEX
  8
LC_OH_2021_05_O7
  10
366944.505
  20
4481926.500
  0
VERTEX
  8
LC_OH_2021_05_O7
  10
367040.505
  20
4480838.000
  0
VERTEX
  8
LC_OH_2021_05_O7
  10
367050.505
  20
4480183.500
  0
VERTEX
  8
LC_OH_2021_05_O7
  10
367050.505
  20
4480166.000
  0
VERTEX
  8
LC_OH_2021_05_O7
  10
367047.505
  20
4480165.500
  0
VERTEX
  8
LC_OH_2021_05_O7
  10
364772.505
  20
4479873.000
  0
VERTEX
  8
LC_OH_2021_05_O7
  10
364765.505
  20
4479874.000
  0
VERTEX
  8
LC_OH_2021_05_O7
  10
364223.505
  20
4480181.000
  0
VERTEX
  8
LC_OH_2021_05_O7
  10
364192.005
  20
4482372.500
  0
VERTEX
  8
LC_OH_2021_05_O7
  10
364192.005
  20
4482404.000
  0
SEQEND
  8
LC_OH_2021_05_O7
  0
INSERT
  8
FeatureAttribs
  2
FEATURE
  41
1
  42
1
  43
1
  50
0
  10
359231.517
  20
4482028.250
 66
1
  0
ATTRIB
  8
FeatureAttribs
 70
0
  1
PNOA-H_AMS_1956-57_33k_ES_PAN_21mic_H50_0556_fot_000-11004_R.tif
  2
NAME
  10
359231.517
  20
4482028.250
 40
34.38785
  0
SEQEND
  0
POLYLINE
  8
LC_OH_2021_05_O7
  70
1
  66
1
  0
VERTEX
  8
LC_OH_2021_05_O7
  10
359292.505
  20
4483766.500
  0
VERTEX
  8
LC_OH_2021_05_O7
  10
360461.005
  20
4483152.500
  0
VERTEX
  8
LC_OH_2021_05_O7
  10
360466.505
  20
4483149.500
  0
VERTEX
  8
LC_OH_2021_05_O7
  10
360466.505
  20
4483148.500
  0
VERTEX
  8
LC_OH_2021_05_O7
  10
358925.005
  20
4480303.000
  0
VERTEX
  8
LC_OH_2021_05_O7
  10
358917.005
  20
4480290.000
  0
VERTEX
  8
LC_OH_2021_05_O7
  10
358425.005
  20
4483017.000
  0
VERTEX
  8
LC_OH_2021_05_O7
  10
359292.005
  20
4483765.500
  0
VERTEX
  8
LC_OH_2021_05_O7
  10
359292.505
  20
4483766.500
  0
SEQEND
  8
LC_OH_2021_05_O7
  0
INSERT
  8
FeatureAttribs
  2
FEATURE
  41
1
  42
1
  43
1
  50
0
  10
362043.160
  20
4481770.749
 66
1
  0
ATTRIB
  8
FeatureAttribs
 70
0
  1
PNOA-H_AMS_1956-57_33k_ES_PAN_21mic_H50_0556_fot_000-11003_R.tif
  2
NAME
  10
362043.160
  20
4481770.749
 40
34.38785
  0
SEQEND
  0
POLYLINE
  8
LC_OH_2021_05_O7
  70
1
  66
1
  0
VERTEX
  8
LC_OH_2021_05_O7
  10
361583.005
  20
4483203.500
  0
VERTEX
  8
LC_OH_2021_05_O7
  10
362071.005
  20
4483622.500
  0
VERTEX
  8
LC_OH_2021_05_O7
  10
362826.505
  20
4483312.000
  0
VERTEX
  8
LC_OH_2021_05_O7
  10
362505.005
  20
4480032.500
  0
VERTEX
  8
LC_OH_2021_05_O7
  10
361830.005
  20
4479919.000
  0
VERTEX
  8
LC_OH_2021_05_O7
  10
361506.505
  20
4480107.500
  0
VERTEX
  8
LC_OH_2021_05_O7
  10
361340.505
  20
4482995.500
  0
VERTEX
  8
LC_OH_2021_05_O7
  10
361582.505
  20
4483202.500
  0
VERTEX
  8
LC_OH_2021_05_O7
  10
361583.005
  20
4483203.500
  0
SEQEND
  8
LC_OH_2021_05_O7
  0
INSERT
  8
FeatureAttribs
  2
FEATURE
  41
1
  42
1
  43
1
  50
0
  10
368827.292
  20
4481533.250
 66
1
  0
ATTRIB
  8
FeatureAttribs
 70
0
  1
PNOA-H_AMS_1956-57_33k_ES_PAN_21mic_H50_0556_fot_000-11001_R.tif
  2
NAME
  10
368827.292
  20
4481533.250
 40
34.38785
  0
SEQEND
  0
POLYLINE
  8
LC_OH_2021_05_O7
  70
1
  66
1
  0
VERTEX
  8
LC_OH_2021_05_O7
  10
369337.006
  20
4483222.500
  0
VERTEX
  8
LC_OH_2021_05_O7
  10
369337.506
  20
4483223.500
  0
VERTEX
  8
LC_OH_2021_05_O7
  10
369712.006
  20
4483199.500
  0
VERTEX
  8
LC_OH_2021_05_O7
  10
370066.006
  20
4480624.500
  0
VERTEX
  8
LC_OH_2021_05_O7
  10
370087.006
  20
4480045.500
  0
VERTEX
  8
LC_OH_2021_05_O7
  10
367612.505
  20
4479843.000
  0
VERTEX
  8
LC_OH_2021_05_O7
  10
367050.505
  20
4480166.000
  0
VERTEX
  8
LC_OH_2021_05_O7
  10
367040.505
  20
4480833.000
  0
SEQEND
  8
LC_OH_2021_05_O7
  0
INSERT
  8
FeatureAttribs
  2
FEATURE
  41
1
  42
1
  43
1
  50
0
  10
353659.996
  20
4482516.000
 66
1
  0
ATTRIB
  8
FeatureAttribs
 70
0
  1
PNOA-H_AMS_1956-57_33k_ES_PAN_21mic_H50_0556_fot_000-11006_R.tif
  2
NAME
  10
353659.996
  20
4482516.000
 40
34.38785
  0
SEQEND
  0
POLYLINE
  8
LC_OH_2021_05_O7
  70
1
  66
1
  0
VERTEX
  8
LC_OH_2021_05_O7
  10
353792.004
  20
4484038.000
  0
VERTEX
  8
LC_OH_2021_05_O7
  10
353792.504
  20
4484039.000
  0
VERTEX
  8
LC_OH_2021_05_O7
  10
353798.504
  20
4484035.000
  0
VERTEX
  8
LC_OH_2021_05_O7
  10
354807.004
  20
4483153.500
  0
VERTEX
  8
LC_OH_2021_05_O7
  10
353585.004
  20
4480993.000
  0
VERTEX
  8
LC_OH_2021_05_O7
  10
352590.004
  20
4483123.000
  0
SEQEND
  8
LC_OH_2021_05_O7
  0
INSERT
  8
FeatureAttribs
  2
FEATURE
  41
1
  42
1
  43
1
  50
0
  10
370579.138
  20
4480987.990
 66
1
  0
ATTRIB
  8
FeatureAttribs
 70
0
  1
PNOA-H_AMS_1956-57_33k_ES_PAN_21mic_H50_0557_fot_000-11000_R.tif
  2
NAME
  10
370579.138
  20
4480987.990
 40
34.38785
  0
SEQEND
  0
POLYLINE
  8
LC_OH_2021_05_O7
  70
1
  66
1
  0
VERTEX
  8
LC_OH_2021_05_O7
  10
371054.834
  20
4479915.916
  0
VERTEX
  8
LC_OH_2021_05_O7
  10
370365.506
  20
4479887.500
  0
VERTEX
  8
LC_OH_2021_05_O7
  10
370087.006
  20
4480045.500
  0
VERTEX
  8
LC_OH_2021_05_O7
  10
370066.006
  20
4480616.500
  0
VERTEX
  8
LC_OH_2021_05_O7
  10
370066.006
  20
4480622.500
  0
VERTEX
  8
LC_OH_2021_05_O7
  10
370072.006
  20
4480631.500
  0
VERTEX
  8
LC_OH_2021_05_O7
  10
371092.271
  20
4482088.480
  0
VERTEX
  8
LC_OH_2021_05_O7
  10
371091.659
  20
4482053.011
  0
SEQEND
  8
LC_OH_2021_05_O7
  0
INSERT
  8
FeatureAttribs
  2
FEATURE
  41
1
  42
1
  43
1
  50
0
  10
346550.673
  20
4483956.225
 66
1
  0
ATTRIB
  8
FeatureAttribs
 70
0
  1
PNOA-H_AMS_1956-57_33k_ES_PAN_21mic_H50_0531_fot_000-51047_R.tif
  2
NAME
  10
346550.673
  20
4483956.225
 40
34.38785
  0
SEQEND
  0
POLYLINE
  8
LC_OH_2021_05_O7
  70
1
  66
1
  0
VERTEX
  8
LC_OH_2021_05_O7
  10
347150.342
  20
4484817.766
  0
VERTEX
  8
LC_OH_2021_05_O7
  10
347068.504
  20
4483328.500
  0
VERTEX
  8
LC_OH_2021_05_O7
  10
346073.004
  20
4483072.000
  0
VERTEX
  8
LC_OH_2021_05_O7
  10
345951.004
  20
4483165.500
  0
VERTEX
  8
LC_OH_2021_05_O7
  10
346042.411
  20
4484840.451
  0
VERTEX
  8
LC_OH_2021_05_O7
  10
346415.824
  20
4484832.688
  0
SEQEND
  8
LC_OH_2021_05_O7
  0
INSERT
  8
FeatureAttribs
  2
FEATURE
  41
1
  42
1
  43
1
  50
0
  10
343556.527
  20
4484079.544
 66
1
  0
ATTRIB
  8
FeatureAttribs
 70
0
  1
PNOA-H_AMS_1956-57_33k_ES_PAN_21mic_H50_0531_fot_000-51045_R.tif
  2
NAME
  10
343556.527
  20
4484079.544
 40
34.38785
  0
SEQEND
  0
POLYLINE
  8
LC_OH_2021_05_O7
  70
1
  66
1
  0
VERTEX
  8
LC_OH_2021_05_O7
  10
344258.347
  20
4484877.538
  0
VERTEX
  8
LC_OH_2021_05_O7
  10
344196.003
  20
4483650.500
  0
VERTEX
  8
LC_OH_2021_05_O7
  10
343616.503
  20
4483253.000
  0
VERTEX
  8
LC_OH_2021_05_O7
  10
343597.503
  20
4483257.500
  0
VERTEX
  8
LC_OH_2021_05_O7
  10
342854.707
  20
4483466.831
  0
VERTEX
  8
LC_OH_2021_05_O7
  10
342884.960
  20
4484906.088
  0
SEQEND
  8
LC_OH_2021_05_O7
  0
INSERT
  8
FeatureAttribs
  2
FEATURE
  41
1
  42
1
  43
1
  50
0
  10
351286.433
  20
4484647.748
 66
1
  0
ATTRIB
  8
FeatureAttribs
 70
0
  1
PNOA-H_AMS_1956-57_33k_ES_PAN_21mic_H50_0531_fot_000-51050_R.tif
  2
NAME
  10
351286.433
  20
4484647.748
 40
34.38785
  0
SEQEND
  0
POLYLINE
  8
LC_OH_2021_05_O7
  70
1
  66
1
  0
VERTEX
  8
LC_OH_2021_05_O7
  10
351886.733
  20
4484722.463
  0
VERTEX
  8
LC_OH_2021_05_O7
  10
351848.004
  20
4483207.000
  0
VERTEX
  8
LC_OH_2021_05_O7
  10
350962.004
  20
4482863.500
  0
VERTEX
  8
LC_OH_2021_05_O7
  10
350954.504
  20
4482867.500
  0
VERTEX
  8
LC_OH_2021_05_O7
  10
350632.504
  20
4483081.000
  0
VERTEX
  8
LC_OH_2021_05_O7
  10
350691.508
  20
4484746.179
  0
SEQEND
  8
LC_OH_2021_05_O7
  0
INSERT
  8
FeatureAttribs
  2
FEATURE
  41
1
  42
1
  43
1
  50
0
  10
347975.239
  20
4483949.633
 66
1
  0
ATTRIB
  8
FeatureAttribs
 70
0
  1
PNOA-H_AMS_1956-57_33k_ES_PAN_21mic_H50_0531_fot_000-51048_R.tif
  2
NAME
  10
347975.239
  20
4483949.633
 40
34.38785
  0
SEQEND
  0
POLYLINE
  8
LC_OH_2021_05_O7
  70
1
  66
1
  0
VERTEX
  8
LC_OH_2021_05_O7
  10
348881.974
  20
4484782.588
  0
VERTEX
  8
LC_OH_2021_05_O7
  10
348828.004
  20
4483346.500
  0
VERTEX
  8
LC_OH_2021_05_O7
  10
348504.504
  20
4483081.500
  0
VERTEX
  8
LC_OH_2021_05_O7
  10
347068.504
  20
4483328.500
  0
VERTEX
  8
LC_OH_2021_05_O7
  10
347150.354
  20
4484817.766
  0
SEQEND
  8
LC_OH_2021_05_O7
  0
INSERT
  8
FeatureAttribs
  2
FEATURE
  41
1
  42
1
  43
1
  50
0
  10
345119.207
  20
4484021.519
 66
1
  0
ATTRIB
  8
FeatureAttribs
 70
0
  1
PNOA-H_AMS_1956-57_33k_ES_PAN_21mic_H50_0531_fot_000-51046_R.tif
  2
NAME
  10
345119.207
  20
4484021.519
 40
34.38785
  0
SEQEND
  0
POLYLINE
  8
LC_OH_2021_05_O7
  70
1
  66
1
  0
VERTEX
  8
LC_OH_2021_05_O7
  10
346042.411
  20
4484840.451
  0
VERTEX
  8
LC_OH_2021_05_O7
  10
345951.004
  20
4483165.500
  0
VERTEX
  8
LC_OH_2021_05_O7
  10
344196.003
  20
4483650.500
  0
VERTEX
  8
LC_OH_2021_05_O7
  10
344258.347
  20
4484877.538
  0
SEQEND
  8
LC_OH_2021_05_O7
  0
INSERT
  8
FeatureAttribs
  2
FEATURE
  41
1
  42
1
  43
1
  50
0
  10
352823.154
  20
4483922.481
 66
1
  0
ATTRIB
  8
FeatureAttribs
 70
0
  1
PNOA-H_AMS_1956-57_33k_ES_PAN_21mic_H50_0531_fot_000-51051_R.tif
  2
NAME
  10
352823.154
  20
4483922.481
 40
34.38785
  0
SEQEND
  0
POLYLINE
  8
LC_OH_2021_05_O7
  70
1
  66
1
  0
VERTEX
  8
LC_OH_2021_05_O7
  10
353798.303
  20
4484684.684
  0
VERTEX
  8
LC_OH_2021_05_O7
  10
353793.004
  20
4484039.000
  0
VERTEX
  8
LC_OH_2021_05_O7
  10
352595.004
  20
4483126.000
  0
VERTEX
  8
LC_OH_2021_05_O7
  10
352591.004
  20
4483123.000
  0
VERTEX
  8
LC_OH_2021_05_O7
  10
352588.004
  20
4483122.500
  0
VERTEX
  8
LC_OH_2021_05_O7
  10
351848.004
  20
4483207.000
  0
VERTEX
  8
LC_OH_2021_05_O7
  10
351886.733
  20
4484722.463
  0
VERTEX
  8
LC_OH_2021_05_O7
  10
353477.513
  20
4484690.898
  0
SEQEND
  8
LC_OH_2021_05_O7
  0
INSERT
  8
FeatureAttribs
  2
FEATURE
  41
1
  42
1
  43
1
  50
0
  10
355157.401
  20
4483897.842
 66
1
  0
ATTRIB
  8
FeatureAttribs
 70
0
  1
PNOA-H_AMS_1956-57_33k_ES_PAN_21mic_H50_0531_fot_000-51052_R.tif
  2
NAME
  10
355157.401
  20
4483897.842
 40
34.38785
  0
SEQEND
  0
POLYLINE
  8
LC_OH_2021_05_O7
  70
1
  66
1
  0
VERTEX
  8
LC_OH_2021_05_O7
  10
356521.797
  20
4484631.930
  0
VERTEX
  8
LC_OH_2021_05_O7
  10
356520.004
  20
4483958.500
  0
VERTEX
  8
LC_OH_2021_05_O7
  10
355467.504
  20
4483111.000
  0
VERTEX
  8
LC_OH_2021_05_O7
  10
354808.504
  20
4483153.500
  0
VERTEX
  8
LC_OH_2021_05_O7
  10
354805.004
  20
4483155.000
  0
VERTEX
  8
LC_OH_2021_05_O7
  10
353793.004
  20
4484039.000
  0
VERTEX
  8
LC_OH_2021_05_O7
  10
353798.303
  20
4484684.684
  0
SEQEND
  8
LC_OH_2021_05_O7
  0
INSERT
  8
FeatureAttribs
  2
FEATURE
  41
1
  42
1
  43
1
  50
0
  10
357903.924
  20
4484562.498
 66
1
  0
ATTRIB
  8
FeatureAttribs
 70
0
  1
PNOA-H_AMS_1956-57_33k_ES_PAN_21mic_H50_0531_fot_000-51053_R.tif
  2
NAME
  10
357903.924
  20
4484562.498
 40
34.38785
  0
SEQEND
  0
POLYLINE
  8
LC_OH_2021_05_O7
  70
1
  66
1
  0
VERTEX
  8
LC_OH_2021_05_O7
  10
359286.091
  20
4484579.464
  0
VERTEX
  8
LC_OH_2021_05_O7
  10
359293.005
  20
4483766.500
  0
VERTEX
  8
LC_OH_2021_05_O7
  10
358425.505
  20
4483017.000
  0
VERTEX
  8
LC_OH_2021_05_O7
  10
357566.504
  20
4483152.500
  0
VERTEX
  8
LC_OH_2021_05_O7
  10
356520.004
  20
4483958.500
  0
VERTEX
  8
LC_OH_2021_05_O7
  10
356521.797
  20
4484631.930
  0
VERTEX
  8
LC_OH_2021_05_O7
  10
357008.339
  20
4484622.506
  0
SEQEND
  8
LC_OH_2021_05_O7
  0
INSERT
  8
FeatureAttribs
  2
FEATURE
  41
1
  42
1
  43
1
  50
0
  10
349759.752
  20
4483932.044
 66
1
  0
ATTRIB
  8
FeatureAttribs
 70
0
  1
PNOA-H_AMS_1956-57_33k_ES_PAN_21mic_H50_0531_fot_000-51049_R.tif
  2
NAME
  10
349759.752
  20
4483932.044
 40
34.38785
  0
SEQEND
  0
POLYLINE
  8
LC_OH_2021_05_O7
  70
1
  66
1
  0
VERTEX
  8
LC_OH_2021_05_O7
  10
350691.500
  20
4484746.179
  0
VERTEX
  8
LC_OH_2021_05_O7
  10
350632.504
  20
4483081.500
  0
VERTEX
  8
LC_OH_2021_05_O7
  10
348828.004
  20
4483347.000
  0
VERTEX
  8
LC_OH_2021_05_O7
  10
348881.964
  20
4484782.588
  0
VERTEX
  8
LC_OH_2021_05_O7
  10
349946.675
  20
4484760.958
  0
SEQEND
  8
LC_OH_2021_05_O7
  0
INSERT
  8
FeatureAttribs
  2
FEATURE
  41
1
  42
1
  43
1
  50
0
  10
366078.967
  20
4483753.770
 66
1
  0
ATTRIB
  8
FeatureAttribs
 70
0
  1
PNOA-H_AMS_1956-57_33k_ES_PAN_21mic_H50_0531_fot_000-51056_R.tif
  2
NAME
  10
366078.967
  20
4483753.770
 40
34.38785
  0
SEQEND
  0
POLYLINE
  8
LC_OH_2021_05_O7
  70
1
  66
1
  0
VERTEX
  8
LC_OH_2021_05_O7
  10
367381.027
  20
4484431.292
  0
VERTEX
  8
LC_OH_2021_05_O7
  10
367375.505
  20
4483600.000
  0
VERTEX
  8
LC_OH_2021_05_O7
  10
367374.505
  20
4483566.000
  0
VERTEX
  8
LC_OH_2021_05_O7
  10
366886.005
  20
4483029.500
  0
VERTEX
  8
LC_OH_2021_05_O7
  10
364787.505
  20
4483570.500
  0
VERTEX
  8
LC_OH_2021_05_O7
  10
364776.907
  20
4484478.041
  0
SEQEND
  8
LC_OH_2021_05_O7
  0
INSERT
  8
FeatureAttribs
  2
FEATURE
  41
1
  42
1
  43
1
  50
0
  10
363422.231
  20
4483747.160
 66
1
  0
ATTRIB
  8
FeatureAttribs
 70
0
  1
PNOA-H_AMS_1956-57_33k_ES_PAN_21mic_H50_0531_fot_000-51055_R.tif
  2
NAME
  10
363422.231
  20
4483747.160
 40
34.38785
  0
SEQEND
  0
POLYLINE
  8
LC_OH_2021_05_O7
  70
1
  66
1
  0
VERTEX
  8
LC_OH_2021_05_O7
  10
364776.903
  20
4484478.041
  0
VERTEX
  8
LC_OH_2021_05_O7
  10
364787.505
  20
4483570.000
  0
VERTEX
  8
LC_OH_2021_05_O7
  10
364164.005
  20
4482966.500
  0
VERTEX
  8
LC_OH_2021_05_O7
  10
362826.005
  20
4483312.000
  0
VERTEX
  8
LC_OH_2021_05_O7
  10
362071.505
  20
4483622.500
  0
VERTEX
  8
LC_OH_2021_05_O7
  10
362056.957
  20
4484527.820
  0
VERTEX
  8
LC_OH_2021_05_O7
  10
364069.956
  20
4484490.732
  0
SEQEND
  8
LC_OH_2021_05_O7
  0
INSERT
  8
FeatureAttribs
  2
FEATURE
  41
1
  42
1
  43
1
  50
0
  10
370071.418
  20
4471311.499
 66
1
  0
ATTRIB
  8
FeatureAttribs
 70
0
  1
PNOA-H_AMS_1956-57_33k_ES_PAN_21mic_H50_0556_fot_000-52051_R.tif
  2
NAME
  10
370071.418
  20
4471311.499
 40
34.38785
  0
SEQEND
  0
POLYLINE
  8
LC_OH_2021_05_O7
  70
1
  66
1
  0
VERTEX
  8
LC_OH_2021_05_O7
  10
370933.431
  20
4472864.793
  0
VERTEX
  8
LC_OH_2021_05_O7
  10
370932.361
  20
4472802.601
  0
VERTEX
  8
LC_OH_2021_05_O7
  10
370892.579
  20
4470490.018
  0
VERTEX
  8
LC_OH_2021_05_O7
  10
370879.618
  20
4469736.226
  0
VERTEX
  8
LC_OH_2021_05_O7
  10
370752.006
  20
4469677.000
  0
VERTEX
  8
LC_OH_2021_05_O7
  10
369023.006
  20
4470086.500
  0
VERTEX
  8
LC_OH_2021_05_O7
  10
369114.506
  20
4472902.500
  0
VERTEX
  8
LC_OH_2021_05_O7
  10
369115.006
  20
4472912.500
  0
VERTEX
  8
LC_OH_2021_05_O7
  10
369140.006
  20
4472945.000
  0
VERTEX
  8
LC_OH_2021_05_O7
  10
369140.506
  20
4472946.000
  0
SEQEND
  8
LC_OH_2021_05_O7
  0
INSERT
  8
FeatureAttribs
  2
FEATURE
  41
1
  42
1
  43
1
  50
0
  10
367699.615
  20
4471335.499
 66
1
  0
ATTRIB
  8
FeatureAttribs
 70
0
  1
PNOA-H_AMS_1956-57_33k_ES_PAN_21mic_H50_0556_fot_000-52050_R.tif
  2
NAME
  10
367699.615
  20
4471335.499
 40
34.38785
  0
SEQEND
  0
POLYLINE
  8
LC_OH_2021_05_O7
  70
1
  66
1
  0
VERTEX
  8
LC_OH_2021_05_O7
  10
367710.005
  20
4472901.500
  0
VERTEX
  8
LC_OH_2021_05_O7
  10
369115.006
  20
4472912.000
  0
VERTEX
  8
LC_OH_2021_05_O7
  10
369023.006
  20
4470086.500
  0
VERTEX
  8
LC_OH_2021_05_O7
  10
368202.006
  20
4469759.000
  0
VERTEX
  8
LC_OH_2021_05_O7
  10
366242.005
  20
4470132.500
  0
VERTEX
  8
LC_OH_2021_05_O7
  10
366456.505
  20
4472891.500
  0
VERTEX
  8
LC_OH_2021_05_O7
  10
367646.005
  20
4472901.000
  0
VERTEX
  8
LC_OH_2021_05_O7
  10
367710.005
  20
4472901.500
  0
SEQEND
  8
LC_OH_2021_05_O7
  0
INSERT
  8
FeatureAttribs
  2
FEATURE
  41
1
  42
1
  43
1
  50
0
  10
368720.506
  20
4483815.398
 66
1
  0
ATTRIB
  8
FeatureAttribs
 70
0
  1
PNOA-H_AMS_1956-57_33k_ES_PAN_21mic_H50_0531_fot_000-51057_R.tif
  2
NAME
  10
368720.506
  20
4483815.398
 40
34.38785
  0
SEQEND
  0
POLYLINE
  8
LC_OH_2021_05_O7
  70
1
  66
1
  0
VERTEX
  8
LC_OH_2021_05_O7
  10
370063.725
  20
4484384.297
  0
VERTEX
  8
LC_OH_2021_05_O7
  10
370066.006
  20
4483672.000
  0
VERTEX
  8
LC_OH_2021_05_O7
  10
369712.006
  20
4483199.500
  0
VERTEX
  8
LC_OH_2021_05_O7
  10
369337.006
  20
4483223.500
  0
VERTEX
  8
LC_OH_2021_05_O7
  10
367375.005
  20
4483567.000
  0
VERTEX
  8
LC_OH_2021_05_O7
  10
367380.849
  20
4484431.295
  0
VERTEX
  8
LC_OH_2021_05_O7
  10
367600.747
  20
4484427.348
  0
SEQEND
  8
LC_OH_2021_05_O7
  0
INSERT
  8
FeatureAttribs
  2
FEATURE
  41
1
  42
1
  43
1
  50
0
  10
364932.738
  20
4471495.249
 66
1
  0
ATTRIB
  8
FeatureAttribs
 70
0
  1
PNOA-H_AMS_1956-57_33k_ES_PAN_21mic_H50_0556_fot_000-52049_R.tif
  2
NAME
  10
364932.738
  20
4471495.249
 40
34.38785
  0
SEQEND
  0
POLYLINE
  8
LC_OH_2021_05_O7
  70
1
  66
1
  0
VERTEX
  8
LC_OH_2021_05_O7
  10
366347.505
  20
4473071.500
  0
VERTEX
  8
LC_OH_2021_05_O7
  10
366350.005
  20
4473071.500
  0
VERTEX
  8
LC_OH_2021_05_O7
  10
366351.005
  20
4473070.000
  0
VERTEX
  8
LC_OH_2021_05_O7
  10
366456.505
  20
4472892.000
  0
VERTEX
  8
LC_OH_2021_05_O7
  10
366456.505
  20
4472889.500
  0
VERTEX
  8
LC_OH_2021_05_O7
  10
366242.005
  20
4470132.500
  0
VERTEX
  8
LC_OH_2021_05_O7
  10
365783.005
  20
4469919.000
  0
VERTEX
  8
LC_OH_2021_05_O7
  10
363394.505
  20
4470244.500
  0
VERTEX
  8
LC_OH_2021_05_O7
  10
363659.505
  20
4472940.500
  0
VERTEX
  8
LC_OH_2021_05_O7
  10
366337.505
  20
4473071.000
  0
VERTEX
  8
LC_OH_2021_05_O7
  10
366347.505
  20
4473071.500
  0
SEQEND
  8
LC_OH_2021_05_O7
  0
INSERT
  8
FeatureAttribs
  2
FEATURE
  41
1
  42
1
  43
1
  50
0
  10
361735.580
  20
4471641.000
 66
1
  0
ATTRIB
  8
FeatureAttribs
 70
0
  1
PNOA-H_AMS_1956-57_33k_ES_PAN_21mic_H50_0556_fot_000-52048_R.tif
  2
NAME
  10
361735.580
  20
4471641.000
 40
34.38785
  0
SEQEND
  0
POLYLINE
  8
LC_OH_2021_05_O7
  70
1
  66
1
  0
VERTEX
  8
LC_OH_2021_05_O7
  10
360922.505
  20
4473176.500
  0
VERTEX
  8
LC_OH_2021_05_O7
  10
363550.505
  20
4473159.000
  0
VERTEX
  8
LC_OH_2021_05_O7
  10
363659.505
  20
4472941.500
  0
VERTEX
  8
LC_OH_2021_05_O7
  10
363659.505
  20
4472936.000
  0
VERTEX
  8
LC_OH_2021_05_O7
  10
363394.505
  20
4470244.500
  0
VERTEX
  8
LC_OH_2021_05_O7
  10
363111.005
  20
4470105.500
  0
VERTEX
  8
LC_OH_2021_05_O7
  10
363106.505
  20
4470105.500
  0
VERTEX
  8
LC_OH_2021_05_O7
  10
360512.505
  20
4470398.500
  0
VERTEX
  8
LC_OH_2021_05_O7
  10
359614.005
  20
4471010.500
  0
VERTEX
  8
LC_OH_2021_05_O7
  10
359759.505
  20
4471360.500
  0
VERTEX
  8
LC_OH_2021_05_O7
  10
360922.005
  20
4473175.500
  0
VERTEX
  8
LC_OH_2021_05_O7
  10
360922.505
  20
4473176.500
  0
SEQEND
  8
LC_OH_2021_05_O7
  0
INSERT
  8
FeatureAttribs
  2
FEATURE
  41
1
  42
1
  43
1
  50
0
  10
360678.798
  20
4483787.482
 66
1
  0
ATTRIB
  8
FeatureAttribs
 70
0
  1
PNOA-H_AMS_1956-57_33k_ES_PAN_21mic_H50_0531_fot_000-51054_R.tif
  2
NAME
  10
360678.798
  20
4483787.482
 40
34.38785
  0
SEQEND
  0
POLYLINE
  8
LC_OH_2021_05_O7
  70
1
  66
1
  0
VERTEX
  8
LC_OH_2021_05_O7
  10
362056.957
  20
4484527.820
  0
VERTEX
  8
LC_OH_2021_05_O7
  10
362071.505
  20
4483622.500
  0
VERTEX
  8
LC_OH_2021_05_O7
  10
361341.005
  20
4482995.500
  0
VERTEX
  8
LC_OH_2021_05_O7
  10
360466.505
  20
4483149.000
  0
VERTEX
  8
LC_OH_2021_05_O7
  10
359293.005
  20
4483766.500
  0
VERTEX
  8
LC_OH_2021_05_O7
  10
359286.091
  20
4484579.464
  0
VERTEX
  8
LC_OH_2021_05_O7
  10
360539.153
  20
4484555.784
  0
SEQEND
  8
LC_OH_2021_05_O7
  0
INSERT
  8
FeatureAttribs
  2
FEATURE
  41
1
  42
1
  43
1
  50
0
  10
370597.626
  20
4483935.453
 66
1
  0
ATTRIB
  8
FeatureAttribs
 70
0
  1
PNOA-H_AMS_1956-57_33k_ES_PAN_21mic_H50_0531_fot_000-51058_R.tif
  2
NAME
  10
370597.626
  20
4483935.453
 40
34.38785
  0
SEQEND
  0
POLYLINE
  8
LC_OH_2021_05_O7
  70
1
  66
1
  0
VERTEX
  8
LC_OH_2021_05_O7
  10
371116.373
  20
4483486.608
  0
VERTEX
  8
LC_OH_2021_05_O7
  10
370066.006
  20
4483672.000
  0
VERTEX
  8
LC_OH_2021_05_O7
  10
370063.725
  20
4484384.297
  0
VERTEX
  8
LC_OH_2021_05_O7
  10
371131.527
  20
4484365.633
  0
SEQEND
  8
LC_OH_2021_05_O7
  0
ENDSEC
  0
EOF
