  0
SECTION
  2
HEADER
  9
$ACADVER
  1
AC1009
  9
$LUNITS
  70
2
  9
$LIMMIN
  10
314179.349
  20
4466404.819
  9
$LIMMAX
  10
342884.960
  20
4485553.400
  9
$EXTMIN
  10
314179.349
  20
4466404.819
  9
$EXTMAX
  10
342884.960
  20
4485553.400
  999
Created by Global Mapper
  999
Projection: UTM
  999
Datum: ETRS89
  999
Ground Units: meters
  999
ZONE: 30
  0
ENDSEC
  0
SECTION
  2
TABLES
  0
ENDSEC
  0
SECTION
  2
BLOCKS
  0
BLOCK
  8
FeatureAttribs
  70
0
  2
FEATURE
  3
FEATURE
  10
0.00000000
  20
0.00000000
  0
ATTDEF
  8
FeatureAttribs
  70
0
  1
 
  2
NAME
  3
NAME
  10
0.00000000
  20
0.00000000
  40
1.00000000
  0
ENDBLK
  0
ENDSEC
  0
SECTION
  2
ENTITIES
  0
INSERT
  8
FeatureAttribs
  2
FEATURE
  41
1
  42
1
  43
1
  50
0
  10
314904.198
  20
4473593.250
 66
1
  0
ATTRIB
  8
FeatureAttribs
 70
0
  1
PNOA-H_AMS_1956-57_33k_ES_PAN_21mic_H50_0554_fot_69C-46840_W.tif
  2
NAME
  10
314904.198
  20
4473593.250
 40
34.50623
  0
SEQEND
  0
POLYLINE
  8
LC_OH_2021_05_O7
  70
1
  66
1
  0
VERTEX
  8
LC_OH_2021_05_O7
  10
314372.007
  20
4474838.481
  0
VERTEX
  8
LC_OH_2021_05_O7
  10
314456.002
  20
4474841.000
  0
VERTEX
  8
LC_OH_2021_05_O7
  10
314472.502
  20
4474841.500
  0
VERTEX
  8
LC_OH_2021_05_O7
  10
315493.002
  20
4474872.000
  0
VERTEX
  8
LC_OH_2021_05_O7
  10
315498.002
  20
4474872.000
  0
VERTEX
  8
LC_OH_2021_05_O7
  10
315498.002
  20
4474862.500
  0
VERTEX
  8
LC_OH_2021_05_O7
  10
315380.002
  20
4472571.500
  0
VERTEX
  8
LC_OH_2021_05_O7
  10
314446.002
  20
4472314.500
  0
VERTEX
  8
LC_OH_2021_05_O7
  10
314437.002
  20
4472316.000
  0
VERTEX
  8
LC_OH_2021_05_O7
  10
314310.394
  20
4472349.345
  0
VERTEX
  8
LC_OH_2021_05_O7
  10
314350.991
  20
4473989.671
  0
SEQEND
  8
LC_OH_2021_05_O7
  0
INSERT
  8
FeatureAttribs
  2
FEATURE
  41
1
  42
1
  43
1
  50
0
  10
337476.387
  20
4475781.001
 66
1
  0
ATTRIB
  8
FeatureAttribs
 70
0
  1
PNOA-H_AMS_1956-57_33k_ES_PAN_21mic_H50_0555_fot_69C-46830_W.tif
  2
NAME
  10
337476.387
  20
4475781.001
 40
34.50623
  0
SEQEND
  0
POLYLINE
  8
LC_OH_2021_05_O7
  70
1
  66
1
  0
VERTEX
  8
LC_OH_2021_05_O7
  10
337007.003
  20
4477201.000
  0
VERTEX
  8
LC_OH_2021_05_O7
  10
338137.503
  20
4477355.500
  0
VERTEX
  8
LC_OH_2021_05_O7
  10
338688.003
  20
4477082.000
  0
VERTEX
  8
LC_OH_2021_05_O7
  10
338733.503
  20
4474828.500
  0
VERTEX
  8
LC_OH_2021_05_O7
  10
336564.503
  20
4474206.500
  0
VERTEX
  8
LC_OH_2021_05_O7
  10
336562.503
  20
4474207.000
  0
VERTEX
  8
LC_OH_2021_05_O7
  10
336262.503
  20
4474636.500
  0
VERTEX
  8
LC_OH_2021_05_O7
  10
336211.003
  20
4477091.500
  0
VERTEX
  8
LC_OH_2021_05_O7
  10
337003.503
  20
4477200.500
  0
VERTEX
  8
LC_OH_2021_05_O7
  10
337007.003
  20
4477201.000
  0
SEQEND
  8
LC_OH_2021_05_O7
  0
INSERT
  8
FeatureAttribs
  2
FEATURE
  41
1
  42
1
  43
1
  50
0
  10
342541.970
  20
4475649.250
 66
1
  0
ATTRIB
  8
FeatureAttribs
 70
0
  1
PNOA-H_AMS_1956-57_33k_ES_PAN_21mic_H50_0555_fot_69C-46828_W.tif
  2
NAME
  10
342541.970
  20
4475649.250
 40
34.50623
  0
SEQEND
  0
POLYLINE
  8
LC_OH_2021_05_O7
  70
1
  66
1
  0
VERTEX
  8
LC_OH_2021_05_O7
  10
342661.096
  20
4474247.699
  0
VERTEX
  8
LC_OH_2021_05_O7
  10
342287.503
  20
4473930.500
  0
VERTEX
  8
LC_OH_2021_05_O7
  10
342282.003
  20
4473935.000
  0
VERTEX
  8
LC_OH_2021_05_O7
  10
341211.503
  20
4475031.000
  0
VERTEX
  8
LC_OH_2021_05_O7
  10
341226.503
  20
4477051.000
  0
VERTEX
  8
LC_OH_2021_05_O7
  10
342725.604
  20
4477321.120
  0
VERTEX
  8
LC_OH_2021_05_O7
  10
342690.636
  20
4475655.394
  0
SEQEND
  8
LC_OH_2021_05_O7
  0
INSERT
  8
FeatureAttribs
  2
FEATURE
  41
1
  42
1
  43
1
  50
0
  10
335040.838
  20
4475826.000
 66
1
  0
ATTRIB
  8
FeatureAttribs
 70
0
  1
PNOA-H_AMS_1956-57_33k_ES_PAN_21mic_H50_0555_fot_69C-46831_W.tif
  2
NAME
  10
335040.838
  20
4475826.000
 40
34.50623
  0
SEQEND
  0
POLYLINE
  8
LC_OH_2021_05_O7
  70
1
  66
1
  0
VERTEX
  8
LC_OH_2021_05_O7
  10
334956.003
  20
4477191.500
  0
VERTEX
  8
LC_OH_2021_05_O7
  10
335834.003
  20
4477278.500
  0
VERTEX
  8
LC_OH_2021_05_O7
  10
336211.003
  20
4477091.500
  0
VERTEX
  8
LC_OH_2021_05_O7
  10
336262.503
  20
4474637.000
  0
VERTEX
  8
LC_OH_2021_05_O7
  10
333885.003
  20
4474373.500
  0
VERTEX
  8
LC_OH_2021_05_O7
  10
333882.003
  20
4474373.500
  0
VERTEX
  8
LC_OH_2021_05_O7
  10
333875.003
  20
4474385.000
  0
VERTEX
  8
LC_OH_2021_05_O7
  10
333874.503
  20
4474398.000
  0
VERTEX
  8
LC_OH_2021_05_O7
  10
333817.503
  20
4477078.000
  0
VERTEX
  8
LC_OH_2021_05_O7
  10
334951.003
  20
4477191.000
  0
VERTEX
  8
LC_OH_2021_05_O7
  10
334956.003
  20
4477191.500
  0
SEQEND
  8
LC_OH_2021_05_O7
  0
INSERT
  8
FeatureAttribs
  2
FEATURE
  41
1
  42
1
  43
1
  50
0
  10
332635.691
  20
4475808.751
 66
1
  0
ATTRIB
  8
FeatureAttribs
 70
0
  1
PNOA-H_AMS_1956-57_33k_ES_PAN_21mic_H50_0555_fot_69C-46832_W.tif
  2
NAME
  10
332635.691
  20
4475808.751
 40
34.50623
  0
SEQEND
  0
POLYLINE
  8
LC_OH_2021_05_O7
  70
1
  66
1
  0
VERTEX
  8
LC_OH_2021_05_O7
  10
332910.503
  20
4477167.000
  0
VERTEX
  8
LC_OH_2021_05_O7
  10
333516.503
  20
4477232.000
  0
VERTEX
  8
LC_OH_2021_05_O7
  10
333817.503
  20
4477078.000
  0
VERTEX
  8
LC_OH_2021_05_O7
  10
333875.003
  20
4474385.500
  0
VERTEX
  8
LC_OH_2021_05_O7
  10
331515.503
  20
4474606.500
  0
VERTEX
  8
LC_OH_2021_05_O7
  10
331339.003
  20
4476998.000
  0
VERTEX
  8
LC_OH_2021_05_O7
  10
332905.503
  20
4477166.500
  0
VERTEX
  8
LC_OH_2021_05_O7
  10
332910.503
  20
4477167.000
  0
SEQEND
  8
LC_OH_2021_05_O7
  0
INSERT
  8
FeatureAttribs
  2
FEATURE
  41
1
  42
1
  43
1
  50
0
  10
339966.162
  20
4475704.251
 66
1
  0
ATTRIB
  8
FeatureAttribs
 70
0
  1
PNOA-H_AMS_1956-57_33k_ES_PAN_21mic_H50_0555_fot_69C-46829_W.tif
  2
NAME
  10
339966.162
  20
4475704.251
 40
34.50623
  0
SEQEND
  0
POLYLINE
  8
LC_OH_2021_05_O7
  70
1
  66
1
  0
VERTEX
  8
LC_OH_2021_05_O7
  10
341103.503
  20
4477111.000
  0
VERTEX
  8
LC_OH_2021_05_O7
  10
341226.503
  20
4477051.500
  0
VERTEX
  8
LC_OH_2021_05_O7
  10
341211.503
  20
4475031.500
  0
VERTEX
  8
LC_OH_2021_05_O7
  10
339382.003
  20
4474015.000
  0
VERTEX
  8
LC_OH_2021_05_O7
  10
338733.503
  20
4474828.000
  0
VERTEX
  8
LC_OH_2021_05_O7
  10
338688.003
  20
4477082.000
  0
VERTEX
  8
LC_OH_2021_05_O7
  10
340523.003
  20
4477393.500
  0
VERTEX
  8
LC_OH_2021_05_O7
  10
340529.003
  20
4477392.000
  0
VERTEX
  8
LC_OH_2021_05_O7
  10
341102.503
  20
4477111.500
  0
VERTEX
  8
LC_OH_2021_05_O7
  10
341103.503
  20
4477111.000
  0
SEQEND
  8
LC_OH_2021_05_O7
  0
INSERT
  8
FeatureAttribs
  2
FEATURE
  41
1
  42
1
  43
1
  50
0
  10
330222.860
  20
4475613.749
 66
1
  0
ATTRIB
  8
FeatureAttribs
 70
0
  1
PNOA-H_AMS_1956-57_33k_ES_PAN_21mic_H50_0555_fot_69C-46833_W.tif
  2
NAME
  10
330222.860
  20
4475613.749
 40
34.50623
  0
SEQEND
  0
POLYLINE
  8
LC_OH_2021_05_O7
  70
1
  66
1
  0
VERTEX
  8
LC_OH_2021_05_O7
  10
330862.003
  20
4477125.000
  0
VERTEX
  8
LC_OH_2021_05_O7
  10
331042.503
  20
4477148.000
  0
VERTEX
  8
LC_OH_2021_05_O7
  10
331332.003
  20
4477002.000
  0
VERTEX
  8
LC_OH_2021_05_O7
  10
331339.003
  20
4476998.000
  0
VERTEX
  8
LC_OH_2021_05_O7
  10
331339.503
  20
4476994.000
  0
VERTEX
  8
LC_OH_2021_05_O7
  10
331515.503
  20
4474605.500
  0
VERTEX
  8
LC_OH_2021_05_O7
  10
331223.003
  20
4474079.500
  0
VERTEX
  8
LC_OH_2021_05_O7
  10
329086.003
  20
4474751.000
  0
VERTEX
  8
LC_OH_2021_05_O7
  10
328886.003
  20
4476868.500
  0
VERTEX
  8
LC_OH_2021_05_O7
  10
330858.003
  20
4477124.500
  0
VERTEX
  8
LC_OH_2021_05_O7
  10
330862.003
  20
4477125.000
  0
SEQEND
  8
LC_OH_2021_05_O7
  0
INSERT
  8
FeatureAttribs
  2
FEATURE
  41
1
  42
1
  43
1
  50
0
  10
325464.159
  20
4475215.500
 66
1
  0
ATTRIB
  8
FeatureAttribs
 70
0
  1
PNOA-H_AMS_1956-57_33k_ES_PAN_21mic_H50_0555_fot_69C-46835_W.tif
  2
NAME
  10
325464.159
  20
4475215.500
 40
34.50623
  0
SEQEND
  0
POLYLINE
  8
LC_OH_2021_05_O7
  70
1
  66
1
  0
VERTEX
  8
LC_OH_2021_05_O7
  10
324716.502
  20
4476804.000
  0
VERTEX
  8
LC_OH_2021_05_O7
  10
326144.502
  20
4476984.000
  0
VERTEX
  8
LC_OH_2021_05_O7
  10
326615.002
  20
4476759.500
  0
VERTEX
  8
LC_OH_2021_05_O7
  10
326642.002
  20
4474985.500
  0
VERTEX
  8
LC_OH_2021_05_O7
  10
325863.502
  20
4473447.000
  0
VERTEX
  8
LC_OH_2021_05_O7
  10
325841.502
  20
4473468.000
  0
VERTEX
  8
LC_OH_2021_05_O7
  10
324295.002
  20
4475031.000
  0
VERTEX
  8
LC_OH_2021_05_O7
  10
324247.002
  20
4476744.500
  0
VERTEX
  8
LC_OH_2021_05_O7
  10
324712.502
  20
4476803.500
  0
VERTEX
  8
LC_OH_2021_05_O7
  10
324716.502
  20
4476804.000
  0
SEQEND
  8
LC_OH_2021_05_O7
  0
INSERT
  8
FeatureAttribs
  2
FEATURE
  41
1
  42
1
  43
1
  50
0
  10
327835.068
  20
4475310.250
 66
1
  0
ATTRIB
  8
FeatureAttribs
 70
0
  1
PNOA-H_AMS_1956-57_33k_ES_PAN_21mic_H50_0555_fot_69C-46834_W.tif
  2
NAME
  10
327835.068
  20
4475310.250
 40
34.50623
  0
SEQEND
  0
POLYLINE
  8
LC_OH_2021_05_O7
  70
1
  66
1
  0
VERTEX
  8
LC_OH_2021_05_O7
  10
328815.503
  20
4476900.000
  0
VERTEX
  8
LC_OH_2021_05_O7
  10
328886.003
  20
4476868.000
  0
VERTEX
  8
LC_OH_2021_05_O7
  10
329086.003
  20
4474750.000
  0
VERTEX
  8
LC_OH_2021_05_O7
  10
328541.503
  20
4473636.000
  0
VERTEX
  8
LC_OH_2021_05_O7
  10
328539.503
  20
4473634.000
  0
VERTEX
  8
LC_OH_2021_05_O7
  10
326642.002
  20
4474985.500
  0
VERTEX
  8
LC_OH_2021_05_O7
  10
326615.002
  20
4476759.000
  0
VERTEX
  8
LC_OH_2021_05_O7
  10
328625.003
  20
4476986.500
  0
VERTEX
  8
LC_OH_2021_05_O7
  10
328814.503
  20
4476900.500
  0
VERTEX
  8
LC_OH_2021_05_O7
  10
328815.503
  20
4476900.000
  0
SEQEND
  8
LC_OH_2021_05_O7
  0
INSERT
  8
FeatureAttribs
  2
FEATURE
  41
1
  42
1
  43
1
  50
0
  10
323165.815
  20
4475162.998
 66
1
  0
ATTRIB
  8
FeatureAttribs
 70
0
  1
PNOA-H_AMS_1956-57_33k_ES_PAN_21mic_H50_0555_fot_69C-46836_W.tif
  2
NAME
  10
323165.815
  20
4475162.998
 40
34.50623
  0
SEQEND
  0
POLYLINE
  8
LC_OH_2021_05_O7
  70
1
  66
1
  0
VERTEX
  8
LC_OH_2021_05_O7
  10
322669.502
  20
4476816.500
  0
VERTEX
  8
LC_OH_2021_05_O7
  10
323635.502
  20
4476992.000
  0
VERTEX
  8
LC_OH_2021_05_O7
  10
323640.002
  20
4476992.000
  0
VERTEX
  8
LC_OH_2021_05_O7
  10
324247.002
  20
4476744.500
  0
VERTEX
  8
LC_OH_2021_05_O7
  10
324295.002
  20
4475031.500
  0
VERTEX
  8
LC_OH_2021_05_O7
  10
323265.002
  20
4473334.000
  0
VERTEX
  8
LC_OH_2021_05_O7
  10
322045.502
  20
4475076.500
  0
VERTEX
  8
LC_OH_2021_05_O7
  10
321949.502
  20
4476685.500
  0
VERTEX
  8
LC_OH_2021_05_O7
  10
322666.502
  20
4476816.000
  0
VERTEX
  8
LC_OH_2021_05_O7
  10
322669.502
  20
4476816.500
  0
SEQEND
  8
LC_OH_2021_05_O7
  0
INSERT
  8
FeatureAttribs
  2
FEATURE
  41
1
  42
1
  43
1
  50
0
  10
320942.378
  20
4475089.249
 66
1
  0
ATTRIB
  8
FeatureAttribs
 70
0
  1
PNOA-H_AMS_1956-57_33k_ES_PAN_21mic_H50_0555_fot_69C-46837_W.tif
  2
NAME
  10
320942.378
  20
4475089.249
 40
34.50623
  0
SEQEND
  0
POLYLINE
  8
LC_OH_2021_05_O7
  70
1
  66
1
  0
VERTEX
  8
LC_OH_2021_05_O7
  10
321087.502
  20
4476971.000
  0
VERTEX
  8
LC_OH_2021_05_O7
  10
321090.002
  20
4476971.000
  0
VERTEX
  8
LC_OH_2021_05_O7
  10
321949.502
  20
4476685.500
  0
VERTEX
  8
LC_OH_2021_05_O7
  10
322045.502
  20
4475076.000
  0
VERTEX
  8
LC_OH_2021_05_O7
  10
320778.502
  20
4473207.500
  0
VERTEX
  8
LC_OH_2021_05_O7
  10
319814.502
  20
4475140.500
  0
VERTEX
  8
LC_OH_2021_05_O7
  10
319757.502
  20
4476636.500
  0
VERTEX
  8
LC_OH_2021_05_O7
  10
321085.502
  20
4476970.500
  0
VERTEX
  8
LC_OH_2021_05_O7
  10
321087.502
  20
4476971.000
  0
SEQEND
  8
LC_OH_2021_05_O7
  0
INSERT
  8
FeatureAttribs
  2
FEATURE
  41
1
  42
1
  43
1
  50
0
  10
318566.240
  20
4474649.250
 66
1
  0
ATTRIB
  8
FeatureAttribs
 70
0
  1
PNOA-H_AMS_1956-57_33k_ES_PAN_21mic_H50_0555_fot_69C-46838_W.tif
  2
NAME
  10
318566.240
  20
4474649.250
 40
34.50623
  0
SEQEND
  0
POLYLINE
  8
LC_OH_2021_05_O7
  70
1
  66
1
  0
VERTEX
  8
LC_OH_2021_05_O7
  10
318603.502
  20
4476925.500
  0
VERTEX
  8
LC_OH_2021_05_O7
  10
318607.502
  20
4476925.500
  0
VERTEX
  8
LC_OH_2021_05_O7
  10
318657.502
  20
4476913.000
  0
VERTEX
  8
LC_OH_2021_05_O7
  10
319757.502
  20
4476636.500
  0
VERTEX
  8
LC_OH_2021_05_O7
  10
319814.502
  20
4475140.000
  0
VERTEX
  8
LC_OH_2021_05_O7
  10
317840.002
  20
4472373.000
  0
VERTEX
  8
LC_OH_2021_05_O7
  10
317552.502
  20
4472416.000
  0
VERTEX
  8
LC_OH_2021_05_O7
  10
317774.002
  20
4476692.500
  0
VERTEX
  8
LC_OH_2021_05_O7
  10
318602.002
  20
4476925.000
  0
VERTEX
  8
LC_OH_2021_05_O7
  10
318603.502
  20
4476925.500
  0
SEQEND
  8
LC_OH_2021_05_O7
  0
INSERT
  8
FeatureAttribs
  2
FEATURE
  41
1
  42
1
  43
1
  50
0
  10
316574.425
  20
4474591.999
 66
1
  0
ATTRIB
  8
FeatureAttribs
 70
0
  1
PNOA-H_AMS_1956-57_33k_ES_PAN_21mic_H50_0555_fot_69C-46839_W.tif
  2
NAME
  10
316574.425
  20
4474591.999
 40
34.50623
  0
SEQEND
  0
POLYLINE
  8
LC_OH_2021_05_O7
  70
1
  66
1
  0
VERTEX
  8
LC_OH_2021_05_O7
  10
315498.002
  20
4474872.000
  0
VERTEX
  8
LC_OH_2021_05_O7
  10
315791.002
  20
4476813.000
  0
VERTEX
  8
LC_OH_2021_05_O7
  10
316303.502
  20
4476965.500
  0
VERTEX
  8
LC_OH_2021_05_O7
  10
316525.502
  20
4476924.000
  0
VERTEX
  8
LC_OH_2021_05_O7
  10
316527.502
  20
4476924.000
  0
VERTEX
  8
LC_OH_2021_05_O7
  10
317774.002
  20
4476692.500
  0
VERTEX
  8
LC_OH_2021_05_O7
  10
317552.502
  20
4472416.000
  0
VERTEX
  8
LC_OH_2021_05_O7
  10
316931.502
  20
4472218.500
  0
VERTEX
  8
LC_OH_2021_05_O7
  10
315380.002
  20
4472571.500
  0
SEQEND
  8
LC_OH_2021_05_O7
  0
INSERT
  8
FeatureAttribs
  2
FEATURE
  41
1
  42
1
  43
1
  50
0
  10
314328.283
  20
4470362.168
 66
1
  0
ATTRIB
  8
FeatureAttribs
 70
0
  1
PNOA-H_AMS_1956-57_33k_ES_PAN_21mic_H50_0554_fot_70A-46749_E.tif
  2
NAME
  10
314328.283
  20
4470362.168
 40
34.50623
  0
SEQEND
  0
POLYLINE
  8
LC_OH_2021_05_O7
  70
1
  66
1
  0
VERTEX
  8
LC_OH_2021_05_O7
  10
314310.405
  20
4472349.812
  0
VERTEX
  8
LC_OH_2021_05_O7
  10
314444.502
  20
4472314.500
  0
VERTEX
  8
LC_OH_2021_05_O7
  10
314355.002
  20
4468379.000
  0
VERTEX
  8
LC_OH_2021_05_O7
  10
314212.065
  20
4468374.525
  0
VERTEX
  8
LC_OH_2021_05_O7
  10
314236.538
  20
4469364.230
  0
VERTEX
  8
LC_OH_2021_05_O7
  10
314293.752
  20
4471676.947
  0
SEQEND
  8
LC_OH_2021_05_O7
  0
INSERT
  8
FeatureAttribs
  2
FEATURE
  41
1
  42
1
  43
1
  50
0
  10
314454.116
  20
4475995.500
 66
1
  0
ATTRIB
  8
FeatureAttribs
 70
0
  1
PNOA-H_AMS_1956-57_33k_ES_PAN_21mic_H50_0554_fot_000-52030_R.tif
  2
NAME
  10
314454.116
  20
4475995.500
 40
34.50623
  0
SEQEND
  0
POLYLINE
  8
LC_OH_2021_05_O7
  70
1
  66
1
  0
VERTEX
  8
LC_OH_2021_05_O7
  10
314428.385
  20
4477115.110
  0
VERTEX
  8
LC_OH_2021_05_O7
  10
315791.502
  20
4476813.500
  0
VERTEX
  8
LC_OH_2021_05_O7
  10
315498.502
  20
4474872.000
  0
VERTEX
  8
LC_OH_2021_05_O7
  10
314372.004
  20
4474838.351
  0
VERTEX
  8
LC_OH_2021_05_O7
  10
314408.254
  20
4476302.403
  0
SEQEND
  8
LC_OH_2021_05_O7
  0
INSERT
  8
FeatureAttribs
  2
FEATURE
  41
1
  42
1
  43
1
  50
0
  10
320383.951
  20
4470115.249
 66
1
  0
ATTRIB
  8
FeatureAttribs
 70
0
  1
PNOA-H_AMS_1956-57_33k_ES_PAN_21mic_H50_0555_fot_70A-46752_E.tif
  2
NAME
  10
320383.951
  20
4470115.249
 40
34.50623
  0
SEQEND
  0
POLYLINE
  8
LC_OH_2021_05_O7
  70
1
  66
1
  0
VERTEX
  8
LC_OH_2021_05_O7
  10
320774.502
  20
4472130.500
  0
VERTEX
  8
LC_OH_2021_05_O7
  10
320779.002
  20
4472129.500
  0
VERTEX
  8
LC_OH_2021_05_O7
  10
321594.502
  20
4471787.000
  0
VERTEX
  8
LC_OH_2021_05_O7
  10
321507.502
  20
4468113.000
  0
VERTEX
  8
LC_OH_2021_05_O7
  10
319344.002
  20
4468100.000
  0
VERTEX
  8
LC_OH_2021_05_O7
  10
319172.502
  20
4468208.000
  0
VERTEX
  8
LC_OH_2021_05_O7
  10
319249.002
  20
4471812.000
  0
VERTEX
  8
LC_OH_2021_05_O7
  10
320772.002
  20
4472130.000
  0
VERTEX
  8
LC_OH_2021_05_O7
  10
320774.502
  20
4472130.500
  0
SEQEND
  8
LC_OH_2021_05_O7
  0
INSERT
  8
FeatureAttribs
  2
FEATURE
  41
1
  42
1
  43
1
  50
0
  10
322736.546
  20
4470036.749
 66
1
  0
ATTRIB
  8
FeatureAttribs
 70
0
  1
PNOA-H_AMS_1956-57_33k_ES_PAN_21mic_H50_0555_fot_70A-46753_E.tif
  2
NAME
  10
322736.546
  20
4470036.749
 40
34.50623
  0
SEQEND
  0
POLYLINE
  8
LC_OH_2021_05_O7
  70
1
  66
1
  0
VERTEX
  8
LC_OH_2021_05_O7
  10
323268.502
  20
4472103.500
  0
VERTEX
  8
LC_OH_2021_05_O7
  10
323273.502
  20
4472103.000
  0
VERTEX
  8
LC_OH_2021_05_O7
  10
323972.002
  20
4471782.000
  0
VERTEX
  8
LC_OH_2021_05_O7
  10
323858.502
  20
4467970.000
  0
VERTEX
  8
LC_OH_2021_05_O7
  10
321736.502
  20
4467972.000
  0
VERTEX
  8
LC_OH_2021_05_O7
  10
321507.502
  20
4468113.000
  0
VERTEX
  8
LC_OH_2021_05_O7
  10
321594.502
  20
4471787.000
  0
VERTEX
  8
LC_OH_2021_05_O7
  10
323266.002
  20
4472103.000
  0
VERTEX
  8
LC_OH_2021_05_O7
  10
323268.502
  20
4472103.500
  0
SEQEND
  8
LC_OH_2021_05_O7
  0
INSERT
  8
FeatureAttribs
  2
FEATURE
  41
1
  42
1
  43
1
  50
0
  10
318027.235
  20
4470311.999
 66
1
  0
ATTRIB
  8
FeatureAttribs
 70
0
  1
PNOA-H_AMS_1956-57_33k_ES_PAN_21mic_H50_0555_fot_70A-46751_E.tif
  2
NAME
  10
318027.235
  20
4470311.999
 40
34.50623
  0
SEQEND
  0
POLYLINE
  8
LC_OH_2021_05_O7
  70
1
  66
1
  0
VERTEX
  8
LC_OH_2021_05_O7
  10
317840.002
  20
4472373.000
  0
VERTEX
  8
LC_OH_2021_05_O7
  10
319249.002
  20
4471812.000
  0
VERTEX
  8
LC_OH_2021_05_O7
  10
319172.502
  20
4468208.000
  0
VERTEX
  8
LC_OH_2021_05_O7
  10
316925.002
  20
4468210.500
  0
VERTEX
  8
LC_OH_2021_05_O7
  10
316913.002
  20
4468212.000
  0
VERTEX
  8
LC_OH_2021_05_O7
  10
316740.002
  20
4468321.500
  0
VERTEX
  8
LC_OH_2021_05_O7
  10
316930.502
  20
4472218.500
  0
VERTEX
  8
LC_OH_2021_05_O7
  10
317550.002
  20
4472415.500
  0
VERTEX
  8
LC_OH_2021_05_O7
  10
317554.502
  20
4472416.000
  0
VERTEX
  8
LC_OH_2021_05_O7
  10
317840.002
  20
4472373.000
  0
SEQEND
  8
LC_OH_2021_05_O7
  0
INSERT
  8
FeatureAttribs
  2
FEATURE
  41
1
  42
1
  43
1
  50
0
  10
330097.207
  20
4469625.748
 66
1
  0
ATTRIB
  8
FeatureAttribs
 70
0
  1
PNOA-H_AMS_1956-57_33k_ES_PAN_21mic_H50_0555_fot_70A-46756_E.tif
  2
NAME
  10
330097.207
  20
4469625.748
 40
34.50623
  0
SEQEND
  0
POLYLINE
  8
LC_OH_2021_05_O7
  70
1
  66
1
  0
VERTEX
  8
LC_OH_2021_05_O7
  10
328926.503
  20
4471667.000
  0
VERTEX
  8
LC_OH_2021_05_O7
  10
328927.003
  20
4471674.000
  0
VERTEX
  8
LC_OH_2021_05_O7
  10
331182.503
  20
4471809.500
  0
VERTEX
  8
LC_OH_2021_05_O7
  10
331433.503
  20
4471663.500
  0
VERTEX
  8
LC_OH_2021_05_O7
  10
331434.503
  20
4471662.500
  0
VERTEX
  8
LC_OH_2021_05_O7
  10
331433.503
  20
4471634.000
  0
VERTEX
  8
LC_OH_2021_05_O7
  10
331343.003
  20
4469450.500
  0
VERTEX
  8
LC_OH_2021_05_O7
  10
331342.503
  20
4469438.500
  0
VERTEX
  8
LC_OH_2021_05_O7
  10
331269.003
  20
4467643.000
  0
VERTEX
  8
LC_OH_2021_05_O7
  10
331268.003
  20
4467637.500
  0
VERTEX
  8
LC_OH_2021_05_O7
  10
330734.003
  20
4467442.500
  0
VERTEX
  8
LC_OH_2021_05_O7
  10
330728.003
  20
4467442.000
  0
VERTEX
  8
LC_OH_2021_05_O7
  10
328766.503
  20
4467701.500
  0
VERTEX
  8
LC_OH_2021_05_O7
  10
328926.503
  20
4471667.000
  0
SEQEND
  8
LC_OH_2021_05_O7
  0
INSERT
  8
FeatureAttribs
  2
FEATURE
  41
1
  42
1
  43
1
  50
0
  10
337486.217
  20
4469406.000
 66
1
  0
ATTRIB
  8
FeatureAttribs
 70
0
  1
PNOA-H_AMS_1956-57_33k_ES_PAN_21mic_H50_0555_fot_70A-46759_E.tif
  2
NAME
  10
337486.217
  20
4469406.000
 40
34.50623
  0
SEQEND
  0
POLYLINE
  8
LC_OH_2021_05_O7
  70
1
  66
1
  0
VERTEX
  8
LC_OH_2021_05_O7
  10
336233.503
  20
4471502.000
  0
VERTEX
  8
LC_OH_2021_05_O7
  10
336551.003
  20
4471668.500
  0
VERTEX
  8
LC_OH_2021_05_O7
  10
336552.003
  20
4471669.000
  0
VERTEX
  8
LC_OH_2021_05_O7
  10
338845.503
  20
4471444.000
  0
VERTEX
  8
LC_OH_2021_05_O7
  10
338720.003
  20
4467469.500
  0
VERTEX
  8
LC_OH_2021_05_O7
  10
337475.503
  20
4467143.000
  0
VERTEX
  8
LC_OH_2021_05_O7
  10
336153.503
  20
4467532.000
  0
SEQEND
  8
LC_OH_2021_05_O7
  0
INSERT
  8
FeatureAttribs
  2
FEATURE
  41
1
  42
1
  43
1
  50
0
  10
315621.876
  20
4470417.000
 66
1
  0
ATTRIB
  8
FeatureAttribs
 70
0
  1
PNOA-H_AMS_1956-57_33k_ES_PAN_21mic_H50_0555_fot_70A-46750_E.tif
  2
NAME
  10
315621.876
  20
4470417.000
 40
34.50623
  0
SEQEND
  0
POLYLINE
  8
LC_OH_2021_05_O7
  70
1
  66
1
  0
VERTEX
  8
LC_OH_2021_05_O7
  10
314444.002
  20
4472308.500
  0
VERTEX
  8
LC_OH_2021_05_O7
  10
314444.502
  20
4472314.500
  0
VERTEX
  8
LC_OH_2021_05_O7
  10
314476.502
  20
4472323.500
  0
VERTEX
  8
LC_OH_2021_05_O7
  10
314478.502
  20
4472324.000
  0
VERTEX
  8
LC_OH_2021_05_O7
  10
315374.502
  20
4472570.500
  0
VERTEX
  8
LC_OH_2021_05_O7
  10
315381.502
  20
4472571.500
  0
VERTEX
  8
LC_OH_2021_05_O7
  10
316930.502
  20
4472218.500
  0
VERTEX
  8
LC_OH_2021_05_O7
  10
316743.502
  20
4468386.000
  0
VERTEX
  8
LC_OH_2021_05_O7
  10
316740.502
  20
4468325.000
  0
VERTEX
  8
LC_OH_2021_05_O7
  10
316739.502
  20
4468321.500
  0
VERTEX
  8
LC_OH_2021_05_O7
  10
314545.502
  20
4468262.500
  0
VERTEX
  8
LC_OH_2021_05_O7
  10
314355.002
  20
4468379.000
  0
SEQEND
  8
LC_OH_2021_05_O7
  0
INSERT
  8
FeatureAttribs
  2
FEATURE
  41
1
  42
1
  43
1
  50
0
  10
334956.168
  20
4469435.999
 66
1
  0
ATTRIB
  8
FeatureAttribs
 70
0
  1
PNOA-H_AMS_1956-57_33k_ES_PAN_21mic_H50_0555_fot_70A-46758_E.tif
  2
NAME
  10
334956.168
  20
4469435.999
 40
34.50623
  0
SEQEND
  0
POLYLINE
  8
LC_OH_2021_05_O7
  70
1
  66
1
  0
VERTEX
  8
LC_OH_2021_05_O7
  10
333834.003
  20
4471662.500
  0
VERTEX
  8
LC_OH_2021_05_O7
  10
333834.503
  20
4471669.500
  0
VERTEX
  8
LC_OH_2021_05_O7
  10
333843.003
  20
4471674.000
  0
VERTEX
  8
LC_OH_2021_05_O7
  10
333844.003
  20
4471674.500
  0
VERTEX
  8
LC_OH_2021_05_O7
  10
336233.503
  20
4471501.500
  0
VERTEX
  8
LC_OH_2021_05_O7
  10
336153.503
  20
4467532.000
  0
VERTEX
  8
LC_OH_2021_05_O7
  10
335148.503
  20
4467197.500
  0
VERTEX
  8
LC_OH_2021_05_O7
  10
333624.503
  20
4467554.500
  0
SEQEND
  8
LC_OH_2021_05_O7
  0
INSERT
  8
FeatureAttribs
  2
FEATURE
  41
1
  42
1
  43
1
  50
0
  10
332534.188
  20
4469489.500
 66
1
  0
ATTRIB
  8
FeatureAttribs
 70
0
  1
PNOA-H_AMS_1956-57_33k_ES_PAN_21mic_H50_0555_fot_70A-46757_E.tif
  2
NAME
  10
332534.188
  20
4469489.500
 40
34.50623
  0
SEQEND
  0
POLYLINE
  8
LC_OH_2021_05_O7
  70
1
  66
1
  0
VERTEX
  8
LC_OH_2021_05_O7
  10
331434.503
  20
4471662.500
  0
VERTEX
  8
LC_OH_2021_05_O7
  10
332588.003
  20
4471666.000
  0
VERTEX
  8
LC_OH_2021_05_O7
  10
332769.503
  20
4471666.500
  0
VERTEX
  8
LC_OH_2021_05_O7
  10
333834.503
  20
4471669.000
  0
VERTEX
  8
LC_OH_2021_05_O7
  10
333625.003
  20
4467556.000
  0
VERTEX
  8
LC_OH_2021_05_O7
  10
333624.503
  20
4467554.500
  0
VERTEX
  8
LC_OH_2021_05_O7
  10
333620.503
  20
4467553.000
  0
VERTEX
  8
LC_OH_2021_05_O7
  10
332867.503
  20
4467310.000
  0
VERTEX
  8
LC_OH_2021_05_O7
  10
331268.503
  20
4467638.000
  0
SEQEND
  8
LC_OH_2021_05_O7
  0
INSERT
  8
FeatureAttribs
  2
FEATURE
  41
1
  42
1
  43
1
  50
0
  10
341913.477
  20
4469391.000
 66
1
  0
ATTRIB
  8
FeatureAttribs
 70
0
  1
PNOA-H_AMS_1956-57_33k_ES_PAN_21mic_H50_0556_fot_70A-46761_E.tif
  2
NAME
  10
341913.477
  20
4469391.000
 40
34.50623
  0
SEQEND
  0
POLYLINE
  8
LC_OH_2021_05_O7
  70
1
  66
1
  0
VERTEX
  8
LC_OH_2021_05_O7
  10
342606.450
  20
4471642.807
  0
VERTEX
  8
LC_OH_2021_05_O7
  10
342593.599
  20
4471030.091
  0
VERTEX
  8
LC_OH_2021_05_O7
  10
342545.111
  20
4468717.452
  0
VERTEX
  8
LC_OH_2021_05_O7
  10
342511.496
  20
4467113.441
  0
VERTEX
  8
LC_OH_2021_05_O7
  10
341753.503
  20
4467071.000
  0
VERTEX
  8
LC_OH_2021_05_O7
  10
341220.503
  20
4467331.500
  0
VERTEX
  8
LC_OH_2021_05_O7
  10
341433.503
  20
4471379.500
  0
VERTEX
  8
LC_OH_2021_05_O7
  10
342325.503
  20
4471710.500
  0
VERTEX
  8
LC_OH_2021_05_O7
  10
342327.003
  20
4471711.000
  0
SEQEND
  8
LC_OH_2021_05_O7
  0
INSERT
  8
FeatureAttribs
  2
FEATURE
  41
1
  42
1
  43
1
  50
0
  10
327586.466
  20
4469753.500
 66
1
  0
ATTRIB
  8
FeatureAttribs
 70
0
  1
PNOA-H_AMS_1956-57_33k_ES_PAN_21mic_H50_0555_fot_70A-46755_E.tif
  2
NAME
  10
327586.466
  20
4469753.500
 40
34.50623
  0
SEQEND
  0
POLYLINE
  8
LC_OH_2021_05_O7
  70
1
  66
1
  0
VERTEX
  8
LC_OH_2021_05_O7
  10
326447.002
  20
4471739.000
  0
VERTEX
  8
LC_OH_2021_05_O7
  10
326760.502
  20
4471766.000
  0
VERTEX
  8
LC_OH_2021_05_O7
  10
326766.002
  20
4471766.500
  0
VERTEX
  8
LC_OH_2021_05_O7
  10
328505.503
  20
4471915.500
  0
VERTEX
  8
LC_OH_2021_05_O7
  10
328927.003
  20
4471674.000
  0
VERTEX
  8
LC_OH_2021_05_O7
  10
328766.503
  20
4467701.500
  0
VERTEX
  8
LC_OH_2021_05_O7
  10
328534.503
  20
4467591.500
  0
VERTEX
  8
LC_OH_2021_05_O7
  10
326308.002
  20
4467735.000
  0
VERTEX
  8
LC_OH_2021_05_O7
  10
326304.002
  20
4467735.500
  0
VERTEX
  8
LC_OH_2021_05_O7
  10
326202.002
  20
4467799.500
  0
VERTEX
  8
LC_OH_2021_05_O7
  10
326447.002
  20
4471739.000
  0
SEQEND
  8
LC_OH_2021_05_O7
  0
INSERT
  8
FeatureAttribs
  2
FEATURE
  41
1
  42
1
  43
1
  50
0
  10
340056.375
  20
4469428.749
 66
1
  0
ATTRIB
  8
FeatureAttribs
 70
0
  1
PNOA-H_AMS_1956-57_33k_ES_PAN_21mic_H50_0555_fot_70A-46760_E.tif
  2
NAME
  10
340056.375
  20
4469428.749
 40
34.50623
  0
SEQEND
  0
POLYLINE
  8
LC_OH_2021_05_O7
  70
1
  66
1
  0
VERTEX
  8
LC_OH_2021_05_O7
  10
338845.503
  20
4471444.000
  0
VERTEX
  8
LC_OH_2021_05_O7
  10
339434.503
  20
4471729.000
  0
VERTEX
  8
LC_OH_2021_05_O7
  10
339436.003
  20
4471729.500
  0
VERTEX
  8
LC_OH_2021_05_O7
  10
341433.503
  20
4471379.500
  0
VERTEX
  8
LC_OH_2021_05_O7
  10
341220.503
  20
4467331.500
  0
VERTEX
  8
LC_OH_2021_05_O7
  10
339666.003
  20
4467128.000
  0
VERTEX
  8
LC_OH_2021_05_O7
  10
338720.003
  20
4467469.500
  0
SEQEND
  8
LC_OH_2021_05_O7
  0
INSERT
  8
FeatureAttribs
  2
FEATURE
  41
1
  42
1
  43
1
  50
0
  10
325125.465
  20
4469925.250
 66
1
  0
ATTRIB
  8
FeatureAttribs
 70
0
  1
PNOA-H_AMS_1956-57_33k_ES_PAN_21mic_H50_0555_fot_70A-46754_E.tif
  2
NAME
  10
325125.465
  20
4469925.250
 40
34.50623
  0
SEQEND
  0
POLYLINE
  8
LC_OH_2021_05_O7
  70
1
  66
1
  0
VERTEX
  8
LC_OH_2021_05_O7
  10
323972.002
  20
4471782.000
  0
VERTEX
  8
LC_OH_2021_05_O7
  10
325847.502
  20
4472050.500
  0
VERTEX
  8
LC_OH_2021_05_O7
  10
325851.002
  20
4472051.000
  0
VERTEX
  8
LC_OH_2021_05_O7
  10
325857.502
  20
4472050.000
  0
VERTEX
  8
LC_OH_2021_05_O7
  10
326447.002
  20
4471739.000
  0
VERTEX
  8
LC_OH_2021_05_O7
  10
326202.002
  20
4467799.500
  0
VERTEX
  8
LC_OH_2021_05_O7
  10
324088.502
  20
4467831.000
  0
VERTEX
  8
LC_OH_2021_05_O7
  10
323858.502
  20
4467970.000
  0
VERTEX
  8
LC_OH_2021_05_O7
  10
323972.002
  20
4471782.000
  0
SEQEND
  8
LC_OH_2021_05_O7
  0
INSERT
  8
FeatureAttribs
  2
FEATURE
  41
1
  42
1
  43
1
  50
0
  10
322063.357
  20
4473431.751
 66
1
  0
ATTRIB
  8
FeatureAttribs
 70
0
  1
PNOA-H_AMS_1956-57_33k_ES_PAN_21mic_H50_0555_fot_000-47568_R.tif
  2
NAME
  10
322063.357
  20
4473431.751
 40
34.50623
  0
SEQEND
  0
POLYLINE
  8
LC_OH_2021_05_O7
  70
1
  66
1
  0
VERTEX
  8
LC_OH_2021_05_O7
  10
322045.502
  20
4475076.500
  0
VERTEX
  8
LC_OH_2021_05_O7
  10
323265.002
  20
4473334.000
  0
VERTEX
  8
LC_OH_2021_05_O7
  10
323271.002
  20
4472103.500
  0
VERTEX
  8
LC_OH_2021_05_O7
  10
321593.502
  20
4471787.000
  0
VERTEX
  8
LC_OH_2021_05_O7
  10
320776.002
  20
4472130.500
  0
VERTEX
  8
LC_OH_2021_05_O7
  10
320778.002
  20
4473207.500
  0
VERTEX
  8
LC_OH_2021_05_O7
  10
322045.002
  20
4475075.500
  0
VERTEX
  8
LC_OH_2021_05_O7
  10
322045.502
  20
4475076.500
  0
SEQEND
  8
LC_OH_2021_05_O7
  0
INSERT
  8
FeatureAttribs
  2
FEATURE
  41
1
  42
1
  43
1
  50
0
  10
324585.818
  20
4473406.750
 66
1
  0
ATTRIB
  8
FeatureAttribs
 70
0
  1
PNOA-H_AMS_1956-57_33k_ES_PAN_21mic_H50_0555_fot_000-47569_R.tif
  2
NAME
  10
324585.818
  20
4473406.750
 40
34.50623
  0
SEQEND
  0
POLYLINE
  8
LC_OH_2021_05_O7
  70
1
  66
1
  0
VERTEX
  8
LC_OH_2021_05_O7
  10
324294.502
  20
4475031.500
  0
VERTEX
  8
LC_OH_2021_05_O7
  10
325863.002
  20
4473447.000
  0
VERTEX
  8
LC_OH_2021_05_O7
  10
325854.502
  20
4472051.000
  0
VERTEX
  8
LC_OH_2021_05_O7
  10
323971.502
  20
4471782.000
  0
VERTEX
  8
LC_OH_2021_05_O7
  10
323271.002
  20
4472103.500
  0
VERTEX
  8
LC_OH_2021_05_O7
  10
323265.002
  20
4473334.500
  0
VERTEX
  8
LC_OH_2021_05_O7
  10
324294.502
  20
4475030.500
  0
VERTEX
  8
LC_OH_2021_05_O7
  10
324294.502
  20
4475031.500
  0
SEQEND
  8
LC_OH_2021_05_O7
  0
INSERT
  8
FeatureAttribs
  2
FEATURE
  41
1
  42
1
  43
1
  50
0
  10
319635.444
  20
4473476.250
 66
1
  0
ATTRIB
  8
FeatureAttribs
 70
0
  1
PNOA-H_AMS_1956-57_33k_ES_PAN_21mic_H50_0555_fot_000-47567_R.tif
  2
NAME
  10
319635.444
  20
4473476.250
 40
34.50623
  0
SEQEND
  0
POLYLINE
  8
LC_OH_2021_05_O7
  70
1
  66
1
  0
VERTEX
  8
LC_OH_2021_05_O7
  10
320623.502
  20
4473517.500
  0
VERTEX
  8
LC_OH_2021_05_O7
  10
320778.002
  20
4473208.500
  0
VERTEX
  8
LC_OH_2021_05_O7
  10
320776.002
  20
4472130.500
  0
VERTEX
  8
LC_OH_2021_05_O7
  10
319292.502
  20
4471820.500
  0
VERTEX
  8
LC_OH_2021_05_O7
  10
319247.502
  20
4471812.000
  0
VERTEX
  8
LC_OH_2021_05_O7
  10
317840.002
  20
4472372.500
  0
VERTEX
  8
LC_OH_2021_05_O7
  10
317869.002
  20
4472414.500
  0
VERTEX
  8
LC_OH_2021_05_O7
  10
319814.502
  20
4475140.500
  0
VERTEX
  8
LC_OH_2021_05_O7
  10
320623.502
  20
4473518.500
  0
VERTEX
  8
LC_OH_2021_05_O7
  10
320623.502
  20
4473517.500
  0
SEQEND
  8
LC_OH_2021_05_O7
  0
INSERT
  8
FeatureAttribs
  2
FEATURE
  41
1
  42
1
  43
1
  50
0
  10
327198.547
  20
4473362.250
 66
1
  0
ATTRIB
  8
FeatureAttribs
 70
0
  1
PNOA-H_AMS_1956-57_33k_ES_PAN_21mic_H50_0555_fot_000-47570_R.tif
  2
NAME
  10
327198.547
  20
4473362.250
 40
34.50623
  0
SEQEND
  0
POLYLINE
  8
LC_OH_2021_05_O7
  70
1
  66
1
  0
VERTEX
  8
LC_OH_2021_05_O7
  10
326641.502
  20
4474985.500
  0
VERTEX
  8
LC_OH_2021_05_O7
  10
326657.002
  20
4474975.500
  0
VERTEX
  8
LC_OH_2021_05_O7
  10
328540.003
  20
4473634.000
  0
VERTEX
  8
LC_OH_2021_05_O7
  10
328506.003
  20
4471922.000
  0
VERTEX
  8
LC_OH_2021_05_O7
  10
328505.003
  20
4471915.000
  0
VERTEX
  8
LC_OH_2021_05_O7
  10
326446.502
  20
4471739.000
  0
VERTEX
  8
LC_OH_2021_05_O7
  10
325854.502
  20
4472051.000
  0
VERTEX
  8
LC_OH_2021_05_O7
  10
325863.002
  20
4473447.000
  0
VERTEX
  8
LC_OH_2021_05_O7
  10
326641.502
  20
4474984.500
  0
VERTEX
  8
LC_OH_2021_05_O7
  10
326641.502
  20
4474985.500
  0
SEQEND
  8
LC_OH_2021_05_O7
  0
INSERT
  8
FeatureAttribs
  2
FEATURE
  41
1
  42
1
  43
1
  50
0
  10
332535.468
  20
4473134.499
 66
1
  0
ATTRIB
  8
FeatureAttribs
 70
0
  1
PNOA-H_AMS_1956-57_33k_ES_PAN_21mic_H50_0555_fot_000-47572_R.tif
  2
NAME
  10
332535.468
  20
4473134.499
 40
34.50623
  0
SEQEND
  0
POLYLINE
  8
LC_OH_2021_05_O7
  70
1
  66
1
  0
VERTEX
  8
LC_OH_2021_05_O7
  10
331515.503
  20
4474606.500
  0
VERTEX
  8
LC_OH_2021_05_O7
  10
333874.003
  20
4474386.000
  0
VERTEX
  8
LC_OH_2021_05_O7
  10
333876.003
  20
4474384.500
  0
VERTEX
  8
LC_OH_2021_05_O7
  10
333882.503
  20
4474373.500
  0
VERTEX
  8
LC_OH_2021_05_O7
  10
333845.003
  20
4471674.500
  0
VERTEX
  8
LC_OH_2021_05_O7
  10
333834.503
  20
4471669.000
  0
VERTEX
  8
LC_OH_2021_05_O7
  10
331434.003
  20
4471662.500
  0
VERTEX
  8
LC_OH_2021_05_O7
  10
331182.003
  20
4471809.500
  0
VERTEX
  8
LC_OH_2021_05_O7
  10
331222.503
  20
4474079.500
  0
VERTEX
  8
LC_OH_2021_05_O7
  10
331515.503
  20
4474605.500
  0
VERTEX
  8
LC_OH_2021_05_O7
  10
331515.503
  20
4474606.500
  0
SEQEND
  8
LC_OH_2021_05_O7
  0
INSERT
  8
FeatureAttribs
  2
FEATURE
  41
1
  42
1
  43
1
  50
0
  10
335211.468
  20
4473069.250
 66
1
  0
ATTRIB
  8
FeatureAttribs
 70
0
  1
PNOA-H_AMS_1956-57_33k_ES_PAN_21mic_H50_0555_fot_000-47573_R.tif
  2
NAME
  10
335211.468
  20
4473069.250
 40
34.50623
  0
SEQEND
  0
POLYLINE
  8
LC_OH_2021_05_O7
  70
1
  66
1
  0
VERTEX
  8
LC_OH_2021_05_O7
  10
334959.003
  20
4474493.000
  0
VERTEX
  8
LC_OH_2021_05_O7
  10
336262.503
  20
4474637.000
  0
VERTEX
  8
LC_OH_2021_05_O7
  10
336563.503
  20
4474206.500
  0
VERTEX
  8
LC_OH_2021_05_O7
  10
336552.503
  20
4471669.000
  0
VERTEX
  8
LC_OH_2021_05_O7
  10
336233.503
  20
4471501.500
  0
VERTEX
  8
LC_OH_2021_05_O7
  10
333845.003
  20
4471674.500
  0
VERTEX
  8
LC_OH_2021_05_O7
  10
333882.503
  20
4474373.500
  0
VERTEX
  8
LC_OH_2021_05_O7
  10
334954.503
  20
4474492.500
  0
VERTEX
  8
LC_OH_2021_05_O7
  10
334959.003
  20
4474493.000
  0
SEQEND
  8
LC_OH_2021_05_O7
  0
INSERT
  8
FeatureAttribs
  2
FEATURE
  41
1
  42
1
  43
1
  50
0
  10
329869.295
  20
4473212.501
 66
1
  0
ATTRIB
  8
FeatureAttribs
 70
0
  1
PNOA-H_AMS_1956-57_33k_ES_PAN_21mic_H50_0555_fot_000-47571_R.tif
  2
NAME
  10
329869.295
  20
4473212.501
 40
34.50623
  0
SEQEND
  0
POLYLINE
  8
LC_OH_2021_05_O7
  70
1
  66
1
  0
VERTEX
  8
LC_OH_2021_05_O7
  10
330863.503
  20
4474192.500
  0
VERTEX
  8
LC_OH_2021_05_O7
  10
331222.503
  20
4474079.500
  0
VERTEX
  8
LC_OH_2021_05_O7
  10
331182.003
  20
4471809.500
  0
VERTEX
  8
LC_OH_2021_05_O7
  10
328935.003
  20
4471674.000
  0
VERTEX
  8
LC_OH_2021_05_O7
  10
328926.003
  20
4471674.000
  0
VERTEX
  8
LC_OH_2021_05_O7
  10
328505.503
  20
4471915.000
  0
VERTEX
  8
LC_OH_2021_05_O7
  10
328540.003
  20
4473634.000
  0
VERTEX
  8
LC_OH_2021_05_O7
  10
329086.003
  20
4474751.000
  0
VERTEX
  8
LC_OH_2021_05_O7
  10
330862.503
  20
4474192.500
  0
VERTEX
  8
LC_OH_2021_05_O7
  10
330863.503
  20
4474192.500
  0
SEQEND
  8
LC_OH_2021_05_O7
  0
INSERT
  8
FeatureAttribs
  2
FEATURE
  41
1
  42
1
  43
1
  50
0
  10
340851.102
  20
4473205.500
 66
1
  0
ATTRIB
  8
FeatureAttribs
 70
0
  1
PNOA-H_AMS_1956-57_33k_ES_PAN_21mic_H50_0555_fot_000-47575_R.tif
  2
NAME
  10
340851.102
  20
4473205.500
 40
34.50623
  0
SEQEND
  0
POLYLINE
  8
LC_OH_2021_05_O7
  70
1
  66
1
  0
VERTEX
  8
LC_OH_2021_05_O7
  10
341210.503
  20
4475030.500
  0
VERTEX
  8
LC_OH_2021_05_O7
  10
341211.003
  20
4475031.500
  0
VERTEX
  8
LC_OH_2021_05_O7
  10
342287.003
  20
4473930.500
  0
VERTEX
  8
LC_OH_2021_05_O7
  10
342328.003
  20
4471711.000
  0
VERTEX
  8
LC_OH_2021_05_O7
  10
341440.003
  20
4471381.500
  0
VERTEX
  8
LC_OH_2021_05_O7
  10
341431.503
  20
4471379.500
  0
VERTEX
  8
LC_OH_2021_05_O7
  10
339437.003
  20
4471729.500
  0
VERTEX
  8
LC_OH_2021_05_O7
  10
339382.503
  20
4474015.000
  0
SEQEND
  8
LC_OH_2021_05_O7
  0
INSERT
  8
FeatureAttribs
  2
FEATURE
  41
1
  42
1
  43
1
  50
0
  10
337981.154
  20
4473136.248
 66
1
  0
ATTRIB
  8
FeatureAttribs
 70
0
  1
PNOA-H_AMS_1956-57_33k_ES_PAN_21mic_H50_0555_fot_000-47574_R.tif
  2
NAME
  10
337981.154
  20
4473136.248
 40
34.50623
  0
SEQEND
  0
POLYLINE
  8
LC_OH_2021_05_O7
  70
1
  66
1
  0
VERTEX
  8
LC_OH_2021_05_O7
  10
339055.503
  20
4474424.000
  0
VERTEX
  8
LC_OH_2021_05_O7
  10
339382.503
  20
4474015.000
  0
VERTEX
  8
LC_OH_2021_05_O7
  10
339437.003
  20
4471729.500
  0
VERTEX
  8
LC_OH_2021_05_O7
  10
338846.003
  20
4471444.000
  0
VERTEX
  8
LC_OH_2021_05_O7
  10
336552.503
  20
4471669.000
  0
VERTEX
  8
LC_OH_2021_05_O7
  10
336563.503
  20
4474206.500
  0
VERTEX
  8
LC_OH_2021_05_O7
  10
338733.003
  20
4474828.500
  0
VERTEX
  8
LC_OH_2021_05_O7
  10
339055.503
  20
4474425.000
  0
VERTEX
  8
LC_OH_2021_05_O7
  10
339055.503
  20
4474424.000
  0
SEQEND
  8
LC_OH_2021_05_O7
  0
INSERT
  8
FeatureAttribs
  2
FEATURE
  41
1
  42
1
  43
1
  50
0
  10
342474.058
  20
4472945.725
 66
1
  0
ATTRIB
  8
FeatureAttribs
 70
0
  1
PNOA-H_AMS_1956-57_33k_ES_PAN_21mic_H50_0555_fot_000-47576_R.tif
  2
NAME
  10
342474.058
  20
4472945.725
 40
34.50623
  0
SEQEND
  0
POLYLINE
  8
LC_OH_2021_05_O7
  70
1
  66
1
  0
VERTEX
  8
LC_OH_2021_05_O7
  10
342606.454
  20
4471642.969
  0
VERTEX
  8
LC_OH_2021_05_O7
  10
342328.003
  20
4471711.000
  0
VERTEX
  8
LC_OH_2021_05_O7
  10
342287.003
  20
4473917.000
  0
VERTEX
  8
LC_OH_2021_05_O7
  10
342287.003
  20
4473930.500
  0
VERTEX
  8
LC_OH_2021_05_O7
  10
342292.503
  20
4473935.500
  0
VERTEX
  8
LC_OH_2021_05_O7
  10
342661.113
  20
4474248.481
  0
VERTEX
  8
LC_OH_2021_05_O7
  10
342642.107
  20
4473342.739
  0
SEQEND
  8
LC_OH_2021_05_O7
  0
INSERT
  8
FeatureAttribs
  2
FEATURE
  41
1
  42
1
  43
1
  50
0
  10
316727.535
  20
4482717.249
 66
1
  0
ATTRIB
  8
FeatureAttribs
 70
0
  1
PNOA-H_AMS_1956-57_33k_ES_PAN_21mic_H50_0555_fot_67B-18352_E.tif
  2
NAME
  10
316727.535
  20
4482717.249
 40
34.50623
  0
SEQEND
  0
POLYLINE
  8
LC_OH_2021_05_O7
  70
1
  66
1
  0
VERTEX
  8
LC_OH_2021_05_O7
  10
315619.002
  20
4484155.000
  0
VERTEX
  8
LC_OH_2021_05_O7
  10
317432.502
  20
4484490.000
  0
VERTEX
  8
LC_OH_2021_05_O7
  10
317435.502
  20
4484490.500
  0
VERTEX
  8
LC_OH_2021_05_O7
  10
317437.002
  20
4484490.500
  0
VERTEX
  8
LC_OH_2021_05_O7
  10
317444.002
  20
4484485.000
  0
VERTEX
  8
LC_OH_2021_05_O7
  10
317955.002
  20
4484061.000
  0
VERTEX
  8
LC_OH_2021_05_O7
  10
317824.002
  20
4481181.000
  0
VERTEX
  8
LC_OH_2021_05_O7
  10
316503.502
  20
4480960.000
  0
VERTEX
  8
LC_OH_2021_05_O7
  10
316403.002
  20
4480944.000
  0
VERTEX
  8
LC_OH_2021_05_O7
  10
315503.502
  20
4481282.500
  0
SEQEND
  8
LC_OH_2021_05_O7
  0
INSERT
  8
FeatureAttribs
  2
FEATURE
  41
1
  42
1
  43
1
  50
0
  10
319047.332
  20
4482565.750
 66
1
  0
ATTRIB
  8
FeatureAttribs
 70
0
  1
PNOA-H_AMS_1956-57_33k_ES_PAN_21mic_H50_0555_fot_67B-18353_E.tif
  2
NAME
  10
319047.332
  20
4482565.750
 40
34.50623
  0
SEQEND
  0
POLYLINE
  8
LC_OH_2021_05_O7
  70
1
  66
1
  0
VERTEX
  8
LC_OH_2021_05_O7
  10
319698.502
  20
4484301.000
  0
VERTEX
  8
LC_OH_2021_05_O7
  10
319702.502
  20
4484301.000
  0
VERTEX
  8
LC_OH_2021_05_O7
  10
320279.002
  20
4483856.500
  0
VERTEX
  8
LC_OH_2021_05_O7
  10
320128.002
  20
4481124.500
  0
VERTEX
  8
LC_OH_2021_05_O7
  10
318674.502
  20
4480830.500
  0
VERTEX
  8
LC_OH_2021_05_O7
  10
317824.002
  20
4481181.000
  0
VERTEX
  8
LC_OH_2021_05_O7
  10
317955.002
  20
4484061.000
  0
VERTEX
  8
LC_OH_2021_05_O7
  10
319695.002
  20
4484300.500
  0
VERTEX
  8
LC_OH_2021_05_O7
  10
319698.502
  20
4484301.000
  0
SEQEND
  8
LC_OH_2021_05_O7
  0
INSERT
  8
FeatureAttribs
  2
FEATURE
  41
1
  42
1
  43
1
  50
0
  10
315072.663
  20
4482865.707
 66
1
  0
ATTRIB
  8
FeatureAttribs
 70
0
  1
PNOA-H_AMS_1956-57_33k_ES_PAN_21mic_H50_0554_fot_67B-18351_E.tif
  2
NAME
  10
315072.663
  20
4482865.707
 40
34.50623
  0
SEQEND
  0
POLYLINE
  8
LC_OH_2021_05_O7
  70
1
  66
1
  0
VERTEX
  8
LC_OH_2021_05_O7
  10
314612.956
  20
4484561.719
  0
VERTEX
  8
LC_OH_2021_05_O7
  10
314973.002
  20
4484663.000
  0
VERTEX
  8
LC_OH_2021_05_O7
  10
314974.502
  20
4484663.500
  0
VERTEX
  8
LC_OH_2021_05_O7
  10
314977.002
  20
4484663.500
  0
VERTEX
  8
LC_OH_2021_05_O7
  10
314981.002
  20
4484660.500
  0
VERTEX
  8
LC_OH_2021_05_O7
  10
315619.002
  20
4484155.000
  0
VERTEX
  8
LC_OH_2021_05_O7
  10
315504.002
  20
4481285.500
  0
VERTEX
  8
LC_OH_2021_05_O7
  10
315502.502
  20
4481282.000
  0
VERTEX
  8
LC_OH_2021_05_O7
  10
314526.325
  20
4481067.913
  0
VERTEX
  8
LC_OH_2021_05_O7
  10
314580.190
  20
4483240.640
  0
SEQEND
  8
LC_OH_2021_05_O7
  0
INSERT
  8
FeatureAttribs
  2
FEATURE
  41
1
  42
1
  43
1
  50
0
  10
326221.599
  20
4482403.000
 66
1
  0
ATTRIB
  8
FeatureAttribs
 70
0
  1
PNOA-H_AMS_1956-57_33k_ES_PAN_21mic_H50_0555_fot_67B-18356_E.tif
  2
NAME
  10
326221.599
  20
4482403.000
 40
34.50623
  0
SEQEND
  0
POLYLINE
  8
LC_OH_2021_05_O7
  70
1
  66
1
  0
VERTEX
  8
LC_OH_2021_05_O7
  10
326767.502
  20
4483923.500
  0
VERTEX
  8
LC_OH_2021_05_O7
  10
327454.502
  20
4483670.500
  0
VERTEX
  8
LC_OH_2021_05_O7
  10
327368.002
  20
4480999.000
  0
VERTEX
  8
LC_OH_2021_05_O7
  10
326155.502
  20
4480614.500
  0
VERTEX
  8
LC_OH_2021_05_O7
  10
324996.002
  20
4481015.000
  0
VERTEX
  8
LC_OH_2021_05_O7
  10
325061.002
  20
4483690.500
  0
VERTEX
  8
LC_OH_2021_05_O7
  10
326040.002
  20
4484191.500
  0
VERTEX
  8
LC_OH_2021_05_O7
  10
326765.502
  20
4483924.000
  0
VERTEX
  8
LC_OH_2021_05_O7
  10
326767.502
  20
4483923.500
  0
SEQEND
  8
LC_OH_2021_05_O7
  0
INSERT
  8
FeatureAttribs
  2
FEATURE
  41
1
  42
1
  43
1
  50
0
  10
321415.464
  20
4482457.500
 66
1
  0
ATTRIB
  8
FeatureAttribs
 70
0
  1
PNOA-H_AMS_1956-57_33k_ES_PAN_21mic_H50_0555_fot_67B-18354_E.tif
  2
NAME
  10
321415.464
  20
4482457.500
 40
34.50623
  0
SEQEND
  0
POLYLINE
  8
LC_OH_2021_05_O7
  70
1
  66
1
  0
VERTEX
  8
LC_OH_2021_05_O7
  10
321791.002
  20
4484212.500
  0
VERTEX
  8
LC_OH_2021_05_O7
  10
322662.502
  20
4483693.500
  0
VERTEX
  8
LC_OH_2021_05_O7
  10
322592.002
  20
4481074.000
  0
VERTEX
  8
LC_OH_2021_05_O7
  10
321165.002
  20
4480702.500
  0
VERTEX
  8
LC_OH_2021_05_O7
  10
320128.002
  20
4481124.500
  0
VERTEX
  8
LC_OH_2021_05_O7
  10
320279.002
  20
4483856.500
  0
VERTEX
  8
LC_OH_2021_05_O7
  10
321789.002
  20
4484212.000
  0
VERTEX
  8
LC_OH_2021_05_O7
  10
321791.002
  20
4484212.500
  0
SEQEND
  8
LC_OH_2021_05_O7
  0
INSERT
  8
FeatureAttribs
  2
FEATURE
  41
1
  42
1
  43
1
  50
0
  10
323829.407
  20
4482436.249
 66
1
  0
ATTRIB
  8
FeatureAttribs
 70
0
  1
PNOA-H_AMS_1956-57_33k_ES_PAN_21mic_H50_0555_fot_67B-18355_E.tif
  2
NAME
  10
323829.407
  20
4482436.249
 40
34.50623
  0
SEQEND
  0
POLYLINE
  8
LC_OH_2021_05_O7
  70
1
  66
1
  0
VERTEX
  8
LC_OH_2021_05_O7
  10
322670.502
  20
4483697.000
  0
VERTEX
  8
LC_OH_2021_05_O7
  10
323835.502
  20
4484199.000
  0
VERTEX
  8
LC_OH_2021_05_O7
  10
323867.002
  20
4484212.500
  0
VERTEX
  8
LC_OH_2021_05_O7
  10
323869.502
  20
4484212.500
  0
VERTEX
  8
LC_OH_2021_05_O7
  10
325061.002
  20
4483690.500
  0
VERTEX
  8
LC_OH_2021_05_O7
  10
324995.502
  20
4481015.000
  0
VERTEX
  8
LC_OH_2021_05_O7
  10
323670.502
  20
4480660.000
  0
VERTEX
  8
LC_OH_2021_05_O7
  10
322592.002
  20
4481074.000
  0
VERTEX
  8
LC_OH_2021_05_O7
  10
322662.002
  20
4483685.500
  0
VERTEX
  8
LC_OH_2021_05_O7
  10
322662.502
  20
4483693.500
  0
VERTEX
  8
LC_OH_2021_05_O7
  10
322669.002
  20
4483696.500
  0
VERTEX
  8
LC_OH_2021_05_O7
  10
322670.502
  20
4483697.000
  0
SEQEND
  8
LC_OH_2021_05_O7
  0
INSERT
  8
FeatureAttribs
  2
FEATURE
  41
1
  42
1
  43
1
  50
0
  10
328594.011
  20
4482416.499
 66
1
  0
ATTRIB
  8
FeatureAttribs
 70
0
  1
PNOA-H_AMS_1956-57_33k_ES_PAN_21mic_H50_0555_fot_67B-18357_E.tif
  2
NAME
  10
328594.011
  20
4482416.499
 40
34.50623
  0
SEQEND
  0
POLYLINE
  8
LC_OH_2021_05_O7
  70
1
  66
1
  0
VERTEX
  8
LC_OH_2021_05_O7
  10
328815.503
  20
4484073.000
  0
VERTEX
  8
LC_OH_2021_05_O7
  10
329838.503
  20
4483688.000
  0
VERTEX
  8
LC_OH_2021_05_O7
  10
329700.503
  20
4480962.500
  0
VERTEX
  8
LC_OH_2021_05_O7
  10
329700.003
  20
4480960.000
  0
VERTEX
  8
LC_OH_2021_05_O7
  10
329696.503
  20
4480958.500
  0
VERTEX
  8
LC_OH_2021_05_O7
  10
328543.503
  20
4480605.000
  0
VERTEX
  8
LC_OH_2021_05_O7
  10
327368.002
  20
4480999.000
  0
VERTEX
  8
LC_OH_2021_05_O7
  10
327454.502
  20
4483671.000
  0
VERTEX
  8
LC_OH_2021_05_O7
  10
328403.002
  20
4484228.000
  0
VERTEX
  8
LC_OH_2021_05_O7
  10
328814.003
  20
4484073.500
  0
VERTEX
  8
LC_OH_2021_05_O7
  10
328815.503
  20
4484073.000
  0
SEQEND
  8
LC_OH_2021_05_O7
  0
INSERT
  8
FeatureAttribs
  2
FEATURE
  41
1
  42
1
  43
1
  50
0
  10
342433.579
  20
4482124.999
 66
1
  0
ATTRIB
  8
FeatureAttribs
 70
0
  1
PNOA-H_AMS_1956-57_33k_ES_PAN_21mic_H50_0555_fot_67B-18363_E.tif
  2
NAME
  10
342433.579
  20
4482124.999
 40
34.50623
  0
SEQEND
  0
POLYLINE
  8
LC_OH_2021_05_O7
  70
1
  66
1
  0
VERTEX
  8
LC_OH_2021_05_O7
  10
342854.712
  20
4483467.094
  0
VERTEX
  8
LC_OH_2021_05_O7
  10
342836.348
  20
4482593.403
  0
VERTEX
  8
LC_OH_2021_05_O7
  10
342793.392
  20
4480548.977
  0
VERTEX
  8
LC_OH_2021_05_O7
  10
341296.003
  20
4480815.000
  0
VERTEX
  8
LC_OH_2021_05_O7
  10
341309.003
  20
4483422.000
  0
VERTEX
  8
LC_OH_2021_05_O7
  10
341855.503
  20
4483747.500
  0
VERTEX
  8
LC_OH_2021_05_O7
  10
341856.503
  20
4483748.000
  0
SEQEND
  8
LC_OH_2021_05_O7
  0
INSERT
  8
FeatureAttribs
  2
FEATURE
  41
1
  42
1
  43
1
  50
0
  10
337829.739
  20
4482228.249
 66
1
  0
ATTRIB
  8
FeatureAttribs
 70
0
  1
PNOA-H_AMS_1956-57_33k_ES_PAN_21mic_H50_0555_fot_67B-18361_E.tif
  2
NAME
  10
337829.739
  20
4482228.249
 40
34.50623
  0
SEQEND
  0
POLYLINE
  8
LC_OH_2021_05_O7
  70
1
  66
1
  0
VERTEX
  8
LC_OH_2021_05_O7
  10
337334.003
  20
4483922.000
  0
VERTEX
  8
LC_OH_2021_05_O7
  10
339050.503
  20
4483478.500
  0
VERTEX
  8
LC_OH_2021_05_O7
  10
338998.003
  20
4480938.500
  0
VERTEX
  8
LC_OH_2021_05_O7
  10
338160.003
  20
4480538.000
  0
VERTEX
  8
LC_OH_2021_05_O7
  10
338152.503
  20
4480534.500
  0
VERTEX
  8
LC_OH_2021_05_O7
  10
338149.503
  20
4480534.500
  0
VERTEX
  8
LC_OH_2021_05_O7
  10
336617.003
  20
4480942.500
  0
VERTEX
  8
LC_OH_2021_05_O7
  10
336653.503
  20
4483579.500
  0
VERTEX
  8
LC_OH_2021_05_O7
  10
337333.003
  20
4483921.500
  0
VERTEX
  8
LC_OH_2021_05_O7
  10
337334.003
  20
4483922.000
  0
SEQEND
  8
LC_OH_2021_05_O7
  0
INSERT
  8
FeatureAttribs
  2
FEATURE
  41
1
  42
1
  43
1
  50
0
  10
333167.077
  20
4482296.500
 66
1
  0
ATTRIB
  8
FeatureAttribs
 70
0
  1
PNOA-H_AMS_1956-57_33k_ES_PAN_21mic_H50_0555_fot_67B-18359_E.tif
  2
NAME
  10
333167.077
  20
4482296.500
 40
34.50623
  0
SEQEND
  0
POLYLINE
  8
LC_OH_2021_05_O7
  70
1
  66
1
  0
VERTEX
  8
LC_OH_2021_05_O7
  10
333065.503
  20
4484066.500
  0
VERTEX
  8
LC_OH_2021_05_O7
  10
334318.503
  20
4483633.500
  0
VERTEX
  8
LC_OH_2021_05_O7
  10
334298.503
  20
4480925.000
  0
VERTEX
  8
LC_OH_2021_05_O7
  10
333421.003
  20
4480526.500
  0
VERTEX
  8
LC_OH_2021_05_O7
  10
331955.503
  20
4480903.500
  0
VERTEX
  8
LC_OH_2021_05_O7
  10
332095.003
  20
4483679.500
  0
VERTEX
  8
LC_OH_2021_05_O7
  10
333064.503
  20
4484066.000
  0
VERTEX
  8
LC_OH_2021_05_O7
  10
333065.503
  20
4484066.500
  0
SEQEND
  8
LC_OH_2021_05_O7
  0
INSERT
  8
FeatureAttribs
  2
FEATURE
  41
1
  42
1
  43
1
  50
0
  10
335472.258
  20
4482294.498
 66
1
  0
ATTRIB
  8
FeatureAttribs
 70
0
  1
PNOA-H_AMS_1956-57_33k_ES_PAN_21mic_H50_0555_fot_67B-18360_E.tif
  2
NAME
  10
335472.258
  20
4482294.498
 40
34.50623
  0
SEQEND
  0
POLYLINE
  8
LC_OH_2021_05_O7
  70
1
  66
1
  0
VERTEX
  8
LC_OH_2021_05_O7
  10
335200.503
  20
4484029.000
  0
VERTEX
  8
LC_OH_2021_05_O7
  10
336653.503
  20
4483579.500
  0
VERTEX
  8
LC_OH_2021_05_O7
  10
336617.503
  20
4480952.500
  0
VERTEX
  8
LC_OH_2021_05_O7
  10
336616.503
  20
4480942.000
  0
VERTEX
  8
LC_OH_2021_05_O7
  10
335770.003
  20
4480560.000
  0
VERTEX
  8
LC_OH_2021_05_O7
  10
334298.503
  20
4480925.000
  0
VERTEX
  8
LC_OH_2021_05_O7
  10
334318.503
  20
4483633.500
  0
VERTEX
  8
LC_OH_2021_05_O7
  10
335199.503
  20
4484028.500
  0
VERTEX
  8
LC_OH_2021_05_O7
  10
335200.503
  20
4484029.000
  0
SEQEND
  8
LC_OH_2021_05_O7
  0
INSERT
  8
FeatureAttribs
  2
FEATURE
  41
1
  42
1
  43
1
  50
0
  10
330899.018
  20
4482343.499
 66
1
  0
ATTRIB
  8
FeatureAttribs
 70
0
  1
PNOA-H_AMS_1956-57_33k_ES_PAN_21mic_H50_0555_fot_67B-18358_E.tif
  2
NAME
  10
330899.018
  20
4482343.499
 40
34.50623
  0
SEQEND
  0
POLYLINE
  8
LC_OH_2021_05_O7
  70
1
  66
1
  0
VERTEX
  8
LC_OH_2021_05_O7
  10
330863.503
  20
4484143.000
  0
VERTEX
  8
LC_OH_2021_05_O7
  10
332095.003
  20
4483680.000
  0
VERTEX
  8
LC_OH_2021_05_O7
  10
331955.503
  20
4480903.500
  0
VERTEX
  8
LC_OH_2021_05_O7
  10
330997.003
  20
4480533.500
  0
VERTEX
  8
LC_OH_2021_05_O7
  10
329705.003
  20
4480958.000
  0
VERTEX
  8
LC_OH_2021_05_O7
  10
329700.503
  20
4480959.500
  0
VERTEX
  8
LC_OH_2021_05_O7
  10
329700.003
  20
4480962.500
  0
VERTEX
  8
LC_OH_2021_05_O7
  10
329838.503
  20
4483688.500
  0
VERTEX
  8
LC_OH_2021_05_O7
  10
330832.003
  20
4484152.000
  0
VERTEX
  8
LC_OH_2021_05_O7
  10
330837.003
  20
4484153.500
  0
VERTEX
  8
LC_OH_2021_05_O7
  10
330862.003
  20
4484143.500
  0
VERTEX
  8
LC_OH_2021_05_O7
  10
330863.503
  20
4484143.000
  0
SEQEND
  8
LC_OH_2021_05_O7
  0
INSERT
  8
FeatureAttribs
  2
FEATURE
  41
1
  42
1
  43
1
  50
0
  10
340162.910
  20
4482143.749
 66
1
  0
ATTRIB
  8
FeatureAttribs
 70
0
  1
PNOA-H_AMS_1956-57_33k_ES_PAN_21mic_H50_0555_fot_67B-18362_E.tif
  2
NAME
  10
340162.910
  20
4482143.749
 40
34.50623
  0
SEQEND
  0
POLYLINE
  8
LC_OH_2021_05_O7
  70
1
  66
1
  0
VERTEX
  8
LC_OH_2021_05_O7
  10
341103.503
  20
4483466.500
  0
VERTEX
  8
LC_OH_2021_05_O7
  10
341309.003
  20
4483421.500
  0
VERTEX
  8
LC_OH_2021_05_O7
  10
341296.003
  20
4480815.000
  0
VERTEX
  8
LC_OH_2021_05_O7
  10
340596.003
  20
4480485.000
  0
VERTEX
  8
LC_OH_2021_05_O7
  10
338998.503
  20
4480938.500
  0
VERTEX
  8
LC_OH_2021_05_O7
  10
339050.503
  20
4483478.500
  0
VERTEX
  8
LC_OH_2021_05_O7
  10
339561.503
  20
4483802.500
  0
VERTEX
  8
LC_OH_2021_05_O7
  10
339564.503
  20
4483802.500
  0
VERTEX
  8
LC_OH_2021_05_O7
  10
341101.503
  20
4483466.500
  0
VERTEX
  8
LC_OH_2021_05_O7
  10
341103.503
  20
4483466.500
  0
SEQEND
  8
LC_OH_2021_05_O7
  0
INSERT
  8
FeatureAttribs
  2
FEATURE
  41
1
  42
1
  43
1
  50
0
  10
341791.541
  20
4478933.000
 66
1
  0
ATTRIB
  8
FeatureAttribs
 70
0
  1
PNOA-H_AMS_1956-57_33k_ES_PAN_21mic_H50_0555_fot_68C-27841_W.tif
  2
NAME
  10
341791.541
  20
4478933.000
 40
34.50623
  0
SEQEND
  0
POLYLINE
  8
LC_OH_2021_05_O7
  70
1
  66
1
  0
VERTEX
  8
LC_OH_2021_05_O7
  10
342793.400
  20
4480549.354
  0
VERTEX
  8
LC_OH_2021_05_O7
  10
342787.756
  20
4480280.726
  0
VERTEX
  8
LC_OH_2021_05_O7
  10
342739.185
  20
4477968.056
  0
VERTEX
  8
LC_OH_2021_05_O7
  10
342725.594
  20
4477320.657
  0
VERTEX
  8
LC_OH_2021_05_O7
  10
341226.503
  20
4477051.000
  0
VERTEX
  8
LC_OH_2021_05_O7
  10
340525.003
  20
4477393.500
  0
VERTEX
  8
LC_OH_2021_05_O7
  10
340595.003
  20
4480485.000
  0
VERTEX
  8
LC_OH_2021_05_O7
  10
341294.003
  20
4480814.500
  0
VERTEX
  8
LC_OH_2021_05_O7
  10
341295.003
  20
4480815.000
  0
SEQEND
  8
LC_OH_2021_05_O7
  0
INSERT
  8
FeatureAttribs
  2
FEATURE
  41
1
  42
1
  43
1
  50
0
  10
339352.963
  20
4479010.499
 66
1
  0
ATTRIB
  8
FeatureAttribs
 70
0
  1
PNOA-H_AMS_1956-57_33k_ES_PAN_21mic_H50_0555_fot_68C-27842_W.tif
  2
NAME
  10
339352.963
  20
4479010.499
 40
34.50623
  0
SEQEND
  0
POLYLINE
  8
LC_OH_2021_05_O7
  70
1
  66
1
  0
VERTEX
  8
LC_OH_2021_05_O7
  10
339055.503
  20
4480922.500
  0
VERTEX
  8
LC_OH_2021_05_O7
  10
340595.003
  20
4480485.000
  0
VERTEX
  8
LC_OH_2021_05_O7
  10
340525.003
  20
4477393.500
  0
VERTEX
  8
LC_OH_2021_05_O7
  10
338687.503
  20
4477082.000
  0
VERTEX
  8
LC_OH_2021_05_O7
  10
338136.503
  20
4477355.500
  0
VERTEX
  8
LC_OH_2021_05_O7
  10
338151.503
  20
4480534.500
  0
VERTEX
  8
LC_OH_2021_05_O7
  10
338998.003
  20
4480939.000
  0
VERTEX
  8
LC_OH_2021_05_O7
  10
339053.003
  20
4480923.000
  0
VERTEX
  8
LC_OH_2021_05_O7
  10
339055.503
  20
4480922.500
  0
SEQEND
  8
LC_OH_2021_05_O7
  0
INSERT
  8
FeatureAttribs
  2
FEATURE
  41
1
  42
1
  43
1
  50
0
  10
336972.111
  20
4479017.000
 66
1
  0
ATTRIB
  8
FeatureAttribs
 70
0
  1
PNOA-H_AMS_1956-57_33k_ES_PAN_21mic_H50_0555_fot_68C-27843_W.tif
  2
NAME
  10
336972.111
  20
4479017.000
 40
34.50623
  0
SEQEND
  0
POLYLINE
  8
LC_OH_2021_05_O7
  70
1
  66
1
  0
VERTEX
  8
LC_OH_2021_05_O7
  10
337007.503
  20
4480838.500
  0
VERTEX
  8
LC_OH_2021_05_O7
  10
338151.503
  20
4480534.500
  0
VERTEX
  8
LC_OH_2021_05_O7
  10
338136.503
  20
4477355.500
  0
VERTEX
  8
LC_OH_2021_05_O7
  10
336210.003
  20
4477091.500
  0
VERTEX
  8
LC_OH_2021_05_O7
  10
335833.503
  20
4477278.500
  0
VERTEX
  8
LC_OH_2021_05_O7
  10
335770.003
  20
4480560.500
  0
VERTEX
  8
LC_OH_2021_05_O7
  10
336616.503
  20
4480942.500
  0
VERTEX
  8
LC_OH_2021_05_O7
  10
337005.503
  20
4480839.000
  0
VERTEX
  8
LC_OH_2021_05_O7
  10
337007.503
  20
4480838.500
  0
SEQEND
  8
LC_OH_2021_05_O7
  0
INSERT
  8
FeatureAttribs
  2
FEATURE
  41
1
  42
1
  43
1
  50
0
  10
332242.513
  20
4478950.748
 66
1
  0
ATTRIB
  8
FeatureAttribs
 70
0
  1
PNOA-H_AMS_1956-57_33k_ES_PAN_21mic_H50_0555_fot_68C-27845_W.tif
  2
NAME
  10
332242.513
  20
4478950.748
 40
34.50623
  0
SEQEND
  0
POLYLINE
  8
LC_OH_2021_05_O7
  70
1
  66
1
  0
VERTEX
  8
LC_OH_2021_05_O7
  10
332911.503
  20
4480657.500
  0
VERTEX
  8
LC_OH_2021_05_O7
  10
333420.503
  20
4480527.000
  0
VERTEX
  8
LC_OH_2021_05_O7
  10
333421.003
  20
4480526.000
  0
VERTEX
  8
LC_OH_2021_05_O7
  10
333516.503
  20
4477232.000
  0
VERTEX
  8
LC_OH_2021_05_O7
  10
331338.503
  20
4476998.000
  0
VERTEX
  8
LC_OH_2021_05_O7
  10
331041.503
  20
4477148.000
  0
VERTEX
  8
LC_OH_2021_05_O7
  10
330998.003
  20
4480533.500
  0
VERTEX
  8
LC_OH_2021_05_O7
  10
331954.503
  20
4480903.500
  0
VERTEX
  8
LC_OH_2021_05_O7
  10
332909.003
  20
4480658.000
  0
VERTEX
  8
LC_OH_2021_05_O7
  10
332911.503
  20
4480657.500
  0
SEQEND
  8
LC_OH_2021_05_O7
  0
INSERT
  8
FeatureAttribs
  2
FEATURE
  41
1
  42
1
  43
1
  50
0
  10
334632.554
  20
4479001.500
 66
1
  0
ATTRIB
  8
FeatureAttribs
 70
0
  1
PNOA-H_AMS_1956-57_33k_ES_PAN_21mic_H50_0555_fot_68C-27844_W.tif
  2
NAME
  10
334632.554
  20
4479001.500
 40
34.50623
  0
SEQEND
  0
POLYLINE
  8
LC_OH_2021_05_O7
  70
1
  66
1
  0
VERTEX
  8
LC_OH_2021_05_O7
  10
334959.503
  20
4480761.000
  0
VERTEX
  8
LC_OH_2021_05_O7
  10
335770.003
  20
4480560.000
  0
VERTEX
  8
LC_OH_2021_05_O7
  10
335833.503
  20
4477278.500
  0
VERTEX
  8
LC_OH_2021_05_O7
  10
333817.003
  20
4477078.000
  0
VERTEX
  8
LC_OH_2021_05_O7
  10
333516.503
  20
4477231.500
  0
VERTEX
  8
LC_OH_2021_05_O7
  10
333420.503
  20
4480526.500
  0
VERTEX
  8
LC_OH_2021_05_O7
  10
334297.003
  20
4480925.000
  0
VERTEX
  8
LC_OH_2021_05_O7
  10
334311.003
  20
4480922.500
  0
VERTEX
  8
LC_OH_2021_05_O7
  10
334957.503
  20
4480761.500
  0
VERTEX
  8
LC_OH_2021_05_O7
  10
334959.503
  20
4480761.000
  0
SEQEND
  8
LC_OH_2021_05_O7
  0
INSERT
  8
FeatureAttribs
  2
FEATURE
  41
1
  42
1
  43
1
  50
0
  10
327366.912
  20
4478878.999
 66
1
  0
ATTRIB
  8
FeatureAttribs
 70
0
  1
PNOA-H_AMS_1956-57_33k_ES_PAN_21mic_H50_0555_fot_68C-27847_W.tif
  2
NAME
  10
327366.912
  20
4478878.999
 40
34.50623
  0
SEQEND
  0
POLYLINE
  8
LC_OH_2021_05_O7
  70
1
  66
1
  0
VERTEX
  8
LC_OH_2021_05_O7
  10
327367.002
  20
4480999.000
  0
VERTEX
  8
LC_OH_2021_05_O7
  10
328544.003
  20
4480605.000
  0
VERTEX
  8
LC_OH_2021_05_O7
  10
328626.003
  20
4477004.000
  0
VERTEX
  8
LC_OH_2021_05_O7
  10
328626.003
  20
4476986.500
  0
VERTEX
  8
LC_OH_2021_05_O7
  10
328625.003
  20
4476986.000
  0
VERTEX
  8
LC_OH_2021_05_O7
  10
326615.502
  20
4476759.000
  0
VERTEX
  8
LC_OH_2021_05_O7
  10
326144.502
  20
4476983.500
  0
VERTEX
  8
LC_OH_2021_05_O7
  10
326156.002
  20
4480614.500
  0
VERTEX
  8
LC_OH_2021_05_O7
  10
327365.502
  20
4480998.500
  0
VERTEX
  8
LC_OH_2021_05_O7
  10
327367.002
  20
4480999.000
  0
SEQEND
  8
LC_OH_2021_05_O7
  0
INSERT
  8
FeatureAttribs
  2
FEATURE
  41
1
  42
1
  43
1
  50
0
  10
324902.633
  20
4478879.999
 66
1
  0
ATTRIB
  8
FeatureAttribs
 70
0
  1
PNOA-H_AMS_1956-57_33k_ES_PAN_21mic_H50_0555_fot_68C-27848_W.tif
  2
NAME
  10
324902.633
  20
4478879.999
 40
34.50623
  0
SEQEND
  0
POLYLINE
  8
LC_OH_2021_05_O7
  70
1
  66
1
  0
VERTEX
  8
LC_OH_2021_05_O7
  10
324995.502
  20
4481015.500
  0
VERTEX
  8
LC_OH_2021_05_O7
  10
326156.002
  20
4480614.500
  0
VERTEX
  8
LC_OH_2021_05_O7
  10
326144.002
  20
4476983.500
  0
VERTEX
  8
LC_OH_2021_05_O7
  10
324246.502
  20
4476744.500
  0
VERTEX
  8
LC_OH_2021_05_O7
  10
323638.502
  20
4476992.000
  0
VERTEX
  8
LC_OH_2021_05_O7
  10
323670.502
  20
4480660.000
  0
VERTEX
  8
LC_OH_2021_05_O7
  10
324993.502
  20
4481015.000
  0
VERTEX
  8
LC_OH_2021_05_O7
  10
324995.502
  20
4481015.500
  0
SEQEND
  8
LC_OH_2021_05_O7
  0
INSERT
  8
FeatureAttribs
  2
FEATURE
  41
1
  42
1
  43
1
  50
0
  10
319883.599
  20
4478880.498
 66
1
  0
ATTRIB
  8
FeatureAttribs
 70
0
  1
PNOA-H_AMS_1956-57_33k_ES_PAN_21mic_H50_0555_fot_68C-27850_W.tif
  2
NAME
  10
319883.599
  20
4478880.498
 40
34.50623
  0
SEQEND
  0
POLYLINE
  8
LC_OH_2021_05_O7
  70
1
  66
1
  0
VERTEX
  8
LC_OH_2021_05_O7
  10
320623.502
  20
4480923.000
  0
VERTEX
  8
LC_OH_2021_05_O7
  10
321164.502
  20
4480703.000
  0
VERTEX
  8
LC_OH_2021_05_O7
  10
321089.002
  20
4476971.000
  0
VERTEX
  8
LC_OH_2021_05_O7
  10
319765.502
  20
4476638.000
  0
VERTEX
  8
LC_OH_2021_05_O7
  10
319756.002
  20
4476636.500
  0
VERTEX
  8
LC_OH_2021_05_O7
  10
318605.502
  20
4476925.500
  0
VERTEX
  8
LC_OH_2021_05_O7
  10
318673.502
  20
4480829.000
  0
VERTEX
  8
LC_OH_2021_05_O7
  10
318674.502
  20
4480831.000
  0
VERTEX
  8
LC_OH_2021_05_O7
  10
318696.502
  20
4480835.500
  0
VERTEX
  8
LC_OH_2021_05_O7
  10
320126.002
  20
4481124.500
  0
VERTEX
  8
LC_OH_2021_05_O7
  10
320133.002
  20
4481123.000
  0
VERTEX
  8
LC_OH_2021_05_O7
  10
320621.502
  20
4480923.500
  0
VERTEX
  8
LC_OH_2021_05_O7
  10
320623.502
  20
4480923.000
  0
SEQEND
  8
LC_OH_2021_05_O7
  0
INSERT
  8
FeatureAttribs
  2
FEATURE
  41
1
  42
1
  43
1
  50
0
  10
329800.578
  20
4478914.000
 66
1
  0
ATTRIB
  8
FeatureAttribs
 70
0
  1
PNOA-H_AMS_1956-57_33k_ES_PAN_21mic_H50_0555_fot_68C-27846_W.tif
  2
NAME
  10
329800.578
  20
4478914.000
 40
34.50623
  0
SEQEND
  0
POLYLINE
  8
LC_OH_2021_05_O7
  70
1
  66
1
  0
VERTEX
  8
LC_OH_2021_05_O7
  10
328815.003
  20
4480688.500
  0
VERTEX
  8
LC_OH_2021_05_O7
  10
329700.503
  20
4480960.000
  0
VERTEX
  8
LC_OH_2021_05_O7
  10
330998.003
  20
4480533.500
  0
VERTEX
  8
LC_OH_2021_05_O7
  10
331041.503
  20
4477148.000
  0
VERTEX
  8
LC_OH_2021_05_O7
  10
328886.003
  20
4476868.000
  0
VERTEX
  8
LC_OH_2021_05_O7
  10
328626.003
  20
4476986.500
  0
VERTEX
  8
LC_OH_2021_05_O7
  10
328544.003
  20
4480605.000
  0
VERTEX
  8
LC_OH_2021_05_O7
  10
328813.503
  20
4480688.000
  0
VERTEX
  8
LC_OH_2021_05_O7
  10
328815.003
  20
4480688.500
  0
SEQEND
  8
LC_OH_2021_05_O7
  0
INSERT
  8
FeatureAttribs
  2
FEATURE
  41
1
  42
1
  43
1
  50
0
  10
317497.206
  20
4478936.750
 66
1
  0
ATTRIB
  8
FeatureAttribs
 70
0
  1
PNOA-H_AMS_1956-57_33k_ES_PAN_21mic_H50_0555_fot_68C-27851_W.tif
  2
NAME
  10
317497.206
  20
4478936.750
 40
34.50623
  0
SEQEND
  0
POLYLINE
  8
LC_OH_2021_05_O7
  70
1
  66
1
  0
VERTEX
  8
LC_OH_2021_05_O7
  10
316527.002
  20
4480964.500
  0
VERTEX
  8
LC_OH_2021_05_O7
  10
317824.502
  20
4481181.000
  0
VERTEX
  8
LC_OH_2021_05_O7
  10
318674.002
  20
4480830.500
  0
VERTEX
  8
LC_OH_2021_05_O7
  10
318605.502
  20
4476925.500
  0
VERTEX
  8
LC_OH_2021_05_O7
  10
317775.002
  20
4476692.500
  0
VERTEX
  8
LC_OH_2021_05_O7
  10
316304.002
  20
4476965.500
  0
VERTEX
  8
LC_OH_2021_05_O7
  10
316404.002
  20
4480939.500
  0
VERTEX
  8
LC_OH_2021_05_O7
  10
316404.502
  20
4480944.000
  0
VERTEX
  8
LC_OH_2021_05_O7
  10
316524.002
  20
4480964.000
  0
VERTEX
  8
LC_OH_2021_05_O7
  10
316527.002
  20
4480964.500
  0
SEQEND
  8
LC_OH_2021_05_O7
  0
INSERT
  8
FeatureAttribs
  2
FEATURE
  41
1
  42
1
  43
1
  50
0
  10
315246.887
  20
4479047.999
 66
1
  0
ATTRIB
  8
FeatureAttribs
 70
0
  1
PNOA-H_AMS_1956-57_33k_ES_PAN_21mic_H50_0555_fot_68C-27852_W.tif
  2
NAME
  10
315246.887
  20
4479047.999
 40
34.50623
  0
SEQEND
  0
POLYLINE
  8
LC_OH_2021_05_O7
  70
1
  66
1
  0
VERTEX
  8
LC_OH_2021_05_O7
  10
314526.326
  20
4481067.951
  0
VERTEX
  8
LC_OH_2021_05_O7
  10
315500.502
  20
4481282.000
  0
VERTEX
  8
LC_OH_2021_05_O7
  10
315502.502
  20
4481282.500
  0
VERTEX
  8
LC_OH_2021_05_O7
  10
316404.502
  20
4480944.000
  0
VERTEX
  8
LC_OH_2021_05_O7
  10
316304.002
  20
4476965.500
  0
VERTEX
  8
LC_OH_2021_05_O7
  10
315793.002
  20
4476813.500
  0
VERTEX
  8
LC_OH_2021_05_O7
  10
315789.002
  20
4476813.500
  0
VERTEX
  8
LC_OH_2021_05_O7
  10
315750.502
  20
4476822.000
  0
VERTEX
  8
LC_OH_2021_05_O7
  10
314428.384
  20
4477115.088
  0
VERTEX
  8
LC_OH_2021_05_O7
  10
314465.541
  20
4478615.141
  0
VERTEX
  8
LC_OH_2021_05_O7
  10
314522.853
  20
4480927.887
  0
SEQEND
  8
LC_OH_2021_05_O7
  0
INSERT
  8
FeatureAttribs
  2
FEATURE
  41
1
  42
1
  43
1
  50
0
  10
322391.308
  20
4478879.750
 66
1
  0
ATTRIB
  8
FeatureAttribs
 70
0
  1
PNOA-H_AMS_1956-57_33k_ES_PAN_21mic_H50_0555_fot_68C-27849_W.tif
  2
NAME
  10
322391.308
  20
4478879.750
 40
34.50623
  0
SEQEND
  0
POLYLINE
  8
LC_OH_2021_05_O7
  70
1
  66
1
  0
VERTEX
  8
LC_OH_2021_05_O7
  10
322671.502
  20
4481043.500
  0
VERTEX
  8
LC_OH_2021_05_O7
  10
323670.502
  20
4480660.500
  0
VERTEX
  8
LC_OH_2021_05_O7
  10
323638.502
  20
4476992.000
  0
VERTEX
  8
LC_OH_2021_05_O7
  10
321950.502
  20
4476685.500
  0
VERTEX
  8
LC_OH_2021_05_O7
  10
321168.002
  20
4476944.500
  0
VERTEX
  8
LC_OH_2021_05_O7
  10
321089.002
  20
4476971.000
  0
VERTEX
  8
LC_OH_2021_05_O7
  10
321164.502
  20
4480702.500
  0
VERTEX
  8
LC_OH_2021_05_O7
  10
322590.502
  20
4481074.000
  0
VERTEX
  8
LC_OH_2021_05_O7
  10
322596.002
  20
4481073.000
  0
VERTEX
  8
LC_OH_2021_05_O7
  10
322670.002
  20
4481044.000
  0
VERTEX
  8
LC_OH_2021_05_O7
  10
322671.502
  20
4481043.500
  0
SEQEND
  8
LC_OH_2021_05_O7
  0
INSERT
  8
FeatureAttribs
  2
FEATURE
  41
1
  42
1
  43
1
  50
0
  10
314362.676
  20
4467711.074
 66
1
  0
ATTRIB
  8
FeatureAttribs
 70
0
  1
PNOA-H_AMS_1956-57_33k_ES_PAN_21mic_H50_0577_fot_71C-29356_E.tif
  2
NAME
  10
314362.676
  20
4467711.074
 40
34.50623
  0
SEQEND
  0
POLYLINE
  8
LC_OH_2021_05_O7
  70
1
  66
1
  0
VERTEX
  8
LC_OH_2021_05_O7
  10
314521.198
  20
4467043.149
  0
VERTEX
  8
LC_OH_2021_05_O7
  10
314179.349
  20
4467051.520
  0
VERTEX
  8
LC_OH_2021_05_O7
  10
314212.064
  20
4468374.510
  0
VERTEX
  8
LC_OH_2021_05_O7
  10
314355.502
  20
4468379.000
  0
VERTEX
  8
LC_OH_2021_05_O7
  10
314478.002
  20
4468303.500
  0
VERTEX
  8
LC_OH_2021_05_O7
  10
314479.502
  20
4468303.000
  0
VERTEX
  8
LC_OH_2021_05_O7
  10
314546.002
  20
4468262.500
  0
SEQEND
  8
LC_OH_2021_05_O7
  0
INSERT
  8
FeatureAttribs
  2
FEATURE
  41
1
  42
1
  43
1
  50
0
  10
315718.345
  20
4467653.560
 66
1
  0
ATTRIB
  8
FeatureAttribs
 70
0
  1
PNOA-H_AMS_1956-57_33k_ES_PAN_21mic_H50_0578_fot_000-29357_R.tif
  2
NAME
  10
315718.345
  20
4467653.560
 40
34.50623
  0
SEQEND
  0
POLYLINE
  8
LC_OH_2021_05_O7
  70
1
  66
1
  0
VERTEX
  8
LC_OH_2021_05_O7
  10
316891.002
  20
4466985.119
  0
VERTEX
  8
LC_OH_2021_05_O7
  10
314521.188
  20
4467043.149
  0
VERTEX
  8
LC_OH_2021_05_O7
  10
314546.002
  20
4468262.500
  0
VERTEX
  8
LC_OH_2021_05_O7
  10
316740.002
  20
4468322.000
  0
VERTEX
  8
LC_OH_2021_05_O7
  10
316915.502
  20
4468211.000
  0
SEQEND
  8
LC_OH_2021_05_O7
  0
INSERT
  8
FeatureAttribs
  2
FEATURE
  41
1
  42
1
  43
1
  50
0
  10
318117.502
  20
4467569.344
 66
1
  0
ATTRIB
  8
FeatureAttribs
 70
0
  1
PNOA-H_AMS_1956-57_33k_ES_PAN_21mic_H50_0578_fot_000-29358_R.tif
  2
NAME
  10
318117.502
  20
4467569.344
 40
34.50623
  0
SEQEND
  0
POLYLINE
  8
LC_OH_2021_05_O7
  70
1
  66
1
  0
VERTEX
  8
LC_OH_2021_05_O7
  10
319266.102
  20
4466927.689
  0
VERTEX
  8
LC_OH_2021_05_O7
  10
317719.064
  20
4466964.842
  0
VERTEX
  8
LC_OH_2021_05_O7
  10
316891.002
  20
4466985.119
  0
VERTEX
  8
LC_OH_2021_05_O7
  10
316915.502
  20
4468211.000
  0
VERTEX
  8
LC_OH_2021_05_O7
  10
319173.002
  20
4468208.000
  0
VERTEX
  8
LC_OH_2021_05_O7
  10
319344.002
  20
4468100.500
  0
SEQEND
  8
LC_OH_2021_05_O7
  0
INSERT
  8
FeatureAttribs
  2
FEATURE
  41
1
  42
1
  43
1
  50
0
  10
320501.333
  20
4467491.984
 66
1
  0
ATTRIB
  8
FeatureAttribs
 70
0
  1
PNOA-H_AMS_1956-57_33k_ES_PAN_21mic_H50_0578_fot_000-29359_R.tif
  2
NAME
  10
320501.333
  20
4467491.984
 40
34.50623
  0
SEQEND
  0
POLYLINE
  8
LC_OH_2021_05_O7
  70
1
  66
1
  0
VERTEX
  8
LC_OH_2021_05_O7
  10
321635.333
  20
4466870.967
  0
VERTEX
  8
LC_OH_2021_05_O7
  10
321258.764
  20
4466879.833
  0
VERTEX
  8
LC_OH_2021_05_O7
  10
319266.163
  20
4466927.687
  0
VERTEX
  8
LC_OH_2021_05_O7
  10
319344.002
  20
4468100.000
  0
VERTEX
  8
LC_OH_2021_05_O7
  10
321356.502
  20
4468112.500
  0
VERTEX
  8
LC_OH_2021_05_O7
  10
321439.002
  20
4468113.000
  0
VERTEX
  8
LC_OH_2021_05_O7
  10
321508.002
  20
4468113.000
  0
VERTEX
  8
LC_OH_2021_05_O7
  10
321736.502
  20
4467972.500
  0
SEQEND
  8
LC_OH_2021_05_O7
  0
INSERT
  8
FeatureAttribs
  2
FEATURE
  41
1
  42
1
  43
1
  50
0
  10
322862.190
  20
4467393.831
 66
1
  0
ATTRIB
  8
FeatureAttribs
 70
0
  1
PNOA-H_AMS_1956-57_33k_ES_PAN_21mic_H50_0578_fot_000-29360_R.tif
  2
NAME
  10
322862.190
  20
4467393.831
 40
34.50623
  0
SEQEND
  0
POLYLINE
  8
LC_OH_2021_05_O7
  70
1
  66
1
  0
VERTEX
  8
LC_OH_2021_05_O7
  10
323984.292
  20
4466815.662
  0
VERTEX
  8
LC_OH_2021_05_O7
  10
321635.379
  20
4466870.966
  0
VERTEX
  8
LC_OH_2021_05_O7
  10
321736.502
  20
4467972.000
  0
VERTEX
  8
LC_OH_2021_05_O7
  10
322597.502
  20
4467971.000
  0
VERTEX
  8
LC_OH_2021_05_O7
  10
322671.502
  20
4467971.000
  0
VERTEX
  8
LC_OH_2021_05_O7
  10
323859.002
  20
4467970.000
  0
VERTEX
  8
LC_OH_2021_05_O7
  10
324089.002
  20
4467831.000
  0
SEQEND
  8
LC_OH_2021_05_O7
  0
INSERT
  8
FeatureAttribs
  2
FEATURE
  41
1
  42
1
  43
1
  50
0
  10
325144.415
  20
4467297.135
 66
1
  0
ATTRIB
  8
FeatureAttribs
 70
0
  1
PNOA-H_AMS_1956-57_33k_ES_PAN_21mic_H50_0578_fot_000-29361_R.tif
  2
NAME
  10
325144.415
  20
4467297.135
 40
34.50623
  0
SEQEND
  0
POLYLINE
  8
LC_OH_2021_05_O7
  70
1
  66
1
  0
VERTEX
  8
LC_OH_2021_05_O7
  10
326238.307
  20
4466763.271
  0
VERTEX
  8
LC_OH_2021_05_O7
  10
324798.448
  20
4466796.493
  0
VERTEX
  8
LC_OH_2021_05_O7
  10
323984.328
  20
4466815.661
  0
VERTEX
  8
LC_OH_2021_05_O7
  10
324089.002
  20
4467831.000
  0
VERTEX
  8
LC_OH_2021_05_O7
  10
324702.002
  20
4467821.500
  0
VERTEX
  8
LC_OH_2021_05_O7
  10
324719.502
  20
4467821.500
  0
VERTEX
  8
LC_OH_2021_05_O7
  10
326202.502
  20
4467799.500
  0
VERTEX
  8
LC_OH_2021_05_O7
  10
326304.502
  20
4467735.500
  0
SEQEND
  8
LC_OH_2021_05_O7
  0
INSERT
  8
FeatureAttribs
  2
FEATURE
  41
1
  42
1
  43
1
  50
0
  10
331782.582
  20
4467125.670
 66
1
  0
ATTRIB
  8
FeatureAttribs
 70
0
  1
PNOA-H_AMS_1956-57_33k_ES_PAN_21mic_H50_0578_fot_000-29364_R.tif
  2
NAME
  10
331782.582
  20
4467125.670
 40
34.50623
  0
SEQEND
  0
POLYLINE
  8
LC_OH_2021_05_O7
  70
1
  66
1
  0
VERTEX
  8
LC_OH_2021_05_O7
  10
332848.251
  20
4466613.341
  0
VERTEX
  8
LC_OH_2021_05_O7
  10
331877.770
  20
4466634.819
  0
VERTEX
  8
LC_OH_2021_05_O7
  10
330697.662
  20
4466661.491
  0
VERTEX
  8
LC_OH_2021_05_O7
  10
330731.003
  20
4467442.000
  0
VERTEX
  8
LC_OH_2021_05_O7
  10
330861.003
  20
4467489.500
  0
VERTEX
  8
LC_OH_2021_05_O7
  10
330862.503
  20
4467490.000
  0
VERTEX
  8
LC_OH_2021_05_O7
  10
331269.503
  20
4467638.000
  0
VERTEX
  8
LC_OH_2021_05_O7
  10
332867.503
  20
4467310.000
  0
SEQEND
  8
LC_OH_2021_05_O7
  0
INSERT
  8
FeatureAttribs
  2
FEATURE
  41
1
  42
1
  43
1
  50
0
  10
340699.044
  20
4466876.187
 66
1
  0
ATTRIB
  8
FeatureAttribs
 70
0
  1
PNOA-H_AMS_1956-57_33k_ES_PAN_21mic_H50_0578_fot_000-29368_R.tif
  2
NAME
  10
340699.044
  20
4466876.187
 40
34.50623
  0
SEQEND
  0
POLYLINE
  8
LC_OH_2021_05_O7
  70
1
  66
1
  0
VERTEX
  8
LC_OH_2021_05_O7
  10
341738.934
  20
4466420.874
  0
VERTEX
  8
LC_OH_2021_05_O7
  10
339643.585
  20
4466465.271
  0
VERTEX
  8
LC_OH_2021_05_O7
  10
339666.503
  20
4467128.000
  0
VERTEX
  8
LC_OH_2021_05_O7
  10
341097.003
  20
4467315.500
  0
VERTEX
  8
LC_OH_2021_05_O7
  10
341100.503
  20
4467316.000
  0
VERTEX
  8
LC_OH_2021_05_O7
  10
341221.003
  20
4467331.500
  0
VERTEX
  8
LC_OH_2021_05_O7
  10
341754.503
  20
4467071.000
  0
SEQEND
  8
LC_OH_2021_05_O7
  0
INSERT
  8
FeatureAttribs
  2
FEATURE
  41
1
  42
1
  43
1
  50
0
  10
329611.660
  20
4467181.496
 66
1
  0
ATTRIB
  8
FeatureAttribs
 70
0
  1
PNOA-H_AMS_1956-57_33k_ES_PAN_21mic_H50_0578_fot_000-29363_R.tif
  2
NAME
  10
329611.660
  20
4467181.496
 40
34.50623
  0
SEQEND
  0
POLYLINE
  8
LC_OH_2021_05_O7
  70
1
  66
1
  0
VERTEX
  8
LC_OH_2021_05_O7
  10
330697.662
  20
4466661.491
  0
VERTEX
  8
LC_OH_2021_05_O7
  10
328492.316
  20
4466711.336
  0
VERTEX
  8
LC_OH_2021_05_O7
  10
328534.003
  20
4467591.500
  0
VERTEX
  8
LC_OH_2021_05_O7
  10
328764.003
  20
4467701.000
  0
VERTEX
  8
LC_OH_2021_05_O7
  10
328765.003
  20
4467701.500
  0
VERTEX
  8
LC_OH_2021_05_O7
  10
330731.003
  20
4467442.000
  0
SEQEND
  8
LC_OH_2021_05_O7
  0
INSERT
  8
FeatureAttribs
  2
FEATURE
  41
1
  42
1
  43
1
  50
0
  10
327386.144
  20
4467223.418
 66
1
  0
ATTRIB
  8
FeatureAttribs
 70
0
  1
PNOA-H_AMS_1956-57_33k_ES_PAN_21mic_H50_0578_fot_000-29362_R.tif
  2
NAME
  10
327386.144
  20
4467223.418
 40
34.50623
  0
SEQEND
  0
POLYLINE
  8
LC_OH_2021_05_O7
  70
1
  66
1
  0
VERTEX
  8
LC_OH_2021_05_O7
  10
328492.303
  20
4466711.337
  0
VERTEX
  8
LC_OH_2021_05_O7
  10
328338.116
  20
4466714.822
  0
VERTEX
  8
LC_OH_2021_05_O7
  10
326238.285
  20
4466763.272
  0
VERTEX
  8
LC_OH_2021_05_O7
  10
326304.502
  20
4467735.500
  0
VERTEX
  8
LC_OH_2021_05_O7
  10
326765.502
  20
4467705.500
  0
VERTEX
  8
LC_OH_2021_05_O7
  10
326767.502
  20
4467705.500
  0
VERTEX
  8
LC_OH_2021_05_O7
  10
328534.003
  20
4467591.500
  0
SEQEND
  8
LC_OH_2021_05_O7
  0
INSERT
  8
FeatureAttribs
  2
FEATURE
  41
1
  42
1
  43
1
  50
0
  10
336304.755
  20
4467022.095
 66
1
  0
ATTRIB
  8
FeatureAttribs
 70
0
  1
PNOA-H_AMS_1956-57_33k_ES_PAN_21mic_H50_0578_fot_000-29366_R.tif
  2
NAME
  10
336304.755
  20
4467022.095
 40
34.50623
  0
SEQEND
  0
POLYLINE
  8
LC_OH_2021_05_O7
  70
1
  66
1
  0
VERTEX
  8
LC_OH_2021_05_O7
  10
337462.438
  20
4466512.190
  0
VERTEX
  8
LC_OH_2021_05_O7
  10
335417.409
  20
4466556.484
  0
VERTEX
  8
LC_OH_2021_05_O7
  10
335133.506
  20
4466562.767
  0
VERTEX
  8
LC_OH_2021_05_O7
  10
335149.003
  20
4467197.500
  0
VERTEX
  8
LC_OH_2021_05_O7
  10
336033.003
  20
4467492.500
  0
VERTEX
  8
LC_OH_2021_05_O7
  10
336152.003
  20
4467532.000
  0
VERTEX
  8
LC_OH_2021_05_O7
  10
336155.503
  20
4467532.000
  0
VERTEX
  8
LC_OH_2021_05_O7
  10
337475.503
  20
4467143.500
  0
VERTEX
  8
LC_OH_2021_05_O7
  10
337476.003
  20
4467129.500
  0
SEQEND
  8
LC_OH_2021_05_O7
  0
INSERT
  8
FeatureAttribs
  2
FEATURE
  41
1
  42
1
  43
1
  50
0
  10
338564.394
  20
4466967.383
 66
1
  0
ATTRIB
  8
FeatureAttribs
 70
0
  1
PNOA-H_AMS_1956-57_33k_ES_PAN_21mic_H50_0578_fot_000-29367_R.tif
  2
NAME
  10
338564.394
  20
4466967.383
 40
34.50623
  0
SEQEND
  0
POLYLINE
  8
LC_OH_2021_05_O7
  70
1
  66
1
  0
VERTEX
  8
LC_OH_2021_05_O7
  10
339643.830
  20
4466465.265
  0
VERTEX
  8
LC_OH_2021_05_O7
  10
338957.034
  20
4466479.817
  0
VERTEX
  8
LC_OH_2021_05_O7
  10
337462.285
  20
4466512.193
  0
VERTEX
  8
LC_OH_2021_05_O7
  10
337476.003
  20
4467143.000
  0
VERTEX
  8
LC_OH_2021_05_O7
  10
338721.003
  20
4467469.500
  0
VERTEX
  8
LC_OH_2021_05_O7
  10
339666.003
  20
4467128.500
  0
VERTEX
  8
LC_OH_2021_05_O7
  10
339666.503
  20
4467115.000
  0
SEQEND
  8
LC_OH_2021_05_O7
  0
INSERT
  8
FeatureAttribs
  2
FEATURE
  41
1
  42
1
  43
1
  50
0
  10
342125.104
  20
4466759.135
 66
1
  0
ATTRIB
  8
FeatureAttribs
 70
0
  1
PNOA-H_AMS_1956-57_33k_ES_PAN_21mic_H50_0578_fot_000-29369_R.tif
  2
NAME
  10
342125.104
  20
4466759.135
 40
34.50623
  0
SEQEND
  0
POLYLINE
  8
LC_OH_2021_05_O7
  70
1
  66
1
  0
VERTEX
  8
LC_OH_2021_05_O7
  10
342511.496
  20
4467113.451
  0
VERTEX
  8
LC_OH_2021_05_O7
  10
342496.645
  20
4466404.819
  0
VERTEX
  8
LC_OH_2021_05_O7
  10
341738.711
  20
4466420.878
  0
VERTEX
  8
LC_OH_2021_05_O7
  10
341754.503
  20
4467071.000
  0
SEQEND
  8
LC_OH_2021_05_O7
  0
INSERT
  8
FeatureAttribs
  2
FEATURE
  41
1
  42
1
  43
1
  50
0
  10
333998.487
  20
4467058.633
 66
1
  0
ATTRIB
  8
FeatureAttribs
 70
0
  1
PNOA-H_AMS_1956-57_33k_ES_PAN_21mic_H50_0578_fot_000-29365_R.tif
  2
NAME
  10
333998.487
  20
4467058.633
 40
34.50623
  0
SEQEND
  0
POLYLINE
  8
LC_OH_2021_05_O7
  70
1
  66
1
  0
VERTEX
  8
LC_OH_2021_05_O7
  10
335133.511
  20
4466562.767
  0
VERTEX
  8
LC_OH_2021_05_O7
  10
332847.971
  20
4466613.347
  0
VERTEX
  8
LC_OH_2021_05_O7
  10
332867.003
  20
4467308.500
  0
VERTEX
  8
LC_OH_2021_05_O7
  10
332867.503
  20
4467310.500
  0
VERTEX
  8
LC_OH_2021_05_O7
  10
332879.503
  20
4467314.500
  0
VERTEX
  8
LC_OH_2021_05_O7
  10
333618.503
  20
4467553.000
  0
VERTEX
  8
LC_OH_2021_05_O7
  10
333626.503
  20
4467554.500
  0
VERTEX
  8
LC_OH_2021_05_O7
  10
334958.503
  20
4467242.000
  0
VERTEX
  8
LC_OH_2021_05_O7
  10
334959.503
  20
4467242.000
  0
VERTEX
  8
LC_OH_2021_05_O7
  10
335149.003
  20
4467197.500
  0
SEQEND
  8
LC_OH_2021_05_O7
  0
INSERT
  8
FeatureAttribs
  2
FEATURE
  41
1
  42
1
  43
1
  50
0
  10
318606.452
  20
4484771.960
 66
1
  0
ATTRIB
  8
FeatureAttribs
 70
0
  1
PNOA-H_AMS_1956-57_33k_ES_PAN_21mic_H50_0530_fot_000-51034_R.tif
  2
NAME
  10
318606.452
  20
4484771.960
 40
34.50623
  0
SEQEND
  0
POLYLINE
  8
LC_OH_2021_05_O7
  70
1
  66
1
  0
VERTEX
  8
LC_OH_2021_05_O7
  10
319775.902
  20
4485427.906
  0
VERTEX
  8
LC_OH_2021_05_O7
  10
319702.002
  20
4484301.000
  0
VERTEX
  8
LC_OH_2021_05_O7
  10
317954.502
  20
4484061.000
  0
VERTEX
  8
LC_OH_2021_05_O7
  10
317437.002
  20
4484490.000
  0
VERTEX
  8
LC_OH_2021_05_O7
  10
317505.925
  20
4485482.921
  0
VERTEX
  8
LC_OH_2021_05_O7
  10
318168.529
  20
4485466.640
  0
SEQEND
  8
LC_OH_2021_05_O7
  0
INSERT
  8
FeatureAttribs
  2
FEATURE
  41
1
  42
1
  43
1
  50
0
  10
316241.305
  20
4484849.799
 66
1
  0
ATTRIB
  8
FeatureAttribs
 70
0
  1
PNOA-H_AMS_1956-57_33k_ES_PAN_21mic_H50_0530_fot_000-51033_R.tif
  2
NAME
  10
316241.305
  20
4484849.799
 40
34.50623
  0
SEQEND
  0
POLYLINE
  8
LC_OH_2021_05_O7
  70
1
  66
1
  0
VERTEX
  8
LC_OH_2021_05_O7
  10
317506.109
  20
4485482.916
  0
VERTEX
  8
LC_OH_2021_05_O7
  10
317437.002
  20
4484490.500
  0
VERTEX
  8
LC_OH_2021_05_O7
  10
315624.002
  20
4484155.500
  0
VERTEX
  8
LC_OH_2021_05_O7
  10
315618.502
  20
4484155.000
  0
VERTEX
  8
LC_OH_2021_05_O7
  10
315616.502
  20
4484156.500
  0
VERTEX
  8
LC_OH_2021_05_O7
  10
314976.502
  20
4484663.500
  0
VERTEX
  8
LC_OH_2021_05_O7
  10
314995.780
  20
4485544.598
  0
SEQEND
  8
LC_OH_2021_05_O7
  0
INSERT
  8
FeatureAttribs
  2
FEATURE
  41
1
  42
1
  43
1
  50
0
  10
320799.190
  20
4485342.750
 66
1
  0
ATTRIB
  8
FeatureAttribs
 70
0
  1
PNOA-H_AMS_1956-57_33k_ES_PAN_21mic_H50_0530_fot_000-51035_R.tif
  2
NAME
  10
320799.190
  20
4485342.750
 40
34.50623
  0
SEQEND
  0
POLYLINE
  8
LC_OH_2021_05_O7
  70
1
  66
1
  0
VERTEX
  8
LC_OH_2021_05_O7
  10
321829.348
  20
4485378.483
  0
VERTEX
  8
LC_OH_2021_05_O7
  10
321792.002
  20
4484212.500
  0
VERTEX
  8
LC_OH_2021_05_O7
  10
320281.002
  20
4483856.500
  0
VERTEX
  8
LC_OH_2021_05_O7
  10
320277.002
  20
4483857.500
  0
VERTEX
  8
LC_OH_2021_05_O7
  10
319702.002
  20
4484301.000
  0
VERTEX
  8
LC_OH_2021_05_O7
  10
319775.753
  20
4485427.909
  0
VERTEX
  8
LC_OH_2021_05_O7
  10
321699.491
  20
4485381.551
  0
SEQEND
  8
LC_OH_2021_05_O7
  0
INSERT
  8
FeatureAttribs
  2
FEATURE
  41
1
  42
1
  43
1
  50
0
  10
314804.362
  20
4485057.335
 66
1
  0
ATTRIB
  8
FeatureAttribs
 70
0
  1
PNOA-H_AMS_1956-57_33k_ES_PAN_21mic_H50_0530_fot_000-51032_R.tif
  2
NAME
  10
314804.362
  20
4485057.335
 40
34.50623
  0
SEQEND
  0
POLYLINE
  8
LC_OH_2021_05_O7
  70
1
  66
1
  0
VERTEX
  8
LC_OH_2021_05_O7
  10
314995.780
  20
4485544.598
  0
VERTEX
  8
LC_OH_2021_05_O7
  10
314976.502
  20
4484663.500
  0
VERTEX
  8
LC_OH_2021_05_O7
  10
314612.945
  20
4484561.271
  0
VERTEX
  8
LC_OH_2021_05_O7
  10
314637.552
  20
4485553.400
  0
SEQEND
  8
LC_OH_2021_05_O7
  0
INSERT
  8
FeatureAttribs
  2
FEATURE
  41
1
  42
1
  43
1
  50
0
  10
322850.822
  20
4485215.001
 66
1
  0
ATTRIB
  8
FeatureAttribs
 70
0
  1
PNOA-H_AMS_1956-57_33k_ES_PAN_21mic_H50_0530_fot_000-51036_R.tif
  2
NAME
  10
322850.822
  20
4485215.001
 40
34.50623
  0
SEQEND
  0
POLYLINE
  8
LC_OH_2021_05_O7
  70
1
  66
1
  0
VERTEX
  8
LC_OH_2021_05_O7
  10
323878.607
  20
4485330.069
  0
VERTEX
  8
LC_OH_2021_05_O7
  10
323868.002
  20
4484212.500
  0
VERTEX
  8
LC_OH_2021_05_O7
  10
322663.502
  20
4483693.500
  0
VERTEX
  8
LC_OH_2021_05_O7
  10
322656.502
  20
4483696.500
  0
VERTEX
  8
LC_OH_2021_05_O7
  10
321792.002
  20
4484212.000
  0
VERTEX
  8
LC_OH_2021_05_O7
  10
321829.364
  20
4485378.483
  0
SEQEND
  8
LC_OH_2021_05_O7
  0
INSERT
  8
FeatureAttribs
  2
FEATURE
  41
1
  42
1
  43
1
  50
0
  10
324953.242
  20
4485240.500
 66
1
  0
ATTRIB
  8
FeatureAttribs
 70
0
  1
PNOA-H_AMS_1956-57_33k_ES_PAN_21mic_H50_0530_fot_000-51037_R.tif
  2
NAME
  10
324953.242
  20
4485240.500
 40
34.50623
  0
SEQEND
  0
POLYLINE
  8
LC_OH_2021_05_O7
  70
1
  66
1
  0
VERTEX
  8
LC_OH_2021_05_O7
  10
326028.481
  20
4485279.656
  0
VERTEX
  8
LC_OH_2021_05_O7
  10
326040.502
  20
4484191.500
  0
VERTEX
  8
LC_OH_2021_05_O7
  10
325070.502
  20
4483695.000
  0
VERTEX
  8
LC_OH_2021_05_O7
  10
325060.502
  20
4483690.500
  0
VERTEX
  8
LC_OH_2021_05_O7
  10
323868.002
  20
4484212.500
  0
VERTEX
  8
LC_OH_2021_05_O7
  10
323878.406
  20
4485330.074
  0
VERTEX
  8
LC_OH_2021_05_O7
  10
325230.438
  20
4485298.132
  0
SEQEND
  8
LC_OH_2021_05_O7
  0
INSERT
  8
FeatureAttribs
  2
FEATURE
  41
1
  42
1
  43
1
  50
0
  10
329608.301
  20
4484456.599
 66
1
  0
ATTRIB
  8
FeatureAttribs
 70
0
  1
PNOA-H_AMS_1956-57_33k_ES_PAN_21mic_H50_0530_fot_000-51039_R.tif
  2
NAME
  10
329608.301
  20
4484456.599
 40
34.50623
  0
SEQEND
  0
POLYLINE
  8
LC_OH_2021_05_O7
  70
1
  66
1
  0
VERTEX
  8
LC_OH_2021_05_O7
  10
330811.779
  20
4485169.881
  0
VERTEX
  8
LC_OH_2021_05_O7
  10
330836.003
  20
4484168.500
  0
VERTEX
  8
LC_OH_2021_05_O7
  10
330835.503
  20
4484153.000
  0
VERTEX
  8
LC_OH_2021_05_O7
  10
329838.003
  20
4483688.000
  0
VERTEX
  8
LC_OH_2021_05_O7
  10
328403.502
  20
4484228.500
  0
VERTEX
  8
LC_OH_2021_05_O7
  10
328380.599
  20
4485225.199
  0
VERTEX
  8
LC_OH_2021_05_O7
  10
328761.370
  20
4485216.383
  0
SEQEND
  8
LC_OH_2021_05_O7
  0
INSERT
  8
FeatureAttribs
  2
FEATURE
  41
1
  42
1
  43
1
  50
0
  10
334155.898
  20
4484376.290
 66
1
  0
ATTRIB
  8
FeatureAttribs
 70
0
  1
PNOA-H_AMS_1956-57_33k_ES_PAN_21mic_H50_0530_fot_000-51041_R.tif
  2
NAME
  10
334155.898
  20
4484376.290
 40
34.50623
  0
SEQEND
  0
POLYLINE
  8
LC_OH_2021_05_O7
  70
1
  66
1
  0
VERTEX
  8
LC_OH_2021_05_O7
  10
335245.793
  20
4485070.718
  0
VERTEX
  8
LC_OH_2021_05_O7
  10
335201.503
  20
4484029.000
  0
VERTEX
  8
LC_OH_2021_05_O7
  10
334634.003
  20
4483774.500
  0
VERTEX
  8
LC_OH_2021_05_O7
  10
334633.003
  20
4483774.500
  0
VERTEX
  8
LC_OH_2021_05_O7
  10
334324.003
  20
4483635.500
  0
VERTEX
  8
LC_OH_2021_05_O7
  10
334317.003
  20
4483633.500
  0
VERTEX
  8
LC_OH_2021_05_O7
  10
333066.003
  20
4484066.000
  0
VERTEX
  8
LC_OH_2021_05_O7
  10
333067.971
  20
4485119.079
  0
SEQEND
  8
LC_OH_2021_05_O7
  0
INSERT
  8
FeatureAttribs
  2
FEATURE
  41
1
  42
1
  43
1
  50
0
  10
338496.611
  20
4484250.867
 66
1
  0
ATTRIB
  8
FeatureAttribs
 70
0
  1
PNOA-H_AMS_1956-57_33k_ES_PAN_21mic_H50_0530_fot_000-51043_R.tif
  2
NAME
  10
338496.611
  20
4484250.867
 40
34.50623
  0
SEQEND
  0
POLYLINE
  8
LC_OH_2021_05_O7
  70
1
  66
1
  0
VERTEX
  8
LC_OH_2021_05_O7
  10
339658.719
  20
4484974.680
  0
VERTEX
  8
LC_OH_2021_05_O7
  10
339562.503
  20
4483802.500
  0
VERTEX
  8
LC_OH_2021_05_O7
  10
339051.003
  20
4483478.500
  0
VERTEX
  8
LC_OH_2021_05_O7
  10
337335.003
  20
4483921.500
  0
VERTEX
  8
LC_OH_2021_05_O7
  10
337334.503
  20
4483926.500
  0
VERTEX
  8
LC_OH_2021_05_O7
  10
337418.062
  20
4485023.234
  0
VERTEX
  8
LC_OH_2021_05_O7
  10
339354.083
  20
4484981.157
  0
SEQEND
  8
LC_OH_2021_05_O7
  0
INSERT
  8
FeatureAttribs
  2
FEATURE
  41
1
  42
1
  43
1
  50
0
  10
331939.764
  20
4484424.693
 66
1
  0
ATTRIB
  8
FeatureAttribs
 70
0
  1
PNOA-H_AMS_1956-57_33k_ES_PAN_21mic_H50_0530_fot_000-51040_R.tif
  2
NAME
  10
331939.764
  20
4484424.693
 40
34.50623
  0
SEQEND
  0
POLYLINE
  8
LC_OH_2021_05_O7
  70
1
  66
1
  0
VERTEX
  8
LC_OH_2021_05_O7
  10
333067.971
  20
4485119.079
  0
VERTEX
  8
LC_OH_2021_05_O7
  10
333066.003
  20
4484066.500
  0
VERTEX
  8
LC_OH_2021_05_O7
  10
332095.503
  20
4483679.500
  0
VERTEX
  8
LC_OH_2021_05_O7
  10
330836.003
  20
4484153.500
  0
VERTEX
  8
LC_OH_2021_05_O7
  10
330811.557
  20
4485169.887
  0
VERTEX
  8
LC_OH_2021_05_O7
  10
332292.289
  20
4485136.305
  0
SEQEND
  8
LC_OH_2021_05_O7
  0
INSERT
  8
FeatureAttribs
  2
FEATURE
  41
1
  42
1
  43
1
  50
0
  10
340748.980
  20
4484198.091
 66
1
  0
ATTRIB
  8
FeatureAttribs
 70
0
  1
PNOA-H_AMS_1956-57_33k_ES_PAN_21mic_H50_0530_fot_000-51044_R.tif
  2
NAME
  10
340748.980
  20
4484198.091
 40
34.50623
  0
SEQEND
  0
POLYLINE
  8
LC_OH_2021_05_O7
  70
1
  66
1
  0
VERTEX
  8
LC_OH_2021_05_O7
  10
341935.458
  20
4484926.275
  0
VERTEX
  8
LC_OH_2021_05_O7
  10
341857.003
  20
4483748.000
  0
VERTEX
  8
LC_OH_2021_05_O7
  10
341309.003
  20
4483421.500
  0
VERTEX
  8
LC_OH_2021_05_O7
  10
339562.503
  20
4483802.500
  0
VERTEX
  8
LC_OH_2021_05_O7
  10
339658.601
  20
4484974.683
  0
SEQEND
  8
LC_OH_2021_05_O7
  0
INSERT
  8
FeatureAttribs
  2
FEATURE
  41
1
  42
1
  43
1
  50
0
  10
327216.240
  20
4484475.078
 66
1
  0
ATTRIB
  8
FeatureAttribs
 70
0
  1
PNOA-H_AMS_1956-57_33k_ES_PAN_21mic_H50_0530_fot_000-51038_R.tif
  2
NAME
  10
327216.240
  20
4484475.078
 40
34.50623
  0
SEQEND
  0
POLYLINE
  8
LC_OH_2021_05_O7
  70
1
  66
1
  0
VERTEX
  8
LC_OH_2021_05_O7
  10
328380.895
  20
4485225.192
  0
VERTEX
  8
LC_OH_2021_05_O7
  10
328404.002
  20
4484228.000
  0
VERTEX
  8
LC_OH_2021_05_O7
  10
327454.502
  20
4483670.500
  0
VERTEX
  8
LC_OH_2021_05_O7
  10
326040.502
  20
4484191.000
  0
VERTEX
  8
LC_OH_2021_05_O7
  10
326028.478
  20
4485279.656
  0
SEQEND
  8
LC_OH_2021_05_O7
  0
INSERT
  8
FeatureAttribs
  2
FEATURE
  41
1
  42
1
  43
1
  50
0
  10
336309.939
  20
4484325.109
 66
1
  0
ATTRIB
  8
FeatureAttribs
 70
0
  1
PNOA-H_AMS_1956-57_33k_ES_PAN_21mic_H50_0530_fot_000-51042_R.tif
  2
NAME
  10
336309.939
  20
4484325.109
 40
34.50623
  0
SEQEND
  0
POLYLINE
  8
LC_OH_2021_05_O7
  70
1
  66
1
  0
VERTEX
  8
LC_OH_2021_05_O7
  10
337418.374
  20
4485023.227
  0
VERTEX
  8
LC_OH_2021_05_O7
  10
337335.003
  20
4483926.500
  0
VERTEX
  8
LC_OH_2021_05_O7
  10
337334.003
  20
4483921.500
  0
VERTEX
  8
LC_OH_2021_05_O7
  10
337304.503
  20
4483906.500
  0
VERTEX
  8
LC_OH_2021_05_O7
  10
336676.503
  20
4483590.500
  0
VERTEX
  8
LC_OH_2021_05_O7
  10
336654.503
  20
4483579.500
  0
VERTEX
  8
LC_OH_2021_05_O7
  10
336652.003
  20
4483579.500
  0
VERTEX
  8
LC_OH_2021_05_O7
  10
335201.503
  20
4484029.000
  0
VERTEX
  8
LC_OH_2021_05_O7
  10
335245.793
  20
4485070.718
  0
VERTEX
  8
LC_OH_2021_05_O7
  10
335823.193
  20
4485057.896
  0
SEQEND
  8
LC_OH_2021_05_O7
  0
INSERT
  8
FeatureAttribs
  2
FEATURE
  41
1
  42
1
  43
1
  50
0
  10
342370.982
  20
4484196.553
 66
1
  0
ATTRIB
  8
FeatureAttribs
 70
0
  1
PNOA-H_AMS_1956-57_33k_ES_PAN_21mic_H50_0531_fot_000-51045_R.tif
  2
NAME
  10
342370.982
  20
4484196.553
 40
34.50623
  0
SEQEND
  0
POLYLINE
  8
LC_OH_2021_05_O7
  70
1
  66
1
  0
VERTEX
  8
LC_OH_2021_05_O7
  10
342854.707
  20
4483466.831
  0
VERTEX
  8
LC_OH_2021_05_O7
  10
341857.003
  20
4483748.000
  0
VERTEX
  8
LC_OH_2021_05_O7
  10
341935.458
  20
4484926.275
  0
VERTEX
  8
LC_OH_2021_05_O7
  10
342884.960
  20
4484906.088
  0
SEQEND
  8
LC_OH_2021_05_O7
  0
ENDSEC
  0
EOF
