  0
SECTION
  2
HEADER
  9
$ACADVER
  1
AC1009
  9
$LUNITS
  70
2
  9
$LIMMIN
  10
285861.023
  20
4467051.520
  9
$LIMMAX
  10
314637.552
  20
4486307.624
  9
$EXTMIN
  10
285861.023
  20
4467051.520
  9
$EXTMAX
  10
314637.552
  20
4486307.624
  999
Created by Global Mapper
  999
Projection: UTM
  999
Datum: ETRS89
  999
Ground Units: meters
  999
ZONE: 30
  0
ENDSEC
  0
SECTION
  2
TABLES
  0
ENDSEC
  0
SECTION
  2
BLOCKS
  0
BLOCK
  8
FeatureAttribs
  70
0
  2
FEATURE
  3
FEATURE
  10
0.00000000
  20
0.00000000
  0
ATTDEF
  8
FeatureAttribs
  70
0
  1
 
  2
NAME
  3
NAME
  10
0.00000000
  20
0.00000000
  40
1.00000000
  0
ENDBLK
  0
ENDSEC
  0
SECTION
  2
ENTITIES
  0
INSERT
  8
FeatureAttribs
  2
FEATURE
  41
1
  42
1
  43
1
  50
0
  10
312155.204
  20
4467130.324
 66
1
  0
ATTRIB
  8
FeatureAttribs
 70
0
  1
PNOA-H_AMS_1956-57_33k_ES_PAN_21mic_H50_0577_fot_71B-22032_W.tif
  2
NAME
  10
312155.204
  20
4467130.324
 40
34.62494
  0
SEQEND
  0
POLYLINE
  8
LC_OH_2021_05_O7
  70
1
  66
1
  0
VERTEX
  8
LC_OH_2021_05_O7
  10
312190.935
  20
4467101.148
  0
VERTEX
  8
LC_OH_2021_05_O7
  10
312119.472
  20
4467102.931
  0
VERTEX
  8
LC_OH_2021_05_O7
  10
312132.502
  20
4467158.000
  0
VERTEX
  8
LC_OH_2021_05_O7
  10
312132.502
  20
4467159.500
  0
SEQEND
  8
LC_OH_2021_05_O7
  0
INSERT
  8
FeatureAttribs
  2
FEATURE
  41
1
  42
1
  43
1
  50
0
  10
309903.478
  20
4467367.776
 66
1
  0
ATTRIB
  8
FeatureAttribs
 70
0
  1
PNOA-H_AMS_1956-57_33k_ES_PAN_21mic_H50_0577_fot_71B-22033_W.tif
  2
NAME
  10
309903.478
  20
4467367.776
 40
34.62494
  0
SEQEND
  0
POLYLINE
  8
LC_OH_2021_05_O7
  70
1
  66
1
  0
VERTEX
  8
LC_OH_2021_05_O7
  10
310101.452
  20
4467153.552
  0
VERTEX
  8
LC_OH_2021_05_O7
  10
309705.504
  20
4467163.621
  0
VERTEX
  8
LC_OH_2021_05_O7
  10
309771.002
  20
4467582.000
  0
VERTEX
  8
LC_OH_2021_05_O7
  10
309773.002
  20
4467581.000
  0
VERTEX
  8
LC_OH_2021_05_O7
  10
309796.502
  20
4467550.500
  0
SEQEND
  8
LC_OH_2021_05_O7
  0
INSERT
  8
FeatureAttribs
  2
FEATURE
  41
1
  42
1
  43
1
  50
0
  10
303454.501
  20
4467970.935
 66
1
  0
ATTRIB
  8
FeatureAttribs
 70
0
  1
PNOA-H_AMS_1956-57_33k_ES_PAN_21mic_H50_0577_fot_71B-22036_W.tif
  2
NAME
  10
303454.501
  20
4467970.935
 40
34.62494
  0
SEQEND
  0
POLYLINE
  8
LC_OH_2021_05_O7
  70
1
  66
1
  0
VERTEX
  8
LC_OH_2021_05_O7
  10
304011.670
  20
4467309.871
  0
VERTEX
  8
LC_OH_2021_05_O7
  10
303560.106
  20
4467321.567
  0
VERTEX
  8
LC_OH_2021_05_O7
  10
302675.109
  20
4467344.907
  0
VERTEX
  8
LC_OH_2021_05_O7
  10
302648.001
  20
4468217.500
  0
VERTEX
  8
LC_OH_2021_05_O7
  10
302648.001
  20
4468237.000
  0
VERTEX
  8
LC_OH_2021_05_O7
  10
302662.001
  20
4468474.000
  0
VERTEX
  8
LC_OH_2021_05_O7
  10
304253.501
  20
4468631.500
  0
VERTEX
  8
LC_OH_2021_05_O7
  10
304258.501
  20
4468632.000
  0
VERTEX
  8
LC_OH_2021_05_O7
  10
304261.001
  20
4468632.000
  0
VERTEX
  8
LC_OH_2021_05_O7
  10
304259.501
  20
4468622.500
  0
SEQEND
  8
LC_OH_2021_05_O7
  0
INSERT
  8
FeatureAttribs
  2
FEATURE
  41
1
  42
1
  43
1
  50
0
  10
307640.488
  20
4467451.847
 66
1
  0
ATTRIB
  8
FeatureAttribs
 70
0
  1
PNOA-H_AMS_1956-57_33k_ES_PAN_21mic_H50_0577_fot_71B-22034_W.tif
  2
NAME
  10
307640.488
  20
4467451.847
 40
34.62494
  0
SEQEND
  0
POLYLINE
  8
LC_OH_2021_05_O7
  70
1
  66
1
  0
VERTEX
  8
LC_OH_2021_05_O7
  10
307834.744
  20
4467211.194
  0
VERTEX
  8
LC_OH_2021_05_O7
  10
307446.231
  20
4467221.074
  0
VERTEX
  8
LC_OH_2021_05_O7
  10
307502.502
  20
4467692.500
  0
SEQEND
  8
LC_OH_2021_05_O7
  0
INSERT
  8
FeatureAttribs
  2
FEATURE
  41
1
  42
1
  43
1
  50
0
  10
301473.435
  20
4468053.890
 66
1
  0
ATTRIB
  8
FeatureAttribs
 70
0
  1
PNOA-H_AMS_1956-57_33k_ES_PAN_21mic_H50_0577_fot_71B-22037_W.tif
  2
NAME
  10
301473.435
  20
4468053.890
 40
34.62494
  0
SEQEND
  0
POLYLINE
  8
LC_OH_2021_05_O7
  70
1
  66
1
  0
VERTEX
  8
LC_OH_2021_05_O7
  10
302073.246
  20
4467360.780
  0
VERTEX
  8
LC_OH_2021_05_O7
  10
300284.868
  20
4467407.944
  0
VERTEX
  8
LC_OH_2021_05_O7
  10
300355.501
  20
4468533.000
  0
VERTEX
  8
LC_OH_2021_05_O7
  10
302096.001
  20
4468747.000
  0
VERTEX
  8
LC_OH_2021_05_O7
  10
302100.501
  20
4468747.000
  0
VERTEX
  8
LC_OH_2021_05_O7
  10
302108.001
  20
4468743.500
  0
VERTEX
  8
LC_OH_2021_05_O7
  10
302190.001
  20
4468703.000
  0
VERTEX
  8
LC_OH_2021_05_O7
  10
302191.501
  20
4468702.500
  0
VERTEX
  8
LC_OH_2021_05_O7
  10
302662.001
  20
4468474.000
  0
VERTEX
  8
LC_OH_2021_05_O7
  10
302648.001
  20
4468230.000
  0
SEQEND
  8
LC_OH_2021_05_O7
  0
INSERT
  8
FeatureAttribs
  2
FEATURE
  41
1
  42
1
  43
1
  50
0
  10
305543.820
  20
4467867.355
 66
1
  0
ATTRIB
  8
FeatureAttribs
 70
0
  1
PNOA-H_AMS_1956-57_33k_ES_PAN_21mic_H50_0577_fot_71B-22035_W.tif
  2
NAME
  10
305543.820
  20
4467867.355
 40
34.62494
  0
SEQEND
  0
POLYLINE
  8
LC_OH_2021_05_O7
  70
1
  66
1
  0
VERTEX
  8
LC_OH_2021_05_O7
  10
306044.765
  20
4467257.211
  0
VERTEX
  8
LC_OH_2021_05_O7
  10
305042.875
  20
4467283.161
  0
VERTEX
  8
LC_OH_2021_05_O7
  10
305085.001
  20
4468440.500
  0
VERTEX
  8
LC_OH_2021_05_O7
  10
305796.502
  20
4468477.500
  0
SEQEND
  8
LC_OH_2021_05_O7
  0
INSERT
  8
FeatureAttribs
  2
FEATURE
  41
1
  42
1
  43
1
  50
0
  10
299095.920
  20
4467441.750
 66
1
  0
ATTRIB
  8
FeatureAttribs
 70
0
  1
PNOA-H_AMS_1956-57_33k_ES_PAN_21mic_H50_0577_fot_71B-22038_W.tif
  2
NAME
  10
299095.920
  20
4467441.750
 40
34.62494
  0
SEQEND
  0
POLYLINE
  8
LC_OH_2021_05_O7
  70
1
  66
1
  0
VERTEX
  8
LC_OH_2021_05_O7
  10
300284.837
  20
4467407.945
  0
VERTEX
  8
LC_OH_2021_05_O7
  10
300020.325
  20
4467414.921
  0
VERTEX
  8
LC_OH_2021_05_O7
  10
297905.865
  20
4467471.682
  0
VERTEX
  8
LC_OH_2021_05_O7
  10
297943.501
  20
4468600.500
  0
VERTEX
  8
LC_OH_2021_05_O7
  10
299611.001
  20
4468892.000
  0
VERTEX
  8
LC_OH_2021_05_O7
  10
299613.501
  20
4468892.000
  0
VERTEX
  8
LC_OH_2021_05_O7
  10
299620.001
  20
4468889.000
  0
VERTEX
  8
LC_OH_2021_05_O7
  10
300142.501
  20
4468636.000
  0
VERTEX
  8
LC_OH_2021_05_O7
  10
300143.501
  20
4468635.500
  0
VERTEX
  8
LC_OH_2021_05_O7
  10
300355.501
  20
4468533.500
  0
SEQEND
  8
LC_OH_2021_05_O7
  0
INSERT
  8
FeatureAttribs
  2
FEATURE
  41
1
  42
1
  43
1
  50
0
  10
294230.787
  20
4468248.414
 66
1
  0
ATTRIB
  8
FeatureAttribs
 70
0
  1
PNOA-H_AMS_1956-57_33k_ES_PAN_21mic_H50_0577_fot_71B-22040_W.tif
  2
NAME
  10
294230.787
  20
4468248.414
 40
34.62494
  0
SEQEND
  0
POLYLINE
  8
LC_OH_2021_05_O7
  70
1
  66
1
  0
VERTEX
  8
LC_OH_2021_05_O7
  10
295478.073
  20
4467537.327
  0
VERTEX
  8
LC_OH_2021_05_O7
  10
293042.503
  20
4467603.857
  0
VERTEX
  8
LC_OH_2021_05_O7
  10
292983.501
  20
4468657.000
  0
VERTEX
  8
LC_OH_2021_05_O7
  10
293993.501
  20
4468827.500
  0
VERTEX
  8
LC_OH_2021_05_O7
  10
293996.501
  20
4468828.000
  0
VERTEX
  8
LC_OH_2021_05_O7
  10
294775.501
  20
4468959.500
  0
VERTEX
  8
LC_OH_2021_05_O7
  10
295455.501
  20
4468661.000
  0
SEQEND
  8
LC_OH_2021_05_O7
  0
INSERT
  8
FeatureAttribs
  2
FEATURE
  41
1
  42
1
  43
1
  50
0
  10
296694.588
  20
4467767.750
 66
1
  0
ATTRIB
  8
FeatureAttribs
 70
0
  1
PNOA-H_AMS_1956-57_33k_ES_PAN_21mic_H50_0577_fot_71B-22039_W.tif
  2
NAME
  10
296694.588
  20
4467767.750
 40
34.62494
  0
SEQEND
  0
POLYLINE
  8
LC_OH_2021_05_O7
  70
1
  66
1
  0
VERTEX
  8
LC_OH_2021_05_O7
  10
297905.855
  20
4467471.682
  0
VERTEX
  8
LC_OH_2021_05_O7
  10
296480.526
  20
4467509.944
  0
VERTEX
  8
LC_OH_2021_05_O7
  10
295478.090
  20
4467537.327
  0
VERTEX
  8
LC_OH_2021_05_O7
  10
295455.501
  20
4468661.000
  0
VERTEX
  8
LC_OH_2021_05_O7
  10
296042.501
  20
4468764.000
  0
VERTEX
  8
LC_OH_2021_05_O7
  10
296045.001
  20
4468764.500
  0
VERTEX
  8
LC_OH_2021_05_O7
  10
297158.501
  20
4468959.000
  0
VERTEX
  8
LC_OH_2021_05_O7
  10
297943.501
  20
4468600.500
  0
SEQEND
  8
LC_OH_2021_05_O7
  0
INSERT
  8
FeatureAttribs
  2
FEATURE
  41
1
  42
1
  43
1
  50
0
  10
291817.218
  20
4468271.929
 66
1
  0
ATTRIB
  8
FeatureAttribs
 70
0
  1
PNOA-H_AMS_1956-57_33k_ES_PAN_21mic_H50_0577_fot_71B-22041_W.tif
  2
NAME
  10
291817.218
  20
4468271.929
 40
34.62494
  0
SEQEND
  0
POLYLINE
  8
LC_OH_2021_05_O7
  70
1
  66
1
  0
VERTEX
  8
LC_OH_2021_05_O7
  10
293042.435
  20
4467603.859
  0
VERTEX
  8
LC_OH_2021_05_O7
  10
292940.710
  20
4467606.638
  0
VERTEX
  8
LC_OH_2021_05_O7
  10
290640.986
  20
4467670.541
  0
VERTEX
  8
LC_OH_2021_05_O7
  10
290623.501
  20
4467692.500
  0
VERTEX
  8
LC_OH_2021_05_O7
  10
290592.001
  20
4468564.500
  0
VERTEX
  8
LC_OH_2021_05_O7
  10
291949.001
  20
4468859.500
  0
VERTEX
  8
LC_OH_2021_05_O7
  10
291951.001
  20
4468860.000
  0
VERTEX
  8
LC_OH_2021_05_O7
  10
292321.001
  20
4468940.000
  0
VERTEX
  8
LC_OH_2021_05_O7
  10
292983.501
  20
4468657.000
  0
SEQEND
  8
LC_OH_2021_05_O7
  0
INSERT
  8
FeatureAttribs
  2
FEATURE
  41
1
  42
1
  43
1
  50
0
  10
289366.751
  20
4468290.570
 66
1
  0
ATTRIB
  8
FeatureAttribs
 70
0
  1
PNOA-H_AMS_1956-57_33k_ES_PAN_21mic_H50_0577_fot_71B-22042_W.tif
  2
NAME
  10
289366.751
  20
4468290.570
 40
34.62494
  0
SEQEND
  0
POLYLINE
  8
LC_OH_2021_05_O7
  70
1
  66
1
  0
VERTEX
  8
LC_OH_2021_05_O7
  10
290619.441
  20
4467671.139
  0
VERTEX
  8
LC_OH_2021_05_O7
  10
289400.876
  20
4467705.000
  0
VERTEX
  8
LC_OH_2021_05_O7
  10
288373.300
  20
4467734.038
  0
VERTEX
  8
LC_OH_2021_05_O7
  10
288124.001
  20
4468237.000
  0
VERTEX
  8
LC_OH_2021_05_O7
  10
288110.001
  20
4468472.000
  0
VERTEX
  8
LC_OH_2021_05_O7
  10
289662.501
  20
4468910.000
  0
VERTEX
  8
LC_OH_2021_05_O7
  10
289901.501
  20
4468821.000
  0
VERTEX
  8
LC_OH_2021_05_O7
  10
289903.501
  20
4468820.500
  0
VERTEX
  8
LC_OH_2021_05_O7
  10
290592.001
  20
4468564.500
  0
VERTEX
  8
LC_OH_2021_05_O7
  10
290623.501
  20
4467691.500
  0
SEQEND
  8
LC_OH_2021_05_O7
  0
INSERT
  8
FeatureAttribs
  2
FEATURE
  41
1
  42
1
  43
1
  50
0
  10
287003.751
  20
4468286.195
 66
1
  0
ATTRIB
  8
FeatureAttribs
 70
0
  1
PNOA-H_AMS_1956-57_33k_ES_PAN_21mic_H50_0577_fot_71B-22043_W.tif
  2
NAME
  10
287003.751
  20
4468286.195
 40
34.62494
  0
SEQEND
  0
POLYLINE
  8
LC_OH_2021_05_O7
  70
1
  66
1
  0
VERTEX
  8
LC_OH_2021_05_O7
  10
288042.375
  20
4467743.390
  0
VERTEX
  8
LC_OH_2021_05_O7
  10
286067.609
  20
4467799.195
  0
VERTEX
  8
LC_OH_2021_05_O7
  10
285883.501
  20
4468481.000
  0
VERTEX
  8
LC_OH_2021_05_O7
  10
285884.501
  20
4468483.500
  0
VERTEX
  8
LC_OH_2021_05_O7
  10
285903.501
  20
4468490.000
  0
VERTEX
  8
LC_OH_2021_05_O7
  10
286910.001
  20
4468829.000
  0
VERTEX
  8
LC_OH_2021_05_O7
  10
288110.001
  20
4468472.000
  0
VERTEX
  8
LC_OH_2021_05_O7
  10
288124.001
  20
4468237.500
  0
SEQEND
  8
LC_OH_2021_05_O7
  0
INSERT
  8
FeatureAttribs
  2
FEATURE
  41
1
  42
1
  43
1
  50
0
  10
288143.661
  20
4483875.000
 66
1
  0
ATTRIB
  8
FeatureAttribs
 70
0
  1
PNOA-H_AMS_1956-57_33k_ES_PAN_21mic_H50_0554_fot_67A-44276_E.tif
  2
NAME
  10
288143.661
  20
4483875.000
 40
34.62494
  0
SEQEND
  0
POLYLINE
  8
LC_OH_2021_05_O7
  70
1
  66
1
  0
VERTEX
  8
LC_OH_2021_05_O7
  10
287244.001
  20
4485907.500
  0
VERTEX
  8
LC_OH_2021_05_O7
  10
287245.001
  20
4485909.000
  0
VERTEX
  8
LC_OH_2021_05_O7
  10
287256.001
  20
4485913.000
  0
VERTEX
  8
LC_OH_2021_05_O7
  10
287853.501
  20
4486127.500
  0
VERTEX
  8
LC_OH_2021_05_O7
  10
287855.001
  20
4486128.000
  0
VERTEX
  8
LC_OH_2021_05_O7
  10
287914.501
  20
4486149.500
  0
VERTEX
  8
LC_OH_2021_05_O7
  10
287922.501
  20
4486151.000
  0
VERTEX
  8
LC_OH_2021_05_O7
  10
288611.001
  20
4486027.500
  0
VERTEX
  8
LC_OH_2021_05_O7
  10
288624.501
  20
4486025.000
  0
VERTEX
  8
LC_OH_2021_05_O7
  10
288625.001
  20
4486024.000
  0
VERTEX
  8
LC_OH_2021_05_O7
  10
289660.501
  20
4481599.000
  0
VERTEX
  8
LC_OH_2021_05_O7
  10
287071.001
  20
4481749.000
  0
SEQEND
  8
LC_OH_2021_05_O7
  0
INSERT
  8
FeatureAttribs
  2
FEATURE
  41
1
  42
1
  43
1
  50
0
  10
286751.028
  20
4483866.371
 66
1
  0
ATTRIB
  8
FeatureAttribs
 70
0
  1
PNOA-H_AMS_1956-57_33k_ES_PAN_21mic_H50_0554_fot_67A-44275_E.tif
  2
NAME
  10
286751.028
  20
4483866.371
 40
34.62494
  0
SEQEND
  0
POLYLINE
  8
LC_OH_2021_05_O7
  70
1
  66
1
  0
VERTEX
  8
LC_OH_2021_05_O7
  10
286382.223
  20
4486065.242
  0
VERTEX
  8
LC_OH_2021_05_O7
  10
287244.501
  20
4485908.500
  0
VERTEX
  8
LC_OH_2021_05_O7
  10
287071.501
  20
4481751.500
  0
VERTEX
  8
LC_OH_2021_05_O7
  10
287070.501
  20
4481748.000
  0
VERTEX
  8
LC_OH_2021_05_O7
  10
287039.001
  20
4481727.000
  0
VERTEX
  8
LC_OH_2021_05_O7
  10
287037.501
  20
4481726.500
  0
VERTEX
  8
LC_OH_2021_05_O7
  10
286950.501
  20
4481668.000
  0
VERTEX
  8
LC_OH_2021_05_O7
  10
286940.001
  20
4481667.500
  0
VERTEX
  8
LC_OH_2021_05_O7
  10
286257.555
  20
4481703.118
  0
VERTEX
  8
LC_OH_2021_05_O7
  10
286323.037
  20
4483994.776
  0
SEQEND
  8
LC_OH_2021_05_O7
  0
INSERT
  8
FeatureAttribs
  2
FEATURE
  41
1
  42
1
  43
1
  50
0
  10
314290.130
  20
4473593.250
 66
1
  0
ATTRIB
  8
FeatureAttribs
 70
0
  1
PNOA-H_AMS_1956-57_33k_ES_PAN_21mic_H50_0554_fot_69C-46840_W.tif
  2
NAME
  10
314290.130
  20
4473593.250
 40
34.62494
  0
SEQEND
  0
POLYLINE
  8
LC_OH_2021_05_O7
  70
1
  66
1
  0
VERTEX
  8
LC_OH_2021_05_O7
  10
314372.007
  20
4474838.481
  0
VERTEX
  8
LC_OH_2021_05_O7
  10
314350.991
  20
4473989.671
  0
VERTEX
  8
LC_OH_2021_05_O7
  10
314310.394
  20
4472349.345
  0
VERTEX
  8
LC_OH_2021_05_O7
  10
313081.502
  20
4472673.000
  0
VERTEX
  8
LC_OH_2021_05_O7
  10
313066.502
  20
4472677.000
  0
VERTEX
  8
LC_OH_2021_05_O7
  10
313066.502
  20
4472682.000
  0
VERTEX
  8
LC_OH_2021_05_O7
  10
313255.502
  20
4474805.000
  0
SEQEND
  8
LC_OH_2021_05_O7
  0
INSERT
  8
FeatureAttribs
  2
FEATURE
  41
1
  42
1
  43
1
  50
0
  10
305418.536
  20
4475239.249
 66
1
  0
ATTRIB
  8
FeatureAttribs
 70
0
  1
PNOA-H_AMS_1956-57_33k_ES_PAN_21mic_H50_0554_fot_69C-46844_W.tif
  2
NAME
  10
305418.536
  20
4475239.249
 40
34.62494
  0
SEQEND
  0
POLYLINE
  8
LC_OH_2021_05_O7
  70
1
  66
1
  0
VERTEX
  8
LC_OH_2021_05_O7
  10
304238.001
  20
4477345.500
  0
VERTEX
  8
LC_OH_2021_05_O7
  10
305014.501
  20
4477558.500
  0
VERTEX
  8
LC_OH_2021_05_O7
  10
306221.002
  20
4477210.000
  0
VERTEX
  8
LC_OH_2021_05_O7
  10
305841.002
  20
4472983.000
  0
VERTEX
  8
LC_OH_2021_05_O7
  10
305839.002
  20
4472962.000
  0
VERTEX
  8
LC_OH_2021_05_O7
  10
305837.502
  20
4472961.500
  0
VERTEX
  8
LC_OH_2021_05_O7
  10
305546.001
  20
4472920.000
  0
VERTEX
  8
LC_OH_2021_05_O7
  10
305543.001
  20
4472920.000
  0
VERTEX
  8
LC_OH_2021_05_O7
  10
305542.501
  20
4472921.000
  0
VERTEX
  8
LC_OH_2021_05_O7
  10
304123.001
  20
4477313.000
  0
VERTEX
  8
LC_OH_2021_05_O7
  10
304123.001
  20
4477314.000
  0
VERTEX
  8
LC_OH_2021_05_O7
  10
304236.001
  20
4477345.000
  0
VERTEX
  8
LC_OH_2021_05_O7
  10
304238.001
  20
4477345.500
  0
SEQEND
  8
LC_OH_2021_05_O7
  0
INSERT
  8
FeatureAttribs
  2
FEATURE
  41
1
  42
1
  43
1
  50
0
  10
303013.878
  20
4475680.000
 66
1
  0
ATTRIB
  8
FeatureAttribs
 70
0
  1
PNOA-H_AMS_1956-57_33k_ES_PAN_21mic_H50_0554_fot_69C-46845_W.tif
  2
NAME
  10
303013.878
  20
4475680.000
 40
34.62494
  0
SEQEND
  0
POLYLINE
  8
LC_OH_2021_05_O7
  70
1
  66
1
  0
VERTEX
  8
LC_OH_2021_05_O7
  10
303762.001
  20
4475582.500
  0
VERTEX
  8
LC_OH_2021_05_O7
  10
303383.501
  20
4473657.000
  0
VERTEX
  8
LC_OH_2021_05_O7
  10
303379.001
  20
4473638.500
  0
VERTEX
  8
LC_OH_2021_05_O7
  10
301802.501
  20
4476480.500
  0
VERTEX
  8
LC_OH_2021_05_O7
  10
301871.001
  20
4477500.000
  0
VERTEX
  8
LC_OH_2021_05_O7
  10
301872.001
  20
4477501.500
  0
VERTEX
  8
LC_OH_2021_05_O7
  10
301881.501
  20
4477505.000
  0
VERTEX
  8
LC_OH_2021_05_O7
  10
302481.001
  20
4477721.500
  0
VERTEX
  8
LC_OH_2021_05_O7
  10
304102.501
  20
4477311.000
  0
VERTEX
  8
LC_OH_2021_05_O7
  10
303762.501
  20
4475585.000
  0
VERTEX
  8
LC_OH_2021_05_O7
  10
303762.001
  20
4475582.500
  0
SEQEND
  8
LC_OH_2021_05_O7
  0
INSERT
  8
FeatureAttribs
  2
FEATURE
  41
1
  42
1
  43
1
  50
0
  10
300620.316
  20
4475983.999
 66
1
  0
ATTRIB
  8
FeatureAttribs
 70
0
  1
PNOA-H_AMS_1956-57_33k_ES_PAN_21mic_H50_0554_fot_69C-46846_W.tif
  2
NAME
  10
300620.316
  20
4475983.999
 40
34.62494
  0
SEQEND
  0
POLYLINE
  8
LC_OH_2021_05_O7
  70
1
  66
1
  0
VERTEX
  8
LC_OH_2021_05_O7
  10
300143.501
  20
4477776.000
  0
VERTEX
  8
LC_OH_2021_05_O7
  10
301871.501
  20
4477501.000
  0
VERTEX
  8
LC_OH_2021_05_O7
  10
301802.501
  20
4476479.500
  0
VERTEX
  8
LC_OH_2021_05_O7
  10
301018.001
  20
4474169.000
  0
VERTEX
  8
LC_OH_2021_05_O7
  10
299462.501
  20
4476169.000
  0
VERTEX
  8
LC_OH_2021_05_O7
  10
299539.001
  20
4477617.000
  0
VERTEX
  8
LC_OH_2021_05_O7
  10
299998.001
  20
4477799.000
  0
VERTEX
  8
LC_OH_2021_05_O7
  10
300141.001
  20
4477776.000
  0
VERTEX
  8
LC_OH_2021_05_O7
  10
300143.501
  20
4477776.000
  0
SEQEND
  8
LC_OH_2021_05_O7
  0
INSERT
  8
FeatureAttribs
  2
FEATURE
  41
1
  42
1
  43
1
  50
0
  10
312572.152
  20
4474691.749
 66
1
  0
ATTRIB
  8
FeatureAttribs
 70
0
  1
PNOA-H_AMS_1956-57_33k_ES_PAN_21mic_H50_0554_fot_69C-46841_W.tif
  2
NAME
  10
312572.152
  20
4474691.749
 40
34.62494
  0
SEQEND
  0
POLYLINE
  8
LC_OH_2021_05_O7
  70
1
  66
1
  0
VERTEX
  8
LC_OH_2021_05_O7
  10
313228.502
  20
4476901.000
  0
VERTEX
  8
LC_OH_2021_05_O7
  10
313255.502
  20
4474816.000
  0
VERTEX
  8
LC_OH_2021_05_O7
  10
313255.002
  20
4474797.500
  0
VERTEX
  8
LC_OH_2021_05_O7
  10
313066.502
  20
4472677.500
  0
VERTEX
  8
LC_OH_2021_05_O7
  10
312040.002
  20
4472449.500
  0
VERTEX
  8
LC_OH_2021_05_O7
  10
310920.002
  20
4472811.000
  0
VERTEX
  8
LC_OH_2021_05_O7
  10
313065.002
  20
4476933.000
  0
VERTEX
  8
LC_OH_2021_05_O7
  10
313065.002
  20
4476934.000
  0
SEQEND
  8
LC_OH_2021_05_O7
  0
INSERT
  8
FeatureAttribs
  2
FEATURE
  41
1
  42
1
  43
1
  50
0
  10
307795.945
  20
4475047.500
 66
1
  0
ATTRIB
  8
FeatureAttribs
 70
0
  1
PNOA-H_AMS_1956-57_33k_ES_PAN_21mic_H50_0554_fot_69C-46843_W.tif
  2
NAME
  10
307795.945
  20
4475047.500
 40
34.62494
  0
SEQEND
  0
POLYLINE
  8
LC_OH_2021_05_O7
  70
1
  66
1
  0
VERTEX
  8
LC_OH_2021_05_O7
  10
308335.502
  20
4477120.000
  0
VERTEX
  8
LC_OH_2021_05_O7
  10
308450.002
  20
4477084.500
  0
VERTEX
  8
LC_OH_2021_05_O7
  10
308412.502
  20
4472909.000
  0
VERTEX
  8
LC_OH_2021_05_O7
  10
307274.502
  20
4472683.500
  0
VERTEX
  8
LC_OH_2021_05_O7
  10
307050.002
  20
4477325.500
  0
VERTEX
  8
LC_OH_2021_05_O7
  10
307413.002
  20
4477411.500
  0
VERTEX
  8
LC_OH_2021_05_O7
  10
308334.002
  20
4477120.500
  0
VERTEX
  8
LC_OH_2021_05_O7
  10
308335.502
  20
4477120.000
  0
SEQEND
  8
LC_OH_2021_05_O7
  0
INSERT
  8
FeatureAttribs
  2
FEATURE
  41
1
  42
1
  43
1
  50
0
  10
298215.804
  20
4476109.750
 66
1
  0
ATTRIB
  8
FeatureAttribs
 70
0
  1
PNOA-H_AMS_1956-57_33k_ES_PAN_21mic_H50_0554_fot_69C-46847_W.tif
  2
NAME
  10
298215.804
  20
4476109.750
 40
34.62494
  0
SEQEND
  0
POLYLINE
  8
LC_OH_2021_05_O7
  70
1
  66
1
  0
VERTEX
  8
LC_OH_2021_05_O7
  10
298499.001
  20
4477771.000
  0
VERTEX
  8
LC_OH_2021_05_O7
  10
299539.001
  20
4477617.000
  0
VERTEX
  8
LC_OH_2021_05_O7
  10
299462.501
  20
4476169.000
  0
VERTEX
  8
LC_OH_2021_05_O7
  10
298627.501
  20
4474448.500
  0
VERTEX
  8
LC_OH_2021_05_O7
  10
296996.501
  20
4476079.000
  0
VERTEX
  8
LC_OH_2021_05_O7
  10
297064.501
  20
4477621.500
  0
VERTEX
  8
LC_OH_2021_05_O7
  10
297300.001
  20
4477724.000
  0
VERTEX
  8
LC_OH_2021_05_O7
  10
298486.001
  20
4477770.500
  0
VERTEX
  8
LC_OH_2021_05_O7
  10
298499.001
  20
4477771.000
  0
SEQEND
  8
LC_OH_2021_05_O7
  0
INSERT
  8
FeatureAttribs
  2
FEATURE
  41
1
  42
1
  43
1
  50
0
  10
310173.388
  20
4474809.000
 66
1
  0
ATTRIB
  8
FeatureAttribs
 70
0
  1
PNOA-H_AMS_1956-57_33k_ES_PAN_21mic_H50_0554_fot_69C-46842_W.tif
  2
NAME
  10
310173.388
  20
4474809.000
 40
34.62494
  0
SEQEND
  0
POLYLINE
  8
LC_OH_2021_05_O7
  70
1
  66
1
  0
VERTEX
  8
LC_OH_2021_05_O7
  10
310473.502
  20
4477064.000
  0
VERTEX
  8
LC_OH_2021_05_O7
  10
310798.002
  20
4476974.000
  0
VERTEX
  8
LC_OH_2021_05_O7
  10
310871.002
  20
4472824.500
  0
VERTEX
  8
LC_OH_2021_05_O7
  10
309585.502
  20
4472556.000
  0
VERTEX
  8
LC_OH_2021_05_O7
  10
309572.002
  20
4472554.000
  0
VERTEX
  8
LC_OH_2021_05_O7
  10
308670.502
  20
4472841.500
  0
VERTEX
  8
LC_OH_2021_05_O7
  10
310473.002
  20
4477062.500
  0
VERTEX
  8
LC_OH_2021_05_O7
  10
310473.502
  20
4477064.000
  0
SEQEND
  8
LC_OH_2021_05_O7
  0
INSERT
  8
FeatureAttribs
  2
FEATURE
  41
1
  42
1
  43
1
  50
0
  10
295679.003
  20
4476275.750
 66
1
  0
ATTRIB
  8
FeatureAttribs
 70
0
  1
PNOA-H_AMS_1956-57_33k_ES_PAN_21mic_H50_0554_fot_69C-46848_W.tif
  2
NAME
  10
295679.003
  20
4476275.750
 40
34.62494
  0
SEQEND
  0
POLYLINE
  8
LC_OH_2021_05_O7
  70
1
  66
1
  0
VERTEX
  8
LC_OH_2021_05_O7
  10
296047.501
  20
4477805.500
  0
VERTEX
  8
LC_OH_2021_05_O7
  10
297064.501
  20
4477621.500
  0
VERTEX
  8
LC_OH_2021_05_O7
  10
296996.501
  20
4476079.000
  0
VERTEX
  8
LC_OH_2021_05_O7
  10
296171.001
  20
4474586.000
  0
VERTEX
  8
LC_OH_2021_05_O7
  10
296159.001
  20
4474564.500
  0
VERTEX
  8
LC_OH_2021_05_O7
  10
296158.001
  20
4474564.500
  0
VERTEX
  8
LC_OH_2021_05_O7
  10
294355.001
  20
4475988.500
  0
VERTEX
  8
LC_OH_2021_05_O7
  10
294342.501
  20
4477632.500
  0
VERTEX
  8
LC_OH_2021_05_O7
  10
295048.001
  20
4477987.000
  0
VERTEX
  8
LC_OH_2021_05_O7
  10
296045.001
  20
4477806.000
  0
VERTEX
  8
LC_OH_2021_05_O7
  10
296047.501
  20
4477805.500
  0
SEQEND
  8
LC_OH_2021_05_O7
  0
INSERT
  8
FeatureAttribs
  2
FEATURE
  41
1
  42
1
  43
1
  50
0
  10
290507.248
  20
4476006.250
 66
1
  0
ATTRIB
  8
FeatureAttribs
 70
0
  1
PNOA-H_AMS_1956-57_33k_ES_PAN_21mic_H50_0554_fot_69C-46850_W.tif
  2
NAME
  10
290507.248
  20
4476006.250
 40
34.62494
  0
SEQEND
  0
POLYLINE
  8
LC_OH_2021_05_O7
  70
1
  66
1
  0
VERTEX
  8
LC_OH_2021_05_O7
  10
289903.501
  20
4477868.000
  0
VERTEX
  8
LC_OH_2021_05_O7
  10
291701.501
  20
4477639.000
  0
VERTEX
  8
LC_OH_2021_05_O7
  10
291758.001
  20
4475785.500
  0
VERTEX
  8
LC_OH_2021_05_O7
  10
290923.001
  20
4474114.500
  0
VERTEX
  8
LC_OH_2021_05_O7
  10
289263.501
  20
4475992.500
  0
VERTEX
  8
LC_OH_2021_05_O7
  10
289227.501
  20
4477666.000
  0
VERTEX
  8
LC_OH_2021_05_O7
  10
289666.001
  20
4477898.000
  0
VERTEX
  8
LC_OH_2021_05_O7
  10
289902.501
  20
4477868.000
  0
VERTEX
  8
LC_OH_2021_05_O7
  10
289903.501
  20
4477868.000
  0
SEQEND
  8
LC_OH_2021_05_O7
  0
INSERT
  8
FeatureAttribs
  2
FEATURE
  41
1
  42
1
  43
1
  50
0
  10
293047.125
  20
4476318.499
 66
1
  0
ATTRIB
  8
FeatureAttribs
 70
0
  1
PNOA-H_AMS_1956-57_33k_ES_PAN_21mic_H50_0554_fot_69C-46849_W.tif
  2
NAME
  10
293047.125
  20
4476318.499
 40
34.62494
  0
SEQEND
  0
POLYLINE
  8
LC_OH_2021_05_O7
  70
1
  66
1
  0
VERTEX
  8
LC_OH_2021_05_O7
  10
291950.501
  20
4477759.500
  0
VERTEX
  8
LC_OH_2021_05_O7
  10
292340.001
  20
4477947.000
  0
VERTEX
  8
LC_OH_2021_05_O7
  10
294342.501
  20
4477632.500
  0
VERTEX
  8
LC_OH_2021_05_O7
  10
294355.001
  20
4475988.000
  0
VERTEX
  8
LC_OH_2021_05_O7
  10
293650.001
  20
4474690.000
  0
VERTEX
  8
LC_OH_2021_05_O7
  10
291758.001
  20
4475786.000
  0
VERTEX
  8
LC_OH_2021_05_O7
  10
291701.501
  20
4477639.000
  0
VERTEX
  8
LC_OH_2021_05_O7
  10
291949.501
  20
4477759.000
  0
VERTEX
  8
LC_OH_2021_05_O7
  10
291950.501
  20
4477759.500
  0
SEQEND
  8
LC_OH_2021_05_O7
  0
INSERT
  8
FeatureAttribs
  2
FEATURE
  41
1
  42
1
  43
1
  50
0
  10
288028.614
  20
4475915.251
 66
1
  0
ATTRIB
  8
FeatureAttribs
 70
0
  1
PNOA-H_AMS_1956-57_33k_ES_PAN_21mic_H50_0554_fot_69C-46851_W.tif
  2
NAME
  10
288028.614
  20
4475915.251
 40
34.62494
  0
SEQEND
  0
POLYLINE
  8
LC_OH_2021_05_O7
  70
1
  66
1
  0
VERTEX
  8
LC_OH_2021_05_O7
  10
286133.077
  20
4477344.068
  0
VERTEX
  8
LC_OH_2021_05_O7
  10
286934.501
  20
4477807.500
  0
VERTEX
  8
LC_OH_2021_05_O7
  10
287847.001
  20
4477751.000
  0
VERTEX
  8
LC_OH_2021_05_O7
  10
287855.501
  20
4477750.500
  0
VERTEX
  8
LC_OH_2021_05_O7
  10
289227.501
  20
4477666.000
  0
VERTEX
  8
LC_OH_2021_05_O7
  10
289263.501
  20
4475992.500
  0
VERTEX
  8
LC_OH_2021_05_O7
  10
287996.501
  20
4474023.000
  0
VERTEX
  8
LC_OH_2021_05_O7
  10
286125.900
  20
4477092.691
  0
SEQEND
  8
LC_OH_2021_05_O7
  0
INSERT
  8
FeatureAttribs
  2
FEATURE
  41
1
  42
1
  43
1
  50
0
  10
286403.919
  20
4470618.949
 66
1
  0
ATTRIB
  8
FeatureAttribs
 70
0
  1
PNOA-H_AMS_1956-57_33k_ES_PAN_21mic_H50_0553_fot_70A-46738_E.tif
  2
NAME
  10
286403.919
  20
4470618.949
 40
34.62494
  0
SEQEND
  0
POLYLINE
  8
LC_OH_2021_05_O7
  70
1
  66
1
  0
VERTEX
  8
LC_OH_2021_05_O7
  10
286002.144
  20
4472755.231
  0
VERTEX
  8
LC_OH_2021_05_O7
  10
286927.501
  20
4472521.000
  0
VERTEX
  8
LC_OH_2021_05_O7
  10
286909.001
  20
4468829.000
  0
VERTEX
  8
LC_OH_2021_05_O7
  10
285884.501
  20
4468483.000
  0
VERTEX
  8
LC_OH_2021_05_O7
  10
285880.336
  20
4468482.667
  0
VERTEX
  8
LC_OH_2021_05_O7
  10
285926.940
  20
4470117.833
  0
VERTEX
  8
LC_OH_2021_05_O7
  10
285992.885
  20
4472430.640
  0
SEQEND
  8
LC_OH_2021_05_O7
  0
INSERT
  8
FeatureAttribs
  2
FEATURE
  41
1
  42
1
  43
1
  50
0
  10
288277.081
  20
4470727.500
 66
1
  0
ATTRIB
  8
FeatureAttribs
 70
0
  1
PNOA-H_AMS_1956-57_33k_ES_PAN_21mic_H50_0554_fot_70A-46739_E.tif
  2
NAME
  10
288277.081
  20
4470727.500
 40
34.62494
  0
SEQEND
  0
POLYLINE
  8
LC_OH_2021_05_O7
  70
1
  66
1
  0
VERTEX
  8
LC_OH_2021_05_O7
  10
286927.501
  20
4472521.000
  0
VERTEX
  8
LC_OH_2021_05_O7
  10
287995.501
  20
4472982.500
  0
VERTEX
  8
LC_OH_2021_05_O7
  10
287996.501
  20
4472983.000
  0
VERTEX
  8
LC_OH_2021_05_O7
  10
289608.501
  20
4472515.000
  0
VERTEX
  8
LC_OH_2021_05_O7
  10
289663.001
  20
4468927.000
  0
VERTEX
  8
LC_OH_2021_05_O7
  10
289662.501
  20
4468909.500
  0
VERTEX
  8
LC_OH_2021_05_O7
  10
288110.501
  20
4468472.000
  0
VERTEX
  8
LC_OH_2021_05_O7
  10
286909.001
  20
4468829.000
  0
SEQEND
  8
LC_OH_2021_05_O7
  0
INSERT
  8
FeatureAttribs
  2
FEATURE
  41
1
  42
1
  43
1
  50
0
  10
293565.807
  20
4470807.000
 66
1
  0
ATTRIB
  8
FeatureAttribs
 70
0
  1
PNOA-H_AMS_1956-57_33k_ES_PAN_21mic_H50_0554_fot_70A-46741_E.tif
  2
NAME
  10
293565.807
  20
4470807.000
 40
34.62494
  0
SEQEND
  0
POLYLINE
  8
LC_OH_2021_05_O7
  70
1
  66
1
  0
VERTEX
  8
LC_OH_2021_05_O7
  10
293999.501
  20
4472849.000
  0
VERTEX
  8
LC_OH_2021_05_O7
  10
294864.001
  20
4472574.000
  0
VERTEX
  8
LC_OH_2021_05_O7
  10
294775.501
  20
4468959.500
  0
VERTEX
  8
LC_OH_2021_05_O7
  10
292982.501
  20
4468657.000
  0
VERTEX
  8
LC_OH_2021_05_O7
  10
292320.501
  20
4468940.000
  0
VERTEX
  8
LC_OH_2021_05_O7
  10
292302.001
  20
4472536.000
  0
VERTEX
  8
LC_OH_2021_05_O7
  10
293661.001
  20
4472957.000
  0
VERTEX
  8
LC_OH_2021_05_O7
  10
293998.001
  20
4472849.500
  0
VERTEX
  8
LC_OH_2021_05_O7
  10
293999.501
  20
4472849.000
  0
SEQEND
  8
LC_OH_2021_05_O7
  0
INSERT
  8
FeatureAttribs
  2
FEATURE
  41
1
  42
1
  43
1
  50
0
  10
290972.675
  20
4470800.501
 66
1
  0
ATTRIB
  8
FeatureAttribs
 70
0
  1
PNOA-H_AMS_1956-57_33k_ES_PAN_21mic_H50_0554_fot_70A-46740_E.tif
  2
NAME
  10
290972.675
  20
4470800.501
 40
34.62494
  0
SEQEND
  0
POLYLINE
  8
LC_OH_2021_05_O7
  70
1
  66
1
  0
VERTEX
  8
LC_OH_2021_05_O7
  10
289902.001
  20
4472632.000
  0
VERTEX
  8
LC_OH_2021_05_O7
  10
290913.501
  20
4473034.000
  0
VERTEX
  8
LC_OH_2021_05_O7
  10
290920.001
  20
4473036.500
  0
VERTEX
  8
LC_OH_2021_05_O7
  10
290923.001
  20
4473036.500
  0
VERTEX
  8
LC_OH_2021_05_O7
  10
292302.001
  20
4472536.000
  0
VERTEX
  8
LC_OH_2021_05_O7
  10
292320.501
  20
4468940.000
  0
VERTEX
  8
LC_OH_2021_05_O7
  10
290593.501
  20
4468564.500
  0
VERTEX
  8
LC_OH_2021_05_O7
  10
290591.001
  20
4468564.500
  0
VERTEX
  8
LC_OH_2021_05_O7
  10
289663.001
  20
4468910.000
  0
VERTEX
  8
LC_OH_2021_05_O7
  10
289608.501
  20
4472515.000
  0
VERTEX
  8
LC_OH_2021_05_O7
  10
289901.001
  20
4472631.500
  0
VERTEX
  8
LC_OH_2021_05_O7
  10
289902.001
  20
4472632.000
  0
SEQEND
  8
LC_OH_2021_05_O7
  0
INSERT
  8
FeatureAttribs
  2
FEATURE
  41
1
  42
1
  43
1
  50
0
  10
300889.550
  20
4470734.250
 66
1
  0
ATTRIB
  8
FeatureAttribs
 70
0
  1
PNOA-H_AMS_1956-57_33k_ES_PAN_21mic_H50_0554_fot_70A-46744_E.tif
  2
NAME
  10
300889.550
  20
4470734.250
 40
34.62494
  0
SEQEND
  0
POLYLINE
  8
LC_OH_2021_05_O7
  70
1
  66
1
  0
VERTEX
  8
LC_OH_2021_05_O7
  10
301063.001
  20
4472935.500
  0
VERTEX
  8
LC_OH_2021_05_O7
  10
302124.501
  20
4472632.000
  0
VERTEX
  8
LC_OH_2021_05_O7
  10
302099.501
  20
4468747.000
  0
VERTEX
  8
LC_OH_2021_05_O7
  10
300355.501
  20
4468533.000
  0
VERTEX
  8
LC_OH_2021_05_O7
  10
299613.001
  20
4468892.000
  0
VERTEX
  8
LC_OH_2021_05_O7
  10
299721.001
  20
4472587.500
  0
VERTEX
  8
LC_OH_2021_05_O7
  10
301061.001
  20
4472935.000
  0
VERTEX
  8
LC_OH_2021_05_O7
  10
301063.001
  20
4472935.500
  0
SEQEND
  8
LC_OH_2021_05_O7
  0
INSERT
  8
FeatureAttribs
  2
FEATURE
  41
1
  42
1
  43
1
  50
0
  10
296017.130
  20
4470807.751
 66
1
  0
ATTRIB
  8
FeatureAttribs
 70
0
  1
PNOA-H_AMS_1956-57_33k_ES_PAN_21mic_H50_0554_fot_70A-46742_E.tif
  2
NAME
  10
296017.130
  20
4470807.751
 40
34.62494
  0
SEQEND
  0
POLYLINE
  8
LC_OH_2021_05_O7
  70
1
  66
1
  0
VERTEX
  8
LC_OH_2021_05_O7
  10
296208.501
  20
4472954.500
  0
VERTEX
  8
LC_OH_2021_05_O7
  10
296218.001
  20
4472952.500
  0
VERTEX
  8
LC_OH_2021_05_O7
  10
297267.001
  20
4472588.500
  0
VERTEX
  8
LC_OH_2021_05_O7
  10
297158.001
  20
4468959.000
  0
VERTEX
  8
LC_OH_2021_05_O7
  10
295457.001
  20
4468661.000
  0
VERTEX
  8
LC_OH_2021_05_O7
  10
295449.001
  20
4468663.500
  0
VERTEX
  8
LC_OH_2021_05_O7
  10
294775.501
  20
4468959.000
  0
VERTEX
  8
LC_OH_2021_05_O7
  10
294864.001
  20
4472574.000
  0
VERTEX
  8
LC_OH_2021_05_O7
  10
296207.001
  20
4472954.000
  0
VERTEX
  8
LC_OH_2021_05_O7
  10
296208.501
  20
4472954.500
  0
SEQEND
  8
LC_OH_2021_05_O7
  0
INSERT
  8
FeatureAttribs
  2
FEATURE
  41
1
  42
1
  43
1
  50
0
  10
298439.947
  20
4470764.002
 66
1
  0
ATTRIB
  8
FeatureAttribs
 70
0
  1
PNOA-H_AMS_1956-57_33k_ES_PAN_21mic_H50_0554_fot_70A-46743_E.tif
  2
NAME
  10
298439.947
  20
4470764.002
 40
34.62494
  0
SEQEND
  0
POLYLINE
  8
LC_OH_2021_05_O7
  70
1
  66
1
  0
VERTEX
  8
LC_OH_2021_05_O7
  10
298686.001
  20
4472927.500
  0
VERTEX
  8
LC_OH_2021_05_O7
  10
299721.001
  20
4472588.000
  0
VERTEX
  8
LC_OH_2021_05_O7
  10
299613.001
  20
4468892.000
  0
VERTEX
  8
LC_OH_2021_05_O7
  10
297943.001
  20
4468600.500
  0
VERTEX
  8
LC_OH_2021_05_O7
  10
297158.001
  20
4468959.000
  0
VERTEX
  8
LC_OH_2021_05_O7
  10
297267.001
  20
4472588.500
  0
VERTEX
  8
LC_OH_2021_05_O7
  10
298684.001
  20
4472927.000
  0
VERTEX
  8
LC_OH_2021_05_O7
  10
298686.001
  20
4472927.500
  0
SEQEND
  8
LC_OH_2021_05_O7
  0
INSERT
  8
FeatureAttribs
  2
FEATURE
  41
1
  42
1
  43
1
  50
0
  10
289472.576
  20
4474253.749
 66
1
  0
ATTRIB
  8
FeatureAttribs
 70
0
  1
PNOA-H_AMS_1956-57_33k_ES_PAN_21mic_H50_0554_fot_000-52020_R.tif
  2
NAME
  10
289472.576
  20
4474253.749
 40
34.62494
  0
SEQEND
  0
POLYLINE
  8
LC_OH_2021_05_O7
  70
1
  66
1
  0
VERTEX
  8
LC_OH_2021_05_O7
  10
290922.001
  20
4473534.500
  0
VERTEX
  8
LC_OH_2021_05_O7
  10
290921.501
  20
4473036.500
  0
VERTEX
  8
LC_OH_2021_05_O7
  10
289607.501
  20
4472515.000
  0
VERTEX
  8
LC_OH_2021_05_O7
  10
287997.001
  20
4472983.000
  0
VERTEX
  8
LC_OH_2021_05_O7
  10
287996.501
  20
4473942.500
  0
VERTEX
  8
LC_OH_2021_05_O7
  10
287996.501
  20
4474023.000
  0
VERTEX
  8
LC_OH_2021_05_O7
  10
289232.001
  20
4475944.500
  0
VERTEX
  8
LC_OH_2021_05_O7
  10
289260.001
  20
4475988.000
  0
VERTEX
  8
LC_OH_2021_05_O7
  10
289264.001
  20
4475992.500
  0
VERTEX
  8
LC_OH_2021_05_O7
  10
290922.001
  20
4474116.000
  0
VERTEX
  8
LC_OH_2021_05_O7
  10
290923.001
  20
4474114.500
  0
VERTEX
  8
LC_OH_2021_05_O7
  10
290922.001
  20
4473569.500
  0
VERTEX
  8
LC_OH_2021_05_O7
  10
290922.001
  20
4473534.500
  0
SEQEND
  8
LC_OH_2021_05_O7
  0
INSERT
  8
FeatureAttribs
  2
FEATURE
  41
1
  42
1
  43
1
  50
0
  10
297398.883
  20
4474333.749
 66
1
  0
ATTRIB
  8
FeatureAttribs
 70
0
  1
PNOA-H_AMS_1956-57_33k_ES_PAN_21mic_H50_0554_fot_000-52023_R.tif
  2
NAME
  10
297398.883
  20
4474333.749
 40
34.62494
  0
SEQEND
  0
POLYLINE
  8
LC_OH_2021_05_O7
  70
1
  66
1
  0
VERTEX
  8
LC_OH_2021_05_O7
  10
298663.001
  20
4473534.500
  0
VERTEX
  8
LC_OH_2021_05_O7
  10
298686.501
  20
4472935.000
  0
VERTEX
  8
LC_OH_2021_05_O7
  10
298686.001
  20
4472927.000
  0
VERTEX
  8
LC_OH_2021_05_O7
  10
297269.001
  20
4472588.500
  0
VERTEX
  8
LC_OH_2021_05_O7
  10
297266.001
  20
4472588.500
  0
VERTEX
  8
LC_OH_2021_05_O7
  10
297255.501
  20
4472592.000
  0
VERTEX
  8
LC_OH_2021_05_O7
  10
296210.501
  20
4472954.500
  0
VERTEX
  8
LC_OH_2021_05_O7
  10
296158.501
  20
4474558.000
  0
VERTEX
  8
LC_OH_2021_05_O7
  10
296158.501
  20
4474564.500
  0
VERTEX
  8
LC_OH_2021_05_O7
  10
296160.001
  20
4474567.500
  0
VERTEX
  8
LC_OH_2021_05_O7
  10
296993.501
  20
4476074.500
  0
VERTEX
  8
LC_OH_2021_05_O7
  10
296996.001
  20
4476079.000
  0
VERTEX
  8
LC_OH_2021_05_O7
  10
296997.001
  20
4476079.000
  0
VERTEX
  8
LC_OH_2021_05_O7
  10
298627.501
  20
4474448.500
  0
VERTEX
  8
LC_OH_2021_05_O7
  10
298663.001
  20
4473540.000
  0
VERTEX
  8
LC_OH_2021_05_O7
  10
298663.001
  20
4473534.500
  0
SEQEND
  8
LC_OH_2021_05_O7
  0
INSERT
  8
FeatureAttribs
  2
FEATURE
  41
1
  42
1
  43
1
  50
0
  10
310719.956
  20
4470580.251
 66
1
  0
ATTRIB
  8
FeatureAttribs
 70
0
  1
PNOA-H_AMS_1956-57_33k_ES_PAN_21mic_H50_0554_fot_70A-46748_E.tif
  2
NAME
  10
310719.956
  20
4470580.251
 40
34.62494
  0
SEQEND
  0
POLYLINE
  8
LC_OH_2021_05_O7
  70
1
  66
1
  0
VERTEX
  8
LC_OH_2021_05_O7
  10
310870.502
  20
4472824.500
  0
VERTEX
  8
LC_OH_2021_05_O7
  10
310923.002
  20
4472810.500
  0
VERTEX
  8
LC_OH_2021_05_O7
  10
312040.002
  20
4472450.000
  0
VERTEX
  8
LC_OH_2021_05_O7
  10
311845.002
  20
4468479.000
  0
VERTEX
  8
LC_OH_2021_05_O7
  10
309777.002
  20
4468336.000
  0
VERTEX
  8
LC_OH_2021_05_O7
  10
309407.002
  20
4468535.500
  0
VERTEX
  8
LC_OH_2021_05_O7
  10
309573.502
  20
4472554.000
  0
VERTEX
  8
LC_OH_2021_05_O7
  10
310868.502
  20
4472824.000
  0
VERTEX
  8
LC_OH_2021_05_O7
  10
310870.502
  20
4472824.500
  0
SEQEND
  8
LC_OH_2021_05_O7
  0
INSERT
  8
FeatureAttribs
  2
FEATURE
  41
1
  42
1
  43
1
  50
0
  10
292299.746
  20
4474161.000
 66
1
  0
ATTRIB
  8
FeatureAttribs
 70
0
  1
PNOA-H_AMS_1956-57_33k_ES_PAN_21mic_H50_0554_fot_000-52021_R.tif
  2
NAME
  10
292299.746
  20
4474161.000
 40
34.62494
  0
SEQEND
  0
POLYLINE
  8
LC_OH_2021_05_O7
  70
1
  66
1
  0
VERTEX
  8
LC_OH_2021_05_O7
  10
291951.501
  20
4475674.000
  0
VERTEX
  8
LC_OH_2021_05_O7
  10
293650.001
  20
4474690.000
  0
VERTEX
  8
LC_OH_2021_05_O7
  10
293661.501
  20
4472957.000
  0
VERTEX
  8
LC_OH_2021_05_O7
  10
292305.501
  20
4472536.500
  0
VERTEX
  8
LC_OH_2021_05_O7
  10
292301.001
  20
4472536.000
  0
VERTEX
  8
LC_OH_2021_05_O7
  10
290921.501
  20
4473036.500
  0
VERTEX
  8
LC_OH_2021_05_O7
  10
290923.001
  20
4474115.000
  0
VERTEX
  8
LC_OH_2021_05_O7
  10
291757.501
  20
4475785.500
  0
VERTEX
  8
LC_OH_2021_05_O7
  10
291758.501
  20
4475786.000
  0
VERTEX
  8
LC_OH_2021_05_O7
  10
291764.001
  20
4475783.000
  0
VERTEX
  8
LC_OH_2021_05_O7
  10
291950.001
  20
4475674.500
  0
VERTEX
  8
LC_OH_2021_05_O7
  10
291951.501
  20
4475674.000
  0
SEQEND
  8
LC_OH_2021_05_O7
  0
INSERT
  8
FeatureAttribs
  2
FEATURE
  41
1
  42
1
  43
1
  50
0
  10
303332.143
  20
4470715.751
 66
1
  0
ATTRIB
  8
FeatureAttribs
 70
0
  1
PNOA-H_AMS_1956-57_33k_ES_PAN_21mic_H50_0554_fot_70A-46745_E.tif
  2
NAME
  10
303332.143
  20
4470715.751
 40
34.62494
  0
SEQEND
  0
POLYLINE
  8
LC_OH_2021_05_O7
  70
1
  66
1
  0
VERTEX
  8
LC_OH_2021_05_O7
  10
302190.501
  20
4472649.000
  0
VERTEX
  8
LC_OH_2021_05_O7
  10
303397.001
  20
4472957.500
  0
VERTEX
  8
LC_OH_2021_05_O7
  10
304566.001
  20
4472641.000
  0
VERTEX
  8
LC_OH_2021_05_O7
  10
304537.501
  20
4468685.500
  0
VERTEX
  8
LC_OH_2021_05_O7
  10
304536.501
  20
4468679.000
  0
VERTEX
  8
LC_OH_2021_05_O7
  10
304258.501
  20
4468631.500
  0
VERTEX
  8
LC_OH_2021_05_O7
  10
302661.001
  20
4468474.000
  0
VERTEX
  8
LC_OH_2021_05_O7
  10
302099.501
  20
4468747.000
  0
VERTEX
  8
LC_OH_2021_05_O7
  10
302124.501
  20
4472632.000
  0
VERTEX
  8
LC_OH_2021_05_O7
  10
302188.501
  20
4472648.500
  0
VERTEX
  8
LC_OH_2021_05_O7
  10
302190.501
  20
4472649.000
  0
SEQEND
  8
LC_OH_2021_05_O7
  0
INSERT
  8
FeatureAttribs
  2
FEATURE
  41
1
  42
1
  43
1
  50
0
  10
313173.517
  20
4470493.500
 66
1
  0
ATTRIB
  8
FeatureAttribs
 70
0
  1
PNOA-H_AMS_1956-57_33k_ES_PAN_21mic_H50_0554_fot_70A-46749_E.tif
  2
NAME
  10
313173.517
  20
4470493.500
 40
34.62494
  0
SEQEND
  0
POLYLINE
  8
LC_OH_2021_05_O7
  70
1
  66
1
  0
VERTEX
  8
LC_OH_2021_05_O7
  10
314310.405
  20
4472349.812
  0
VERTEX
  8
LC_OH_2021_05_O7
  10
314293.752
  20
4471676.947
  0
VERTEX
  8
LC_OH_2021_05_O7
  10
314236.538
  20
4469364.230
  0
VERTEX
  8
LC_OH_2021_05_O7
  10
314212.065
  20
4468374.525
  0
VERTEX
  8
LC_OH_2021_05_O7
  10
312135.002
  20
4468309.500
  0
VERTEX
  8
LC_OH_2021_05_O7
  10
311845.002
  20
4468479.000
  0
VERTEX
  8
LC_OH_2021_05_O7
  10
312040.002
  20
4472449.500
  0
VERTEX
  8
LC_OH_2021_05_O7
  10
313064.002
  20
4472677.000
  0
VERTEX
  8
LC_OH_2021_05_O7
  10
313066.002
  20
4472677.500
  0
SEQEND
  8
LC_OH_2021_05_O7
  0
INSERT
  8
FeatureAttribs
  2
FEATURE
  41
1
  42
1
  43
1
  50
0
  10
294910.191
  20
4474281.251
 66
1
  0
ATTRIB
  8
FeatureAttribs
 70
0
  1
PNOA-H_AMS_1956-57_33k_ES_PAN_21mic_H50_0554_fot_000-52022_R.tif
  2
NAME
  10
294910.191
  20
4474281.251
 40
34.62494
  0
SEQEND
  0
POLYLINE
  8
LC_OH_2021_05_O7
  70
1
  66
1
  0
VERTEX
  8
LC_OH_2021_05_O7
  10
296047.501
  20
4474651.500
  0
VERTEX
  8
LC_OH_2021_05_O7
  10
296158.501
  20
4474564.500
  0
VERTEX
  8
LC_OH_2021_05_O7
  10
296210.501
  20
4472954.500
  0
VERTEX
  8
LC_OH_2021_05_O7
  10
294883.501
  20
4472579.000
  0
VERTEX
  8
LC_OH_2021_05_O7
  10
294862.501
  20
4472574.000
  0
VERTEX
  8
LC_OH_2021_05_O7
  10
293661.501
  20
4472957.000
  0
VERTEX
  8
LC_OH_2021_05_O7
  10
293650.001
  20
4474691.000
  0
VERTEX
  8
LC_OH_2021_05_O7
  10
294355.001
  20
4475988.500
  0
VERTEX
  8
LC_OH_2021_05_O7
  10
296047.001
  20
4474652.500
  0
VERTEX
  8
LC_OH_2021_05_O7
  10
296047.501
  20
4474651.500
  0
SEQEND
  8
LC_OH_2021_05_O7
  0
INSERT
  8
FeatureAttribs
  2
FEATURE
  41
1
  42
1
  43
1
  50
0
  10
308270.218
  20
4470655.999
 66
1
  0
ATTRIB
  8
FeatureAttribs
 70
0
  1
PNOA-H_AMS_1956-57_33k_ES_PAN_21mic_H50_0554_fot_70A-46747_E.tif
  2
NAME
  10
308270.218
  20
4470655.999
 40
34.62494
  0
SEQEND
  0
POLYLINE
  8
LC_OH_2021_05_O7
  70
1
  66
1
  0
VERTEX
  8
LC_OH_2021_05_O7
  10
308411.002
  20
4472909.000
  0
VERTEX
  8
LC_OH_2021_05_O7
  10
308671.002
  20
4472841.500
  0
VERTEX
  8
LC_OH_2021_05_O7
  10
309573.502
  20
4472554.000
  0
VERTEX
  8
LC_OH_2021_05_O7
  10
309407.002
  20
4468536.000
  0
VERTEX
  8
LC_OH_2021_05_O7
  10
307510.002
  20
4468403.000
  0
VERTEX
  8
LC_OH_2021_05_O7
  10
306975.502
  20
4468654.500
  0
VERTEX
  8
LC_OH_2021_05_O7
  10
307115.002
  20
4472637.500
  0
VERTEX
  8
LC_OH_2021_05_O7
  10
307275.002
  20
4472684.000
  0
VERTEX
  8
LC_OH_2021_05_O7
  10
308408.502
  20
4472908.500
  0
VERTEX
  8
LC_OH_2021_05_O7
  10
308411.002
  20
4472909.000
  0
SEQEND
  8
LC_OH_2021_05_O7
  0
INSERT
  8
FeatureAttribs
  2
FEATURE
  41
1
  42
1
  43
1
  50
0
  10
299742.645
  20
4474378.251
 66
1
  0
ATTRIB
  8
FeatureAttribs
 70
0
  1
PNOA-H_AMS_1956-57_33k_ES_PAN_21mic_H50_0554_fot_000-52024_R.tif
  2
NAME
  10
299742.645
  20
4474378.251
 40
34.62494
  0
SEQEND
  0
POLYLINE
  8
LC_OH_2021_05_O7
  70
1
  66
1
  0
VERTEX
  8
LC_OH_2021_05_O7
  10
301041.501
  20
4473534.500
  0
VERTEX
  8
LC_OH_2021_05_O7
  10
301064.001
  20
4472935.500
  0
VERTEX
  8
LC_OH_2021_05_O7
  10
299723.501
  20
4472588.000
  0
VERTEX
  8
LC_OH_2021_05_O7
  10
299721.001
  20
4472587.500
  0
VERTEX
  8
LC_OH_2021_05_O7
  10
299708.501
  20
4472591.500
  0
VERTEX
  8
LC_OH_2021_05_O7
  10
298687.001
  20
4472927.000
  0
VERTEX
  8
LC_OH_2021_05_O7
  10
298627.501
  20
4474441.000
  0
VERTEX
  8
LC_OH_2021_05_O7
  10
298627.501
  20
4474449.000
  0
VERTEX
  8
LC_OH_2021_05_O7
  10
298631.501
  20
4474457.500
  0
VERTEX
  8
LC_OH_2021_05_O7
  10
299461.501
  20
4476168.000
  0
VERTEX
  8
LC_OH_2021_05_O7
  10
299463.001
  20
4476169.000
  0
VERTEX
  8
LC_OH_2021_05_O7
  10
301018.001
  20
4474169.000
  0
VERTEX
  8
LC_OH_2021_05_O7
  10
301041.501
  20
4473546.000
  0
VERTEX
  8
LC_OH_2021_05_O7
  10
301041.501
  20
4473534.500
  0
SEQEND
  8
LC_OH_2021_05_O7
  0
INSERT
  8
FeatureAttribs
  2
FEATURE
  41
1
  42
1
  43
1
  50
0
  10
309029.634
  20
4475081.749
 66
1
  0
ATTRIB
  8
FeatureAttribs
 70
0
  1
PNOA-H_AMS_1956-57_33k_ES_PAN_21mic_H50_0554_fot_000-52028_R.tif
  2
NAME
  10
309029.634
  20
4475081.749
 40
34.62494
  0
SEQEND
  0
POLYLINE
  8
LC_OH_2021_05_O7
  70
1
  66
1
  0
VERTEX
  8
LC_OH_2021_05_O7
  10
310383.502
  20
4477094.500
  0
VERTEX
  8
LC_OH_2021_05_O7
  10
310463.002
  20
4477068.000
  0
VERTEX
  8
LC_OH_2021_05_O7
  10
310473.502
  20
4477063.500
  0
VERTEX
  8
LC_OH_2021_05_O7
  10
308672.002
  20
4472844.000
  0
VERTEX
  8
LC_OH_2021_05_O7
  10
308670.502
  20
4472841.500
  0
VERTEX
  8
LC_OH_2021_05_O7
  10
308669.002
  20
4472841.500
  0
VERTEX
  8
LC_OH_2021_05_O7
  10
308413.502
  20
4472908.500
  0
VERTEX
  8
LC_OH_2021_05_O7
  10
308412.502
  20
4472909.000
  0
VERTEX
  8
LC_OH_2021_05_O7
  10
308412.502
  20
4472947.500
  0
VERTEX
  8
LC_OH_2021_05_O7
  10
308450.002
  20
4477084.000
  0
VERTEX
  8
LC_OH_2021_05_O7
  10
309712.002
  20
4477322.000
  0
VERTEX
  8
LC_OH_2021_05_O7
  10
309716.002
  20
4477322.000
  0
VERTEX
  8
LC_OH_2021_05_O7
  10
309725.002
  20
4477319.000
  0
VERTEX
  8
LC_OH_2021_05_O7
  10
310382.002
  20
4477095.000
  0
VERTEX
  8
LC_OH_2021_05_O7
  10
310383.502
  20
4477094.500
  0
SEQEND
  8
LC_OH_2021_05_O7
  0
INSERT
  8
FeatureAttribs
  2
FEATURE
  41
1
  42
1
  43
1
  50
0
  10
302009.766
  20
4474556.251
 66
1
  0
ATTRIB
  8
FeatureAttribs
 70
0
  1
PNOA-H_AMS_1956-57_33k_ES_PAN_21mic_H50_0554_fot_000-52025_R.tif
  2
NAME
  10
302009.766
  20
4474556.251
 40
34.62494
  0
SEQEND
  0
POLYLINE
  8
LC_OH_2021_05_O7
  70
1
  66
1
  0
VERTEX
  8
LC_OH_2021_05_O7
  10
302191.501
  20
4475779.500
  0
VERTEX
  8
LC_OH_2021_05_O7
  10
303379.501
  20
4473638.500
  0
VERTEX
  8
LC_OH_2021_05_O7
  10
303396.001
  20
4472957.500
  0
VERTEX
  8
LC_OH_2021_05_O7
  10
302126.001
  20
4472632.000
  0
VERTEX
  8
LC_OH_2021_05_O7
  10
302105.501
  20
4472637.000
  0
VERTEX
  8
LC_OH_2021_05_O7
  10
301064.001
  20
4472935.500
  0
VERTEX
  8
LC_OH_2021_05_O7
  10
301018.001
  20
4474169.500
  0
VERTEX
  8
LC_OH_2021_05_O7
  10
301802.001
  20
4476479.500
  0
VERTEX
  8
LC_OH_2021_05_O7
  10
301803.001
  20
4476480.500
  0
VERTEX
  8
LC_OH_2021_05_O7
  10
301804.501
  20
4476478.000
  0
VERTEX
  8
LC_OH_2021_05_O7
  10
302191.001
  20
4475781.000
  0
VERTEX
  8
LC_OH_2021_05_O7
  10
302191.501
  20
4475779.500
  0
SEQEND
  8
LC_OH_2021_05_O7
  0
INSERT
  8
FeatureAttribs
  2
FEATURE
  41
1
  42
1
  43
1
  50
0
  10
305799.492
  20
4470701.251
 66
1
  0
ATTRIB
  8
FeatureAttribs
 70
0
  1
PNOA-H_AMS_1956-57_33k_ES_PAN_21mic_H50_0554_fot_70A-46746_E.tif
  2
NAME
  10
305799.492
  20
4470701.251
 40
34.62494
  0
SEQEND
  0
POLYLINE
  8
LC_OH_2021_05_O7
  70
1
  66
1
  0
VERTEX
  8
LC_OH_2021_05_O7
  10
306287.502
  20
4472847.500
  0
VERTEX
  8
LC_OH_2021_05_O7
  10
307115.002
  20
4472637.500
  0
VERTEX
  8
LC_OH_2021_05_O7
  10
306975.502
  20
4468654.500
  0
VERTEX
  8
LC_OH_2021_05_O7
  10
305797.502
  20
4468477.500
  0
VERTEX
  8
LC_OH_2021_05_O7
  10
305084.001
  20
4468440.500
  0
VERTEX
  8
LC_OH_2021_05_O7
  10
304537.001
  20
4468679.500
  0
VERTEX
  8
LC_OH_2021_05_O7
  10
304566.001
  20
4472641.000
  0
VERTEX
  8
LC_OH_2021_05_O7
  10
305541.001
  20
4472919.500
  0
VERTEX
  8
LC_OH_2021_05_O7
  10
305837.502
  20
4472962.000
  0
VERTEX
  8
LC_OH_2021_05_O7
  10
306285.502
  20
4472848.000
  0
VERTEX
  8
LC_OH_2021_05_O7
  10
306287.502
  20
4472847.500
  0
SEQEND
  8
LC_OH_2021_05_O7
  0
INSERT
  8
FeatureAttribs
  2
FEATURE
  41
1
  42
1
  43
1
  50
0
  10
313828.443
  20
4475995.500
 66
1
  0
ATTRIB
  8
FeatureAttribs
 70
0
  1
PNOA-H_AMS_1956-57_33k_ES_PAN_21mic_H50_0554_fot_000-52030_R.tif
  2
NAME
  10
313828.443
  20
4475995.500
 40
34.62494
  0
SEQEND
  0
POLYLINE
  8
LC_OH_2021_05_O7
  70
1
  66
1
  0
VERTEX
  8
LC_OH_2021_05_O7
  10
314428.385
  20
4477115.110
  0
VERTEX
  8
LC_OH_2021_05_O7
  10
314408.254
  20
4476302.403
  0
VERTEX
  8
LC_OH_2021_05_O7
  10
314372.004
  20
4474838.351
  0
VERTEX
  8
LC_OH_2021_05_O7
  10
313255.502
  20
4474805.000
  0
VERTEX
  8
LC_OH_2021_05_O7
  10
313228.502
  20
4476901.000
  0
VERTEX
  8
LC_OH_2021_05_O7
  10
314106.502
  20
4477185.500
  0
VERTEX
  8
LC_OH_2021_05_O7
  10
314108.002
  20
4477186.000
  0
SEQEND
  8
LC_OH_2021_05_O7
  0
INSERT
  8
FeatureAttribs
  2
FEATURE
  41
1
  42
1
  43
1
  50
0
  10
311452.215
  20
4475025.499
 66
1
  0
ATTRIB
  8
FeatureAttribs
 70
0
  1
PNOA-H_AMS_1956-57_33k_ES_PAN_21mic_H50_0554_fot_000-52029_R.tif
  2
NAME
  10
311452.215
  20
4475025.499
 40
34.62494
  0
SEQEND
  0
POLYLINE
  8
LC_OH_2021_05_O7
  70
1
  66
1
  0
VERTEX
  8
LC_OH_2021_05_O7
  10
312431.502
  20
4477096.500
  0
VERTEX
  8
LC_OH_2021_05_O7
  10
313058.002
  20
4476936.000
  0
VERTEX
  8
LC_OH_2021_05_O7
  10
313065.002
  20
4476934.000
  0
VERTEX
  8
LC_OH_2021_05_O7
  10
313065.002
  20
4476933.000
  0
VERTEX
  8
LC_OH_2021_05_O7
  10
310919.502
  20
4472811.000
  0
VERTEX
  8
LC_OH_2021_05_O7
  10
310871.002
  20
4472824.500
  0
VERTEX
  8
LC_OH_2021_05_O7
  10
310798.002
  20
4476974.000
  0
VERTEX
  8
LC_OH_2021_05_O7
  10
311871.502
  20
4477240.000
  0
VERTEX
  8
LC_OH_2021_05_O7
  10
311881.002
  20
4477238.500
  0
VERTEX
  8
LC_OH_2021_05_O7
  10
312429.502
  20
4477097.000
  0
VERTEX
  8
LC_OH_2021_05_O7
  10
312431.502
  20
4477096.500
  0
SEQEND
  8
LC_OH_2021_05_O7
  0
INSERT
  8
FeatureAttribs
  2
FEATURE
  41
1
  42
1
  43
1
  50
0
  10
286265.182
  20
4474898.500
 66
1
  0
ATTRIB
  8
FeatureAttribs
 70
0
  1
PNOA-H_AMS_1956-57_33k_ES_PAN_21mic_H50_0554_fot_69B-52019_E.tif
  2
NAME
  10
286265.182
  20
4474898.500
 40
34.62494
  0
SEQEND
  0
POLYLINE
  8
LC_OH_2021_05_O7
  70
1
  66
1
  0
VERTEX
  8
LC_OH_2021_05_O7
  10
286125.930
  20
4477093.747
  0
VERTEX
  8
LC_OH_2021_05_O7
  10
287996.501
  20
4474023.500
  0
VERTEX
  8
LC_OH_2021_05_O7
  10
287997.001
  20
4472983.000
  0
VERTEX
  8
LC_OH_2021_05_O7
  10
286928.501
  20
4472521.000
  0
VERTEX
  8
LC_OH_2021_05_O7
  10
286915.501
  20
4472523.500
  0
VERTEX
  8
LC_OH_2021_05_O7
  10
286002.139
  20
4472755.056
  0
VERTEX
  8
LC_OH_2021_05_O7
  10
286058.859
  20
4474743.454
  0
VERTEX
  8
LC_OH_2021_05_O7
  10
286124.861
  20
4477056.274
  0
SEQEND
  8
LC_OH_2021_05_O7
  0
INSERT
  8
FeatureAttribs
  2
FEATURE
  41
1
  42
1
  43
1
  50
0
  10
304260.491
  20
4474977.249
 66
1
  0
ATTRIB
  8
FeatureAttribs
 70
0
  1
PNOA-H_AMS_1956-57_33k_ES_PAN_21mic_H50_0554_fot_000-52026_R.tif
  2
NAME
  10
304260.491
  20
4474977.249
 40
34.62494
  0
SEQEND
  0
POLYLINE
  8
LC_OH_2021_05_O7
  70
1
  66
1
  0
VERTEX
  8
LC_OH_2021_05_O7
  10
304239.501
  20
4476952.500
  0
VERTEX
  8
LC_OH_2021_05_O7
  10
305543.001
  20
4472921.000
  0
VERTEX
  8
LC_OH_2021_05_O7
  10
305543.001
  20
4472919.500
  0
VERTEX
  8
LC_OH_2021_05_O7
  10
304565.001
  20
4472641.000
  0
VERTEX
  8
LC_OH_2021_05_O7
  10
303396.001
  20
4472957.500
  0
VERTEX
  8
LC_OH_2021_05_O7
  10
303379.501
  20
4473639.500
  0
VERTEX
  8
LC_OH_2021_05_O7
  10
304102.001
  20
4477310.000
  0
VERTEX
  8
LC_OH_2021_05_O7
  10
304104.001
  20
4477311.500
  0
VERTEX
  8
LC_OH_2021_05_O7
  10
304119.501
  20
4477313.500
  0
VERTEX
  8
LC_OH_2021_05_O7
  10
304123.501
  20
4477313.000
  0
VERTEX
  8
LC_OH_2021_05_O7
  10
304239.501
  20
4476954.000
  0
VERTEX
  8
LC_OH_2021_05_O7
  10
304239.501
  20
4476952.500
  0
SEQEND
  8
LC_OH_2021_05_O7
  0
INSERT
  8
FeatureAttribs
  2
FEATURE
  41
1
  42
1
  43
1
  50
0
  10
306592.124
  20
4474981.500
 66
1
  0
ATTRIB
  8
FeatureAttribs
 70
0
  1
PNOA-H_AMS_1956-57_33k_ES_PAN_21mic_H50_0554_fot_000-52027_R.tif
  2
NAME
  10
306592.124
  20
4474981.500
 40
34.62494
  0
SEQEND
  0
POLYLINE
  8
LC_OH_2021_05_O7
  70
1
  66
1
  0
VERTEX
  8
LC_OH_2021_05_O7
  10
307049.002
  20
4477325.500
  0
VERTEX
  8
LC_OH_2021_05_O7
  10
307050.002
  20
4477325.500
  0
VERTEX
  8
LC_OH_2021_05_O7
  10
307050.502
  20
4477317.000
  0
VERTEX
  8
LC_OH_2021_05_O7
  10
307274.502
  20
4472693.500
  0
VERTEX
  8
LC_OH_2021_05_O7
  10
307274.502
  20
4472683.500
  0
VERTEX
  8
LC_OH_2021_05_O7
  10
307273.502
  20
4472683.000
  0
VERTEX
  8
LC_OH_2021_05_O7
  10
307116.502
  20
4472637.500
  0
VERTEX
  8
LC_OH_2021_05_O7
  10
307093.002
  20
4472642.500
  0
VERTEX
  8
LC_OH_2021_05_O7
  10
305839.002
  20
4472962.000
  0
VERTEX
  8
LC_OH_2021_05_O7
  10
306221.002
  20
4477210.000
  0
VERTEX
  8
LC_OH_2021_05_O7
  10
307045.002
  20
4477325.000
  0
VERTEX
  8
LC_OH_2021_05_O7
  10
307049.002
  20
4477325.500
  0
SEQEND
  8
LC_OH_2021_05_O7
  0
INSERT
  8
FeatureAttribs
  2
FEATURE
  41
1
  42
1
  43
1
  50
0
  10
287154.003
  20
4486108.062
 66
1
  0
ATTRIB
  8
FeatureAttribs
 70
0
  1
PNOA-H_AMS_1956-57_33k_ES_PAN_21mic_H50_0528_fot_66A-18854_E.tif
  2
NAME
  10
287154.003
  20
4486108.062
 40
34.62494
  0
SEQEND
  0
POLYLINE
  8
LC_OH_2021_05_O7
  70
1
  66
1
  0
VERTEX
  8
LC_OH_2021_05_O7
  10
287925.787
  20
4486264.052
  0
VERTEX
  8
LC_OH_2021_05_O7
  10
287920.001
  20
4486151.000
  0
VERTEX
  8
LC_OH_2021_05_O7
  10
287249.501
  20
4485910.000
  0
VERTEX
  8
LC_OH_2021_05_O7
  10
287242.501
  20
4485908.500
  0
VERTEX
  8
LC_OH_2021_05_O7
  10
286382.218
  20
4486065.057
  0
VERTEX
  8
LC_OH_2021_05_O7
  10
286389.152
  20
4486307.624
  0
SEQEND
  8
LC_OH_2021_05_O7
  0
INSERT
  8
FeatureAttribs
  2
FEATURE
  41
1
  42
1
  43
1
  50
0
  10
307941.398
  20
4485662.667
 66
1
  0
ATTRIB
  8
FeatureAttribs
 70
0
  1
PNOA-H_AMS_1956-57_33k_ES_PAN_21mic_H50_0529_fot_66A-18846_E.tif
  2
NAME
  10
307941.398
  20
4485662.667
 40
34.62494
  0
SEQEND
  0
POLYLINE
  8
LC_OH_2021_05_O7
  70
1
  66
1
  0
VERTEX
  8
LC_OH_2021_05_O7
  10
308438.202
  20
4485709.918
  0
VERTEX
  8
LC_OH_2021_05_O7
  10
307826.002
  20
4485590.000
  0
VERTEX
  8
LC_OH_2021_05_O7
  10
307444.594
  20
4485735.334
  0
VERTEX
  8
LC_OH_2021_05_O7
  10
307575.551
  20
4485731.930
  0
SEQEND
  8
LC_OH_2021_05_O7
  0
INSERT
  8
FeatureAttribs
  2
FEATURE
  41
1
  42
1
  43
1
  50
0
  10
302456.029
  20
4485796.957
 66
1
  0
ATTRIB
  8
FeatureAttribs
 70
0
  1
PNOA-H_AMS_1956-57_33k_ES_PAN_21mic_H50_0529_fot_66A-18848_E.tif
  2
NAME
  10
302456.029
  20
4485796.957
 40
34.62494
  0
SEQEND
  0
POLYLINE
  8
LC_OH_2021_05_O7
  70
1
  66
1
  0
VERTEX
  8
LC_OH_2021_05_O7
  10
302991.712
  20
4485851.562
  0
VERTEX
  8
LC_OH_2021_05_O7
  10
302344.501
  20
4485714.000
  0
VERTEX
  8
LC_OH_2021_05_O7
  10
301920.346
  20
4485879.914
  0
SEQEND
  8
LC_OH_2021_05_O7
  0
INSERT
  8
FeatureAttribs
  2
FEATURE
  41
1
  42
1
  43
1
  50
0
  10
299838.769
  20
4485863.911
 66
1
  0
ATTRIB
  8
FeatureAttribs
 70
0
  1
PNOA-H_AMS_1956-57_33k_ES_PAN_21mic_H50_0529_fot_66A-18849_E.tif
  2
NAME
  10
299838.769
  20
4485863.911
 40
34.62494
  0
SEQEND
  0
POLYLINE
  8
LC_OH_2021_05_O7
  70
1
  66
1
  0
VERTEX
  8
LC_OH_2021_05_O7
  10
300470.040
  20
4485918.314
  0
VERTEX
  8
LC_OH_2021_05_O7
  10
299616.001
  20
4485775.500
  0
VERTEX
  8
LC_OH_2021_05_O7
  10
299207.498
  20
4485952.322
  0
SEQEND
  8
LC_OH_2021_05_O7
  0
INSERT
  8
FeatureAttribs
  2
FEATURE
  41
1
  42
1
  43
1
  50
0
  10
297170.278
  20
4485900.529
 66
1
  0
ATTRIB
  8
FeatureAttribs
 70
0
  1
PNOA-H_AMS_1956-57_33k_ES_PAN_21mic_H50_0529_fot_66A-18850_E.tif
  2
NAME
  10
297170.278
  20
4485900.529
 40
34.62494
  0
SEQEND
  0
POLYLINE
  8
LC_OH_2021_05_O7
  70
1
  66
1
  0
VERTEX
  8
LC_OH_2021_05_O7
  10
298044.030
  20
4485983.662
  0
VERTEX
  8
LC_OH_2021_05_O7
  10
296852.501
  20
4485770.000
  0
VERTEX
  8
LC_OH_2021_05_O7
  10
296296.526
  20
4486031.057
  0
VERTEX
  8
LC_OH_2021_05_O7
  10
296982.428
  20
4486012.257
  0
SEQEND
  8
LC_OH_2021_05_O7
  0
INSERT
  8
FeatureAttribs
  2
FEATURE
  41
1
  42
1
  43
1
  50
0
  10
291771.779
  20
4486042.512
 66
1
  0
ATTRIB
  8
FeatureAttribs
 70
0
  1
PNOA-H_AMS_1956-57_33k_ES_PAN_21mic_H50_0529_fot_66A-18852_E.tif
  2
NAME
  10
291771.779
  20
4486042.512
 40
34.62494
  0
SEQEND
  0
POLYLINE
  8
LC_OH_2021_05_O7
  70
1
  66
1
  0
VERTEX
  8
LC_OH_2021_05_O7
  10
292906.967
  20
4486124.220
  0
VERTEX
  8
LC_OH_2021_05_O7
  10
291218.001
  20
4485897.500
  0
VERTEX
  8
LC_OH_2021_05_O7
  10
290636.591
  20
4486187.524
  0
SEQEND
  8
LC_OH_2021_05_O7
  0
INSERT
  8
FeatureAttribs
  2
FEATURE
  41
1
  42
1
  43
1
  50
0
  10
289138.709
  20
4486144.526
 66
1
  0
ATTRIB
  8
FeatureAttribs
 70
0
  1
PNOA-H_AMS_1956-57_33k_ES_PAN_21mic_H50_0529_fot_66A-18853_E.tif
  2
NAME
  10
289138.709
  20
4486144.526
 40
34.62494
  0
SEQEND
  0
POLYLINE
  8
LC_OH_2021_05_O7
  70
1
  66
1
  0
VERTEX
  8
LC_OH_2021_05_O7
  10
290357.418
  20
4486195.308
  0
VERTEX
  8
LC_OH_2021_05_O7
  10
288629.501
  20
4486025.000
  0
VERTEX
  8
LC_OH_2021_05_O7
  10
288619.001
  20
4486025.500
  0
VERTEX
  8
LC_OH_2021_05_O7
  10
287920.001
  20
4486151.000
  0
VERTEX
  8
LC_OH_2021_05_O7
  10
287925.787
  20
4486264.052
  0
VERTEX
  8
LC_OH_2021_05_O7
  10
289920.261
  20
4486207.497
  0
SEQEND
  8
LC_OH_2021_05_O7
  0
INSERT
  8
FeatureAttribs
  2
FEATURE
  41
1
  42
1
  43
1
  50
0
  10
294518.998
  20
4485965.319
 66
1
  0
ATTRIB
  8
FeatureAttribs
 70
0
  1
PNOA-H_AMS_1956-57_33k_ES_PAN_21mic_H50_0529_fot_66A-18851_E.tif
  2
NAME
  10
294518.998
  20
4485965.319
 40
34.62494
  0
SEQEND
  0
POLYLINE
  8
LC_OH_2021_05_O7
  70
1
  66
1
  0
VERTEX
  8
LC_OH_2021_05_O7
  10
295571.892
  20
4486050.919
  0
VERTEX
  8
LC_OH_2021_05_O7
  10
294049.001
  20
4485822.000
  0
VERTEX
  8
LC_OH_2021_05_O7
  10
293466.105
  20
4486108.637
  0
SEQEND
  8
LC_OH_2021_05_O7
  0
INSERT
  8
FeatureAttribs
  2
FEATURE
  41
1
  42
1
  43
1
  50
0
  10
305213.737
  20
4485714.046
 66
1
  0
ATTRIB
  8
FeatureAttribs
 70
0
  1
PNOA-H_AMS_1956-57_33k_ES_PAN_21mic_H50_0529_fot_66A-18847_E.tif
  2
NAME
  10
305213.737
  20
4485714.046
 40
34.62494
  0
SEQEND
  0
POLYLINE
  8
LC_OH_2021_05_O7
  70
1
  66
1
  0
VERTEX
  8
LC_OH_2021_05_O7
  10
305840.054
  20
4485777.036
  0
VERTEX
  8
LC_OH_2021_05_O7
  10
305087.501
  20
4485618.500
  0
VERTEX
  8
LC_OH_2021_05_O7
  10
304587.419
  20
4485809.592
  0
SEQEND
  8
LC_OH_2021_05_O7
  0
INSERT
  8
FeatureAttribs
  2
FEATURE
  41
1
  42
1
  43
1
  50
0
  10
290184.794
  20
4483906.499
 66
1
  0
ATTRIB
  8
FeatureAttribs
 70
0
  1
PNOA-H_AMS_1956-57_33k_ES_PAN_21mic_H50_0554_fot_67B-18342_E.tif
  2
NAME
  10
290184.794
  20
4483906.499
 40
34.62494
  0
SEQEND
  0
POLYLINE
  8
LC_OH_2021_05_O7
  70
1
  66
1
  0
VERTEX
  8
LC_OH_2021_05_O7
  10
290637.170
  20
4486187.508
  0
VERTEX
  8
LC_OH_2021_05_O7
  10
291219.001
  20
4485897.500
  0
VERTEX
  8
LC_OH_2021_05_O7
  10
291277.001
  20
4482077.500
  0
VERTEX
  8
LC_OH_2021_05_O7
  10
289670.001
  20
4481596.000
  0
VERTEX
  8
LC_OH_2021_05_O7
  10
289661.001
  20
4481598.500
  0
VERTEX
  8
LC_OH_2021_05_O7
  10
289660.001
  20
4481601.000
  0
VERTEX
  8
LC_OH_2021_05_O7
  10
288624.501
  20
4486025.000
  0
VERTEX
  8
LC_OH_2021_05_O7
  10
289894.501
  20
4486150.000
  0
VERTEX
  8
LC_OH_2021_05_O7
  10
289900.001
  20
4486150.500
  0
VERTEX
  8
LC_OH_2021_05_O7
  10
290356.968
  20
4486195.320
  0
SEQEND
  8
LC_OH_2021_05_O7
  0
INSERT
  8
FeatureAttribs
  2
FEATURE
  41
1
  42
1
  43
1
  50
0
  10
295417.510
  20
4483865.750
 66
1
  0
ATTRIB
  8
FeatureAttribs
 70
0
  1
PNOA-H_AMS_1956-57_33k_ES_PAN_21mic_H50_0554_fot_67B-18344_E.tif
  2
NAME
  10
295417.510
  20
4483865.750
 40
34.62494
  0
SEQEND
  0
POLYLINE
  8
LC_OH_2021_05_O7
  70
1
  66
1
  0
VERTEX
  8
LC_OH_2021_05_O7
  10
296297.656
  20
4486031.026
  0
VERTEX
  8
LC_OH_2021_05_O7
  10
296852.501
  20
4485770.500
  0
VERTEX
  8
LC_OH_2021_05_O7
  10
296806.001
  20
4483775.500
  0
VERTEX
  8
LC_OH_2021_05_O7
  10
296806.001
  20
4483774.500
  0
VERTEX
  8
LC_OH_2021_05_O7
  10
296766.001
  20
4482049.000
  0
VERTEX
  8
LC_OH_2021_05_O7
  10
295044.001
  20
4481602.500
  0
VERTEX
  8
LC_OH_2021_05_O7
  10
294006.001
  20
4482057.000
  0
VERTEX
  8
LC_OH_2021_05_O7
  10
294049.501
  20
4485822.000
  0
VERTEX
  8
LC_OH_2021_05_O7
  10
295570.532
  20
4486050.956
  0
SEQEND
  8
LC_OH_2021_05_O7
  0
INSERT
  8
FeatureAttribs
  2
FEATURE
  41
1
  42
1
  43
1
  50
0
  10
298182.695
  20
4483960.750
 66
1
  0
ATTRIB
  8
FeatureAttribs
 70
0
  1
PNOA-H_AMS_1956-57_33k_ES_PAN_21mic_H50_0554_fot_67B-18345_E.tif
  2
NAME
  10
298182.695
  20
4483960.750
 40
34.62494
  0
SEQEND
  0
POLYLINE
  8
LC_OH_2021_05_O7
  70
1
  66
1
  0
VERTEX
  8
LC_OH_2021_05_O7
  10
299208.344
  20
4485952.299
  0
VERTEX
  8
LC_OH_2021_05_O7
  10
299616.501
  20
4485775.500
  0
VERTEX
  8
LC_OH_2021_05_O7
  10
299487.001
  20
4481973.500
  0
VERTEX
  8
LC_OH_2021_05_O7
  10
298479.001
  20
4481799.500
  0
VERTEX
  8
LC_OH_2021_05_O7
  10
297237.501
  20
4481836.000
  0
VERTEX
  8
LC_OH_2021_05_O7
  10
296766.001
  20
4482049.000
  0
VERTEX
  8
LC_OH_2021_05_O7
  10
296853.001
  20
4485770.000
  0
VERTEX
  8
LC_OH_2021_05_O7
  10
298043.031
  20
4485983.689
  0
SEQEND
  8
LC_OH_2021_05_O7
  0
INSERT
  8
FeatureAttribs
  2
FEATURE
  41
1
  42
1
  43
1
  50
0
  10
303645.263
  20
4483779.000
 66
1
  0
ATTRIB
  8
FeatureAttribs
 70
0
  1
PNOA-H_AMS_1956-57_33k_ES_PAN_21mic_H50_0554_fot_67B-18347_E.tif
  2
NAME
  10
303645.263
  20
4483779.000
 40
34.62494
  0
SEQEND
  0
POLYLINE
  8
LC_OH_2021_05_O7
  70
1
  66
1
  0
VERTEX
  8
LC_OH_2021_05_O7
  10
304588.190
  20
4485809.572
  0
VERTEX
  8
LC_OH_2021_05_O7
  10
305088.001
  20
4485618.500
  0
VERTEX
  8
LC_OH_2021_05_O7
  10
304938.501
  20
4481662.500
  0
VERTEX
  8
LC_OH_2021_05_O7
  10
302719.501
  20
4481503.500
  0
VERTEX
  8
LC_OH_2021_05_O7
  10
302198.001
  20
4481830.000
  0
VERTEX
  8
LC_OH_2021_05_O7
  10
302345.501
  20
4485714.000
  0
VERTEX
  8
LC_OH_2021_05_O7
  10
302991.649
  20
4485851.564
  0
VERTEX
  8
LC_OH_2021_05_O7
  10
304044.526
  20
4485823.702
  0
SEQEND
  8
LC_OH_2021_05_O7
  0
INSERT
  8
FeatureAttribs
  2
FEATURE
  41
1
  42
1
  43
1
  50
0
  10
292638.292
  20
4483912.000
 66
1
  0
ATTRIB
  8
FeatureAttribs
 70
0
  1
PNOA-H_AMS_1956-57_33k_ES_PAN_21mic_H50_0554_fot_67B-18343_E.tif
  2
NAME
  10
292638.292
  20
4483912.000
 40
34.62494
  0
SEQEND
  0
POLYLINE
  8
LC_OH_2021_05_O7
  70
1
  66
1
  0
VERTEX
  8
LC_OH_2021_05_O7
  10
293467.059
  20
4486108.611
  0
VERTEX
  8
LC_OH_2021_05_O7
  10
294049.501
  20
4485822.000
  0
VERTEX
  8
LC_OH_2021_05_O7
  10
294006.001
  20
4482057.500
  0
VERTEX
  8
LC_OH_2021_05_O7
  10
292356.501
  20
4481644.500
  0
VERTEX
  8
LC_OH_2021_05_O7
  10
292353.001
  20
4481644.500
  0
VERTEX
  8
LC_OH_2021_05_O7
  10
292310.501
  20
4481661.500
  0
VERTEX
  8
LC_OH_2021_05_O7
  10
291277.001
  20
4482077.500
  0
VERTEX
  8
LC_OH_2021_05_O7
  10
291219.001
  20
4485897.500
  0
VERTEX
  8
LC_OH_2021_05_O7
  10
291945.501
  20
4485995.000
  0
VERTEX
  8
LC_OH_2021_05_O7
  10
291949.001
  20
4485995.500
  0
VERTEX
  8
LC_OH_2021_05_O7
  10
292909.648
  20
4486124.146
  0
VERTEX
  8
LC_OH_2021_05_O7
  10
293451.353
  20
4486109.041
  0
SEQEND
  8
LC_OH_2021_05_O7
  0
INSERT
  8
FeatureAttribs
  2
FEATURE
  41
1
  42
1
  43
1
  50
0
  10
306381.717
  20
4483712.500
 66
1
  0
ATTRIB
  8
FeatureAttribs
 70
0
  1
PNOA-H_AMS_1956-57_33k_ES_PAN_21mic_H50_0554_fot_67B-18348_E.tif
  2
NAME
  10
306381.717
  20
4483712.500
 40
34.62494
  0
SEQEND
  0
POLYLINE
  8
LC_OH_2021_05_O7
  70
1
  66
1
  0
VERTEX
  8
LC_OH_2021_05_O7
  10
307445.529
  20
4485735.310
  0
VERTEX
  8
LC_OH_2021_05_O7
  10
307826.502
  20
4485590.000
  0
VERTEX
  8
LC_OH_2021_05_O7
  10
307652.502
  20
4481458.000
  0
VERTEX
  8
LC_OH_2021_05_O7
  10
307630.002
  20
4481445.000
  0
VERTEX
  8
LC_OH_2021_05_O7
  10
305256.501
  20
4481462.000
  0
VERTEX
  8
LC_OH_2021_05_O7
  10
304939.001
  20
4481662.500
  0
VERTEX
  8
LC_OH_2021_05_O7
  10
305087.501
  20
4485617.500
  0
VERTEX
  8
LC_OH_2021_05_O7
  10
305088.501
  20
4485619.000
  0
VERTEX
  8
LC_OH_2021_05_O7
  10
305100.001
  20
4485621.500
  0
VERTEX
  8
LC_OH_2021_05_O7
  10
305838.589
  20
4485777.074
  0
SEQEND
  8
LC_OH_2021_05_O7
  0
INSERT
  8
FeatureAttribs
  2
FEATURE
  41
1
  42
1
  43
1
  50
0
  10
311725.217
  20
4482827.999
 66
1
  0
ATTRIB
  8
FeatureAttribs
 70
0
  1
PNOA-H_AMS_1956-57_33k_ES_PAN_21mic_H50_0554_fot_67B-18350_E.tif
  2
NAME
  10
311725.217
  20
4482827.999
 40
34.62494
  0
SEQEND
  0
POLYLINE
  8
LC_OH_2021_05_O7
  70
1
  66
1
  0
VERTEX
  8
LC_OH_2021_05_O7
  10
310383.002
  20
4482175.500
  0
VERTEX
  8
LC_OH_2021_05_O7
  10
310448.502
  20
4484281.000
  0
VERTEX
  8
LC_OH_2021_05_O7
  10
312582.502
  20
4484558.000
  0
VERTEX
  8
LC_OH_2021_05_O7
  10
313096.002
  20
4484135.000
  0
VERTEX
  8
LC_OH_2021_05_O7
  10
312993.502
  20
4481394.000
  0
VERTEX
  8
LC_OH_2021_05_O7
  10
312032.002
  20
4481099.000
  0
VERTEX
  8
LC_OH_2021_05_O7
  10
312025.002
  20
4481098.000
  0
VERTEX
  8
LC_OH_2021_05_O7
  10
310360.502
  20
4481441.500
  0
VERTEX
  8
LC_OH_2021_05_O7
  10
310383.002
  20
4482159.000
  0
VERTEX
  8
LC_OH_2021_05_O7
  10
310383.002
  20
4482175.500
  0
SEQEND
  8
LC_OH_2021_05_O7
  0
INSERT
  8
FeatureAttribs
  2
FEATURE
  41
1
  42
1
  43
1
  50
0
  10
300912.953
  20
4483850.249
 66
1
  0
ATTRIB
  8
FeatureAttribs
 70
0
  1
PNOA-H_AMS_1956-57_33k_ES_PAN_21mic_H50_0554_fot_67B-18346_E.tif
  2
NAME
  10
300912.953
  20
4483850.249
 40
34.62494
  0
SEQEND
  0
POLYLINE
  8
LC_OH_2021_05_O7
  70
1
  66
1
  0
VERTEX
  8
LC_OH_2021_05_O7
  10
301921.174
  20
4485879.892
  0
VERTEX
  8
LC_OH_2021_05_O7
  10
302345.501
  20
4485714.000
  0
VERTEX
  8
LC_OH_2021_05_O7
  10
302198.001
  20
4481830.000
  0
VERTEX
  8
LC_OH_2021_05_O7
  10
300153.501
  20
4481623.500
  0
VERTEX
  8
LC_OH_2021_05_O7
  10
299487.501
  20
4481973.500
  0
VERTEX
  8
LC_OH_2021_05_O7
  10
299616.501
  20
4485775.500
  0
VERTEX
  8
LC_OH_2021_05_O7
  10
300137.501
  20
4485863.000
  0
VERTEX
  8
LC_OH_2021_05_O7
  10
300140.501
  20
4485863.500
  0
VERTEX
  8
LC_OH_2021_05_O7
  10
300468.483
  20
4485918.356
  0
VERTEX
  8
LC_OH_2021_05_O7
  10
300513.485
  20
4485917.144
  0
SEQEND
  8
LC_OH_2021_05_O7
  0
INSERT
  8
FeatureAttribs
  2
FEATURE
  41
1
  42
1
  43
1
  50
0
  10
314306.525
  20
4482826.250
 66
1
  0
ATTRIB
  8
FeatureAttribs
 70
0
  1
PNOA-H_AMS_1956-57_33k_ES_PAN_21mic_H50_0554_fot_67B-18351_E.tif
  2
NAME
  10
314306.525
  20
4482826.250
 40
34.62494
  0
SEQEND
  0
POLYLINE
  8
LC_OH_2021_05_O7
  70
1
  66
1
  0
VERTEX
  8
LC_OH_2021_05_O7
  10
314526.325
  20
4481067.913
  0
VERTEX
  8
LC_OH_2021_05_O7
  10
314166.502
  20
4480989.000
  0
VERTEX
  8
LC_OH_2021_05_O7
  10
312994.002
  20
4481394.500
  0
VERTEX
  8
LC_OH_2021_05_O7
  10
313096.002
  20
4484135.000
  0
VERTEX
  8
LC_OH_2021_05_O7
  10
314612.956
  20
4484561.719
  0
VERTEX
  8
LC_OH_2021_05_O7
  10
314580.190
  20
4483240.640
  0
SEQEND
  8
LC_OH_2021_05_O7
  0
INSERT
  8
FeatureAttribs
  2
FEATURE
  41
1
  42
1
  43
1
  50
0
  10
309082.075
  20
4483523.749
 66
1
  0
ATTRIB
  8
FeatureAttribs
 70
0
  1
PNOA-H_AMS_1956-57_33k_ES_PAN_21mic_H50_0554_fot_67B-18349_E.tif
  2
NAME
  10
309082.075
  20
4483523.749
 40
34.62494
  0
SEQEND
  0
POLYLINE
  8
LC_OH_2021_05_O7
  70
1
  66
1
  0
VERTEX
  8
LC_OH_2021_05_O7
  10
309083.475
  20
4485693.453
  0
VERTEX
  8
LC_OH_2021_05_O7
  10
310448.002
  20
4484281.000
  0
VERTEX
  8
LC_OH_2021_05_O7
  10
310360.502
  20
4481441.500
  0
VERTEX
  8
LC_OH_2021_05_O7
  10
309887.002
  20
4481234.000
  0
VERTEX
  8
LC_OH_2021_05_O7
  10
307652.502
  20
4481458.000
  0
VERTEX
  8
LC_OH_2021_05_O7
  10
307826.502
  20
4485590.000
  0
VERTEX
  8
LC_OH_2021_05_O7
  10
308330.002
  20
4485689.000
  0
VERTEX
  8
LC_OH_2021_05_O7
  10
308333.002
  20
4485689.500
  0
VERTEX
  8
LC_OH_2021_05_O7
  10
308437.564
  20
4485709.934
  0
SEQEND
  8
LC_OH_2021_05_O7
  0
INSERT
  8
FeatureAttribs
  2
FEATURE
  41
1
  42
1
  43
1
  50
0
  10
286541.037
  20
4479523.742
 66
1
  0
ATTRIB
  8
FeatureAttribs
 70
0
  1
PNOA-H_AMS_1956-57_33k_ES_PAN_21mic_H50_0553_fot_68C-27865_W.tif
  2
NAME
  10
286541.037
  20
4479523.742
 40
34.62494
  0
SEQEND
  0
POLYLINE
  8
LC_OH_2021_05_O7
  70
1
  66
1
  0
VERTEX
  8
LC_OH_2021_05_O7
  10
286257.568
  20
4481703.561
  0
VERTEX
  8
LC_OH_2021_05_O7
  10
286949.001
  20
4481667.500
  0
VERTEX
  8
LC_OH_2021_05_O7
  10
286935.501
  20
4477807.500
  0
VERTEX
  8
LC_OH_2021_05_O7
  10
286133.073
  20
4477343.923
  0
VERTEX
  8
LC_OH_2021_05_O7
  10
286190.891
  20
4479369.102
  0
VERTEX
  8
LC_OH_2021_05_O7
  10
286256.950
  20
4481681.936
  0
SEQEND
  8
LC_OH_2021_05_O7
  0
INSERT
  8
FeatureAttribs
  2
FEATURE
  41
1
  42
1
  43
1
  50
0
  10
299285.044
  20
4479795.500
 66
1
  0
ATTRIB
  8
FeatureAttribs
 70
0
  1
PNOA-H_AMS_1956-57_33k_ES_PAN_21mic_H50_0554_fot_68C-27859_W.tif
  2
NAME
  10
299285.044
  20
4479795.500
 40
34.62494
  0
SEQEND
  0
POLYLINE
  8
LC_OH_2021_05_O7
  70
1
  66
1
  0
VERTEX
  8
LC_OH_2021_05_O7
  10
300075.001
  20
4479678.500
  0
VERTEX
  8
LC_OH_2021_05_O7
  10
299998.501
  20
4477799.000
  0
VERTEX
  8
LC_OH_2021_05_O7
  10
299540.001
  20
4477617.000
  0
VERTEX
  8
LC_OH_2021_05_O7
  10
298500.001
  20
4477770.500
  0
VERTEX
  8
LC_OH_2021_05_O7
  10
298481.501
  20
4481764.500
  0
VERTEX
  8
LC_OH_2021_05_O7
  10
298482.001
  20
4481800.000
  0
VERTEX
  8
LC_OH_2021_05_O7
  10
299487.501
  20
4481974.000
  0
VERTEX
  8
LC_OH_2021_05_O7
  10
300154.001
  20
4481623.500
  0
VERTEX
  8
LC_OH_2021_05_O7
  10
300075.001
  20
4479686.000
  0
VERTEX
  8
LC_OH_2021_05_O7
  10
300075.001
  20
4479678.500
  0
SEQEND
  8
LC_OH_2021_05_O7
  0
INSERT
  8
FeatureAttribs
  2
FEATURE
  41
1
  42
1
  43
1
  50
0
  10
313044.164
  20
4479147.749
 66
1
  0
ATTRIB
  8
FeatureAttribs
 70
0
  1
PNOA-H_AMS_1956-57_33k_ES_PAN_21mic_H50_0554_fot_68C-27853_W.tif
  2
NAME
  10
313044.164
  20
4479147.749
 40
34.62494
  0
SEQEND
  0
POLYLINE
  8
LC_OH_2021_05_O7
  70
1
  66
1
  0
VERTEX
  8
LC_OH_2021_05_O7
  10
312027.002
  20
4481098.000
  0
VERTEX
  8
LC_OH_2021_05_O7
  10
312992.002
  20
4481394.000
  0
VERTEX
  8
LC_OH_2021_05_O7
  10
312993.502
  20
4481394.500
  0
VERTEX
  8
LC_OH_2021_05_O7
  10
314167.002
  20
4480989.000
  0
VERTEX
  8
LC_OH_2021_05_O7
  10
314109.002
  20
4477187.500
  0
VERTEX
  8
LC_OH_2021_05_O7
  10
314108.002
  20
4477185.500
  0
VERTEX
  8
LC_OH_2021_05_O7
  10
313227.502
  20
4476901.000
  0
VERTEX
  8
LC_OH_2021_05_O7
  10
313059.502
  20
4476935.000
  0
VERTEX
  8
LC_OH_2021_05_O7
  10
311873.502
  20
4477240.000
  0
SEQEND
  8
LC_OH_2021_05_O7
  0
INSERT
  8
FeatureAttribs
  2
FEATURE
  41
1
  42
1
  43
1
  50
0
  10
310874.610
  20
4479207.750
 66
1
  0
ATTRIB
  8
FeatureAttribs
 70
0
  1
PNOA-H_AMS_1956-57_33k_ES_PAN_21mic_H50_0554_fot_68C-27854_W.tif
  2
NAME
  10
310874.610
  20
4479207.750
 40
34.62494
  0
SEQEND
  0
POLYLINE
  8
LC_OH_2021_05_O7
  70
1
  66
1
  0
VERTEX
  8
LC_OH_2021_05_O7
  10
310383.502
  20
4481437.000
  0
VERTEX
  8
LC_OH_2021_05_O7
  10
312027.002
  20
4481098.000
  0
VERTEX
  8
LC_OH_2021_05_O7
  10
311873.502
  20
4477240.000
  0
VERTEX
  8
LC_OH_2021_05_O7
  10
310800.002
  20
4476974.000
  0
VERTEX
  8
LC_OH_2021_05_O7
  10
310790.502
  20
4476975.500
  0
VERTEX
  8
LC_OH_2021_05_O7
  10
310473.002
  20
4477064.000
  0
VERTEX
  8
LC_OH_2021_05_O7
  10
309714.502
  20
4477322.000
  0
VERTEX
  8
LC_OH_2021_05_O7
  10
309886.502
  20
4481234.000
  0
VERTEX
  8
LC_OH_2021_05_O7
  10
310359.502
  20
4481441.500
  0
VERTEX
  8
LC_OH_2021_05_O7
  10
310382.002
  20
4481437.000
  0
VERTEX
  8
LC_OH_2021_05_O7
  10
310383.502
  20
4481437.000
  0
SEQEND
  8
LC_OH_2021_05_O7
  0
INSERT
  8
FeatureAttribs
  2
FEATURE
  41
1
  42
1
  43
1
  50
0
  10
308656.480
  20
4479270.999
 66
1
  0
ATTRIB
  8
FeatureAttribs
 70
0
  1
PNOA-H_AMS_1956-57_33k_ES_PAN_21mic_H50_0554_fot_68C-27855_W.tif
  2
NAME
  10
308656.480
  20
4479270.999
 40
34.62494
  0
SEQEND
  0
POLYLINE
  8
LC_OH_2021_05_O7
  70
1
  66
1
  0
VERTEX
  8
LC_OH_2021_05_O7
  10
308335.502
  20
4481389.500
  0
VERTEX
  8
LC_OH_2021_05_O7
  10
309886.502
  20
4481234.000
  0
VERTEX
  8
LC_OH_2021_05_O7
  10
309714.502
  20
4477322.000
  0
VERTEX
  8
LC_OH_2021_05_O7
  10
308450.502
  20
4477084.000
  0
VERTEX
  8
LC_OH_2021_05_O7
  10
307412.502
  20
4477411.500
  0
VERTEX
  8
LC_OH_2021_05_O7
  10
307630.002
  20
4481445.500
  0
VERTEX
  8
LC_OH_2021_05_O7
  10
307653.002
  20
4481458.000
  0
VERTEX
  8
LC_OH_2021_05_O7
  10
308332.502
  20
4481389.500
  0
VERTEX
  8
LC_OH_2021_05_O7
  10
308335.502
  20
4481389.500
  0
SEQEND
  8
LC_OH_2021_05_O7
  0
INSERT
  8
FeatureAttribs
  2
FEATURE
  41
1
  42
1
  43
1
  50
0
  10
297879.097
  20
4479779.999
 66
1
  0
ATTRIB
  8
FeatureAttribs
 70
0
  1
PNOA-H_AMS_1956-57_33k_ES_PAN_21mic_H50_0554_fot_68C-27860_W.tif
  2
NAME
  10
297879.097
  20
4479779.999
 40
34.62494
  0
SEQEND
  0
POLYLINE
  8
LC_OH_2021_05_O7
  70
1
  66
1
  0
VERTEX
  8
LC_OH_2021_05_O7
  10
298095.501
  20
4481811.000
  0
VERTEX
  8
LC_OH_2021_05_O7
  10
298481.501
  20
4481799.500
  0
VERTEX
  8
LC_OH_2021_05_O7
  10
298500.001
  20
4477771.000
  0
VERTEX
  8
LC_OH_2021_05_O7
  10
297300.001
  20
4477723.500
  0
VERTEX
  8
LC_OH_2021_05_O7
  10
297299.001
  20
4477723.500
  0
VERTEX
  8
LC_OH_2021_05_O7
  10
297298.501
  20
4477743.500
  0
VERTEX
  8
LC_OH_2021_05_O7
  10
297236.001
  20
4481836.500
  0
VERTEX
  8
LC_OH_2021_05_O7
  10
298088.001
  20
4481811.000
  0
VERTEX
  8
LC_OH_2021_05_O7
  10
298095.501
  20
4481811.000
  0
SEQEND
  8
LC_OH_2021_05_O7
  0
INSERT
  8
FeatureAttribs
  2
FEATURE
  41
1
  42
1
  43
1
  50
0
  10
306320.354
  20
4479335.999
 66
1
  0
ATTRIB
  8
FeatureAttribs
 70
0
  1
PNOA-H_AMS_1956-57_33k_ES_PAN_21mic_H50_0554_fot_68C-27856_W.tif
  2
NAME
  10
306320.354
  20
4479335.999
 40
34.62494
  0
SEQEND
  0
POLYLINE
  8
LC_OH_2021_05_O7
  70
1
  66
1
  0
VERTEX
  8
LC_OH_2021_05_O7
  10
306287.502
  20
4481454.500
  0
VERTEX
  8
LC_OH_2021_05_O7
  10
307621.502
  20
4481445.500
  0
VERTEX
  8
LC_OH_2021_05_O7
  10
307630.002
  20
4481445.000
  0
VERTEX
  8
LC_OH_2021_05_O7
  10
307630.002
  20
4481442.500
  0
VERTEX
  8
LC_OH_2021_05_O7
  10
307412.502
  20
4477411.500
  0
VERTEX
  8
LC_OH_2021_05_O7
  10
307049.002
  20
4477325.000
  0
VERTEX
  8
LC_OH_2021_05_O7
  10
306222.002
  20
4477210.000
  0
VERTEX
  8
LC_OH_2021_05_O7
  10
305031.501
  20
4477553.000
  0
VERTEX
  8
LC_OH_2021_05_O7
  10
305014.501
  20
4477558.000
  0
VERTEX
  8
LC_OH_2021_05_O7
  10
305013.501
  20
4477559.500
  0
VERTEX
  8
LC_OH_2021_05_O7
  10
305257.001
  20
4481462.000
  0
VERTEX
  8
LC_OH_2021_05_O7
  10
306270.002
  20
4481454.500
  0
VERTEX
  8
LC_OH_2021_05_O7
  10
306287.502
  20
4481454.500
  0
SEQEND
  8
LC_OH_2021_05_O7
  0
INSERT
  8
FeatureAttribs
  2
FEATURE
  41
1
  42
1
  43
1
  50
0
  10
303863.171
  20
4479486.999
 66
1
  0
ATTRIB
  8
FeatureAttribs
 70
0
  1
PNOA-H_AMS_1956-57_33k_ES_PAN_21mic_H50_0554_fot_68C-27857_W.tif
  2
NAME
  10
303863.171
  20
4479486.999
 40
34.62494
  0
SEQEND
  0
POLYLINE
  8
LC_OH_2021_05_O7
  70
1
  66
1
  0
VERTEX
  8
LC_OH_2021_05_O7
  10
304938.501
  20
4481663.000
  0
VERTEX
  8
LC_OH_2021_05_O7
  10
305257.001
  20
4481462.000
  0
VERTEX
  8
LC_OH_2021_05_O7
  10
305014.001
  20
4477559.500
  0
VERTEX
  8
LC_OH_2021_05_O7
  10
305013.001
  20
4477558.000
  0
VERTEX
  8
LC_OH_2021_05_O7
  10
305009.501
  20
4477557.000
  0
VERTEX
  8
LC_OH_2021_05_O7
  10
304143.501
  20
4477319.000
  0
VERTEX
  8
LC_OH_2021_05_O7
  10
304123.001
  20
4477313.500
  0
VERTEX
  8
LC_OH_2021_05_O7
  10
304104.001
  20
4477311.000
  0
VERTEX
  8
LC_OH_2021_05_O7
  10
302480.501
  20
4477721.500
  0
VERTEX
  8
LC_OH_2021_05_O7
  10
302720.001
  20
4481503.500
  0
VERTEX
  8
LC_OH_2021_05_O7
  10
304931.501
  20
4481662.500
  0
VERTEX
  8
LC_OH_2021_05_O7
  10
304938.501
  20
4481663.000
  0
SEQEND
  8
LC_OH_2021_05_O7
  0
INSERT
  8
FeatureAttribs
  2
FEATURE
  41
1
  42
1
  43
1
  50
0
  10
296156.565
  20
4479835.249
 66
1
  0
ATTRIB
  8
FeatureAttribs
 70
0
  1
PNOA-H_AMS_1956-57_33k_ES_PAN_21mic_H50_0554_fot_68C-27861_W.tif
  2
NAME
  10
296156.565
  20
4479835.249
 40
34.62494
  0
SEQEND
  0
POLYLINE
  8
LC_OH_2021_05_O7
  70
1
  66
1
  0
VERTEX
  8
LC_OH_2021_05_O7
  10
297085.001
  20
4477630.500
  0
VERTEX
  8
LC_OH_2021_05_O7
  10
297065.501
  20
4477621.500
  0
VERTEX
  8
LC_OH_2021_05_O7
  10
297060.001
  20
4477622.000
  0
VERTEX
  8
LC_OH_2021_05_O7
  10
295048.001
  20
4477987.000
  0
VERTEX
  8
LC_OH_2021_05_O7
  10
295045.001
  20
4481602.500
  0
VERTEX
  8
LC_OH_2021_05_O7
  10
296764.501
  20
4482049.000
  0
VERTEX
  8
LC_OH_2021_05_O7
  10
296778.001
  20
4482044.000
  0
VERTEX
  8
LC_OH_2021_05_O7
  10
297236.001
  20
4481836.500
  0
VERTEX
  8
LC_OH_2021_05_O7
  10
297299.001
  20
4477723.500
  0
VERTEX
  8
LC_OH_2021_05_O7
  10
297086.001
  20
4477630.500
  0
VERTEX
  8
LC_OH_2021_05_O7
  10
297085.001
  20
4477630.500
  0
SEQEND
  8
LC_OH_2021_05_O7
  0
INSERT
  8
FeatureAttribs
  2
FEATURE
  41
1
  42
1
  43
1
  50
0
  10
288304.951
  20
4479707.501
 66
1
  0
ATTRIB
  8
FeatureAttribs
 70
0
  1
PNOA-H_AMS_1956-57_33k_ES_PAN_21mic_H50_0554_fot_68C-27864_W.tif
  2
NAME
  10
288304.951
  20
4479707.501
 40
34.62494
  0
SEQEND
  0
POLYLINE
  8
LC_OH_2021_05_O7
  70
1
  66
1
  0
VERTEX
  8
LC_OH_2021_05_O7
  10
286949.501
  20
4481668.000
  0
VERTEX
  8
LC_OH_2021_05_O7
  10
287071.001
  20
4481749.000
  0
VERTEX
  8
LC_OH_2021_05_O7
  10
287072.501
  20
4481749.000
  0
VERTEX
  8
LC_OH_2021_05_O7
  10
289654.001
  20
4481599.500
  0
VERTEX
  8
LC_OH_2021_05_O7
  10
289661.001
  20
4481599.000
  0
VERTEX
  8
LC_OH_2021_05_O7
  10
289668.501
  20
4481596.000
  0
VERTEX
  8
LC_OH_2021_05_O7
  10
289667.501
  20
4479759.500
  0
VERTEX
  8
LC_OH_2021_05_O7
  10
289667.501
  20
4479678.500
  0
VERTEX
  8
LC_OH_2021_05_O7
  10
289667.001
  20
4477898.000
  0
VERTEX
  8
LC_OH_2021_05_O7
  10
289228.001
  20
4477666.000
  0
VERTEX
  8
LC_OH_2021_05_O7
  10
286935.501
  20
4477807.500
  0
SEQEND
  8
LC_OH_2021_05_O7
  0
INSERT
  8
FeatureAttribs
  2
FEATURE
  41
1
  42
1
  43
1
  50
0
  10
301339.033
  20
4479665.500
 66
1
  0
ATTRIB
  8
FeatureAttribs
 70
0
  1
PNOA-H_AMS_1956-57_33k_ES_PAN_21mic_H50_0554_fot_68C-27858_W.tif
  2
NAME
  10
301339.033
  20
4479665.500
 40
34.62494
  0
SEQEND
  0
POLYLINE
  8
LC_OH_2021_05_O7
  70
1
  66
1
  0
VERTEX
  8
LC_OH_2021_05_O7
  10
302604.501
  20
4479678.500
  0
VERTEX
  8
LC_OH_2021_05_O7
  10
302480.501
  20
4477721.000
  0
VERTEX
  8
LC_OH_2021_05_O7
  10
301887.501
  20
4477506.500
  0
VERTEX
  8
LC_OH_2021_05_O7
  10
301869.501
  20
4477501.000
  0
VERTEX
  8
LC_OH_2021_05_O7
  10
299998.501
  20
4477799.000
  0
VERTEX
  8
LC_OH_2021_05_O7
  10
300154.001
  20
4481623.500
  0
VERTEX
  8
LC_OH_2021_05_O7
  10
302198.501
  20
4481830.000
  0
VERTEX
  8
LC_OH_2021_05_O7
  10
302719.001
  20
4481504.500
  0
VERTEX
  8
LC_OH_2021_05_O7
  10
302720.001
  20
4481503.500
  0
VERTEX
  8
LC_OH_2021_05_O7
  10
302720.001
  20
4481500.000
  0
VERTEX
  8
LC_OH_2021_05_O7
  10
302718.001
  20
4481468.000
  0
VERTEX
  8
LC_OH_2021_05_O7
  10
302604.501
  20
4479682.500
  0
VERTEX
  8
LC_OH_2021_05_O7
  10
302604.501
  20
4479678.500
  0
SEQEND
  8
LC_OH_2021_05_O7
  0
INSERT
  8
FeatureAttribs
  2
FEATURE
  41
1
  42
1
  43
1
  50
0
  10
293696.824
  20
4479845.000
 66
1
  0
ATTRIB
  8
FeatureAttribs
 70
0
  1
PNOA-H_AMS_1956-57_33k_ES_PAN_21mic_H50_0554_fot_68C-27862_W.tif
  2
NAME
  10
293696.824
  20
4479845.000
 40
34.62494
  0
SEQEND
  0
POLYLINE
  8
LC_OH_2021_05_O7
  70
1
  66
1
  0
VERTEX
  8
LC_OH_2021_05_O7
  10
294005.001
  20
4482057.500
  0
VERTEX
  8
LC_OH_2021_05_O7
  10
295045.001
  20
4481602.500
  0
VERTEX
  8
LC_OH_2021_05_O7
  10
295048.001
  20
4477986.500
  0
VERTEX
  8
LC_OH_2021_05_O7
  10
294343.001
  20
4477632.500
  0
VERTEX
  8
LC_OH_2021_05_O7
  10
292339.501
  20
4477947.000
  0
VERTEX
  8
LC_OH_2021_05_O7
  10
292354.501
  20
4481644.500
  0
VERTEX
  8
LC_OH_2021_05_O7
  10
294003.001
  20
4482057.000
  0
VERTEX
  8
LC_OH_2021_05_O7
  10
294005.001
  20
4482057.500
  0
SEQEND
  8
LC_OH_2021_05_O7
  0
INSERT
  8
FeatureAttribs
  2
FEATURE
  41
1
  42
1
  43
1
  50
0
  10
291007.526
  20
4479858.251
 66
1
  0
ATTRIB
  8
FeatureAttribs
 70
0
  1
PNOA-H_AMS_1956-57_33k_ES_PAN_21mic_H50_0554_fot_68C-27863_W.tif
  2
NAME
  10
291007.526
  20
4479858.251
 40
34.62494
  0
SEQEND
  0
POLYLINE
  8
LC_OH_2021_05_O7
  70
1
  66
1
  0
VERTEX
  8
LC_OH_2021_05_O7
  10
289902.501
  20
4481666.000
  0
VERTEX
  8
LC_OH_2021_05_O7
  10
291277.501
  20
4482077.500
  0
VERTEX
  8
LC_OH_2021_05_O7
  10
292354.501
  20
4481644.500
  0
VERTEX
  8
LC_OH_2021_05_O7
  10
292339.501
  20
4477946.500
  0
VERTEX
  8
LC_OH_2021_05_O7
  10
291702.001
  20
4477639.000
  0
VERTEX
  8
LC_OH_2021_05_O7
  10
289667.001
  20
4477898.000
  0
VERTEX
  8
LC_OH_2021_05_O7
  10
289668.501
  20
4481596.000
  0
VERTEX
  8
LC_OH_2021_05_O7
  10
289900.501
  20
4481665.500
  0
VERTEX
  8
LC_OH_2021_05_O7
  10
289902.501
  20
4481666.000
  0
SEQEND
  8
LC_OH_2021_05_O7
  0
INSERT
  8
FeatureAttribs
  2
FEATURE
  41
1
  42
1
  43
1
  50
0
  10
314317.414
  20
4479091.520
 66
1
  0
ATTRIB
  8
FeatureAttribs
 70
0
  1
PNOA-H_AMS_1956-57_33k_ES_PAN_21mic_H50_0555_fot_68C-27852_W.tif
  2
NAME
  10
314317.414
  20
4479091.520
 40
34.62494
  0
SEQEND
  0
POLYLINE
  8
LC_OH_2021_05_O7
  70
1
  66
1
  0
VERTEX
  8
LC_OH_2021_05_O7
  10
314428.384
  20
4477115.088
  0
VERTEX
  8
LC_OH_2021_05_O7
  10
314108.502
  20
4477186.000
  0
VERTEX
  8
LC_OH_2021_05_O7
  10
314167.002
  20
4480989.000
  0
VERTEX
  8
LC_OH_2021_05_O7
  10
314526.326
  20
4481067.951
  0
VERTEX
  8
LC_OH_2021_05_O7
  10
314522.853
  20
4480927.887
  0
VERTEX
  8
LC_OH_2021_05_O7
  10
314465.541
  20
4478615.141
  0
SEQEND
  8
LC_OH_2021_05_O7
  0
INSERT
  8
FeatureAttribs
  2
FEATURE
  41
1
  42
1
  43
1
  50
0
  10
288208.154
  20
4467985.761
 66
1
  0
ATTRIB
  8
FeatureAttribs
 70
0
  1
PNOA-H_AMS_1956-57_33k_ES_PAN_21mic_H50_0577_fot_71C-29346_E.tif
  2
NAME
  10
288208.154
  20
4467985.761
 40
34.62494
  0
SEQEND
  0
POLYLINE
  8
LC_OH_2021_05_O7
  70
1
  66
1
  0
VERTEX
  8
LC_OH_2021_05_O7
  10
288373.910
  20
4467734.021
  0
VERTEX
  8
LC_OH_2021_05_O7
  10
288042.398
  20
4467743.389
  0
VERTEX
  8
LC_OH_2021_05_O7
  10
288123.501
  20
4468234.500
  0
VERTEX
  8
LC_OH_2021_05_O7
  10
288123.501
  20
4468237.500
  0
VERTEX
  8
LC_OH_2021_05_O7
  10
288138.001
  20
4468210.000
  0
SEQEND
  8
LC_OH_2021_05_O7
  0
INSERT
  8
FeatureAttribs
  2
FEATURE
  41
1
  42
1
  43
1
  50
0
  10
285964.564
  20
4468141.090
 66
1
  0
ATTRIB
  8
FeatureAttribs
 70
0
  1
PNOA-H_AMS_1956-57_33k_ES_PAN_21mic_H50_0577_fot_71C-29345_E.tif
  2
NAME
  10
285964.564
  20
4468141.090
 40
34.62494
  0
SEQEND
  0
POLYLINE
  8
LC_OH_2021_05_O7
  70
1
  66
1
  0
VERTEX
  8
LC_OH_2021_05_O7
  10
286068.105
  20
4467799.181
  0
VERTEX
  8
LC_OH_2021_05_O7
  10
285861.023
  20
4467805.033
  0
VERTEX
  8
LC_OH_2021_05_O7
  10
285880.342
  20
4468482.862
  0
VERTEX
  8
LC_OH_2021_05_O7
  10
285882.001
  20
4468483.000
  0
VERTEX
  8
LC_OH_2021_05_O7
  10
285883.501
  20
4468483.000
  0
VERTEX
  8
LC_OH_2021_05_O7
  10
285884.501
  20
4468479.500
  0
SEQEND
  8
LC_OH_2021_05_O7
  0
INSERT
  8
FeatureAttribs
  2
FEATURE
  41
1
  42
1
  43
1
  50
0
  10
290630.114
  20
4467681.520
 66
1
  0
ATTRIB
  8
FeatureAttribs
 70
0
  1
PNOA-H_AMS_1956-57_33k_ES_PAN_21mic_H50_0577_fot_71C-29347_E.tif
  2
NAME
  10
290630.114
  20
4467681.520
 40
34.62494
  0
SEQEND
  0
POLYLINE
  8
LC_OH_2021_05_O7
  70
1
  66
1
  0
VERTEX
  8
LC_OH_2021_05_O7
  10
290640.986
  20
4467670.541
  0
VERTEX
  8
LC_OH_2021_05_O7
  10
290619.243
  20
4467671.145
  0
VERTEX
  8
LC_OH_2021_05_O7
  10
290623.501
  20
4467692.500
  0
SEQEND
  8
LC_OH_2021_05_O7
  0
INSERT
  8
FeatureAttribs
  2
FEATURE
  41
1
  42
1
  43
1
  50
0
  10
308639.752
  20
4467849.804
 66
1
  0
ATTRIB
  8
FeatureAttribs
 70
0
  1
PNOA-H_AMS_1956-57_33k_ES_PAN_21mic_H50_0577_fot_71C-29354_E.tif
  2
NAME
  10
308639.752
  20
4467849.804
 40
34.62494
  0
SEQEND
  0
POLYLINE
  8
LC_OH_2021_05_O7
  70
1
  66
1
  0
VERTEX
  8
LC_OH_2021_05_O7
  10
309705.972
  20
4467163.609
  0
VERTEX
  8
LC_OH_2021_05_O7
  10
307834.753
  20
4467211.194
  0
VERTEX
  8
LC_OH_2021_05_O7
  10
307502.502
  20
4467692.500
  0
VERTEX
  8
LC_OH_2021_05_O7
  10
307511.002
  20
4468403.000
  0
VERTEX
  8
LC_OH_2021_05_O7
  10
308321.502
  20
4468460.000
  0
VERTEX
  8
LC_OH_2021_05_O7
  10
308328.502
  20
4468460.500
  0
VERTEX
  8
LC_OH_2021_05_O7
  10
309407.002
  20
4468536.000
  0
VERTEX
  8
LC_OH_2021_05_O7
  10
309777.002
  20
4468336.500
  0
VERTEX
  8
LC_OH_2021_05_O7
  10
309771.502
  20
4467582.000
  0
SEQEND
  8
LC_OH_2021_05_O7
  0
INSERT
  8
FeatureAttribs
  2
FEATURE
  41
1
  42
1
  43
1
  50
0
  10
310953.252
  20
4467790.965
 66
1
  0
ATTRIB
  8
FeatureAttribs
 70
0
  1
PNOA-H_AMS_1956-57_33k_ES_PAN_21mic_H50_0577_fot_71C-29355_E.tif
  2
NAME
  10
310953.252
  20
4467790.965
 40
34.62494
  0
SEQEND
  0
POLYLINE
  8
LC_OH_2021_05_O7
  70
1
  66
1
  0
VERTEX
  8
LC_OH_2021_05_O7
  10
312119.486
  20
4467102.931
  0
VERTEX
  8
LC_OH_2021_05_O7
  10
310639.618
  20
4467139.866
  0
VERTEX
  8
LC_OH_2021_05_O7
  10
310100.654
  20
4467153.572
  0
VERTEX
  8
LC_OH_2021_05_O7
  10
309771.502
  20
4467582.000
  0
VERTEX
  8
LC_OH_2021_05_O7
  10
309777.002
  20
4468336.000
  0
VERTEX
  8
LC_OH_2021_05_O7
  10
310373.002
  20
4468377.500
  0
VERTEX
  8
LC_OH_2021_05_O7
  10
310380.502
  20
4468378.000
  0
VERTEX
  8
LC_OH_2021_05_O7
  10
311845.502
  20
4468479.000
  0
VERTEX
  8
LC_OH_2021_05_O7
  10
312135.002
  20
4468310.000
  0
VERTEX
  8
LC_OH_2021_05_O7
  10
312132.502
  20
4467158.000
  0
SEQEND
  8
LC_OH_2021_05_O7
  0
INSERT
  8
FeatureAttribs
  2
FEATURE
  41
1
  42
1
  43
1
  50
0
  10
313172.283
  20
4467713.015
 66
1
  0
ATTRIB
  8
FeatureAttribs
 70
0
  1
PNOA-H_AMS_1956-57_33k_ES_PAN_21mic_H50_0577_fot_71C-29356_E.tif
  2
NAME
  10
313172.283
  20
4467713.015
 40
34.62494
  0
SEQEND
  0
POLYLINE
  8
LC_OH_2021_05_O7
  70
1
  66
1
  0
VERTEX
  8
LC_OH_2021_05_O7
  10
314212.064
  20
4468374.510
  0
VERTEX
  8
LC_OH_2021_05_O7
  10
314179.349
  20
4467051.520
  0
VERTEX
  8
LC_OH_2021_05_O7
  10
312190.918
  20
4467101.148
  0
VERTEX
  8
LC_OH_2021_05_O7
  10
312132.502
  20
4467159.500
  0
VERTEX
  8
LC_OH_2021_05_O7
  10
312135.002
  20
4468309.500
  0
SEQEND
  8
LC_OH_2021_05_O7
  0
INSERT
  8
FeatureAttribs
  2
FEATURE
  41
1
  42
1
  43
1
  50
0
  10
306653.752
  20
4467937.783
 66
1
  0
ATTRIB
  8
FeatureAttribs
 70
0
  1
PNOA-H_AMS_1956-57_33k_ES_PAN_21mic_H50_0577_fot_71C-29353_E.tif
  2
NAME
  10
306653.752
  20
4467937.783
 40
34.62494
  0
SEQEND
  0
POLYLINE
  8
LC_OH_2021_05_O7
  70
1
  66
1
  0
VERTEX
  8
LC_OH_2021_05_O7
  10
307446.542
  20
4467221.066
  0
VERTEX
  8
LC_OH_2021_05_O7
  10
307099.870
  20
4467229.882
  0
VERTEX
  8
LC_OH_2021_05_O7
  10
306044.391
  20
4467257.220
  0
VERTEX
  8
LC_OH_2021_05_O7
  10
305796.502
  20
4468476.000
  0
VERTEX
  8
LC_OH_2021_05_O7
  10
305797.502
  20
4468478.000
  0
VERTEX
  8
LC_OH_2021_05_O7
  10
306281.502
  20
4468550.500
  0
VERTEX
  8
LC_OH_2021_05_O7
  10
306284.502
  20
4468551.000
  0
VERTEX
  8
LC_OH_2021_05_O7
  10
306976.002
  20
4468654.500
  0
VERTEX
  8
LC_OH_2021_05_O7
  10
307511.002
  20
4468403.000
  0
VERTEX
  8
LC_OH_2021_05_O7
  10
307502.502
  20
4467689.500
  0
SEQEND
  8
LC_OH_2021_05_O7
  0
INSERT
  8
FeatureAttribs
  2
FEATURE
  41
1
  42
1
  43
1
  50
0
  10
302374.176
  20
4467787.454
 66
1
  0
ATTRIB
  8
FeatureAttribs
 70
0
  1
PNOA-H_AMS_1956-57_33k_ES_PAN_21mic_H50_0577_fot_71C-29351_E.tif
  2
NAME
  10
302374.176
  20
4467787.454
 40
34.62494
  0
SEQEND
  0
POLYLINE
  8
LC_OH_2021_05_O7
  70
1
  66
1
  0
VERTEX
  8
LC_OH_2021_05_O7
  10
302675.022
  20
4467344.909
  0
VERTEX
  8
LC_OH_2021_05_O7
  10
302073.330
  20
4467360.777
  0
VERTEX
  8
LC_OH_2021_05_O7
  10
302647.501
  20
4468229.000
  0
VERTEX
  8
LC_OH_2021_05_O7
  10
302647.501
  20
4468230.000
  0
SEQEND
  8
LC_OH_2021_05_O7
  0
INSERT
  8
FeatureAttribs
  2
FEATURE
  41
1
  42
1
  43
1
  50
0
  10
304548.155
  20
4467981.332
 66
1
  0
ATTRIB
  8
FeatureAttribs
 70
0
  1
PNOA-H_AMS_1956-57_33k_ES_PAN_21mic_H50_0577_fot_71C-29352_E.tif
  2
NAME
  10
304548.155
  20
4467981.332
 40
34.62494
  0
SEQEND
  0
POLYLINE
  8
LC_OH_2021_05_O7
  70
1
  66
1
  0
VERTEX
  8
LC_OH_2021_05_O7
  10
305042.740
  20
4467283.165
  0
VERTEX
  8
LC_OH_2021_05_O7
  10
304011.309
  20
4467309.880
  0
VERTEX
  8
LC_OH_2021_05_O7
  10
304260.501
  20
4468630.500
  0
VERTEX
  8
LC_OH_2021_05_O7
  10
304261.001
  20
4468632.000
  0
VERTEX
  8
LC_OH_2021_05_O7
  10
304268.001
  20
4468633.500
  0
VERTEX
  8
LC_OH_2021_05_O7
  10
304533.501
  20
4468679.000
  0
VERTEX
  8
LC_OH_2021_05_O7
  10
304536.501
  20
4468679.500
  0
VERTEX
  8
LC_OH_2021_05_O7
  10
305085.001
  20
4468440.500
  0
SEQEND
  8
LC_OH_2021_05_O7
  0
INSERT
  8
FeatureAttribs
  2
FEATURE
  41
1
  42
1
  43
1
  50
0
  10
313779.508
  20
4485556.000
 66
1
  0
ATTRIB
  8
FeatureAttribs
 70
0
  1
PNOA-H_AMS_1956-57_33k_ES_PAN_21mic_H50_0530_fot_000-51032_R.tif
  2
NAME
  10
313779.508
  20
4485556.000
 40
34.62494
  0
SEQEND
  0
POLYLINE
  8
LC_OH_2021_05_O7
  70
1
  66
1
  0
VERTEX
  8
LC_OH_2021_05_O7
  10
314612.945
  20
4484561.271
  0
VERTEX
  8
LC_OH_2021_05_O7
  10
313097.002
  20
4484135.000
  0
VERTEX
  8
LC_OH_2021_05_O7
  10
313095.502
  20
4484135.000
  0
VERTEX
  8
LC_OH_2021_05_O7
  10
313090.002
  20
4484139.500
  0
VERTEX
  8
LC_OH_2021_05_O7
  10
312582.002
  20
4484558.000
  0
VERTEX
  8
LC_OH_2021_05_O7
  10
312562.040
  20
4485605.379
  0
VERTEX
  8
LC_OH_2021_05_O7
  10
314637.552
  20
4485553.400
  0
SEQEND
  8
LC_OH_2021_05_O7
  0
INSERT
  8
FeatureAttribs
  2
FEATURE
  41
1
  42
1
  43
1
  50
0
  10
310832.483
  20
4484986.983
 66
1
  0
ATTRIB
  8
FeatureAttribs
 70
0
  1
PNOA-H_AMS_1956-57_33k_ES_PAN_21mic_H50_0530_fot_000-51031_R.tif
  2
NAME
  10
310832.483
  20
4484986.983
 40
34.62494
  0
SEQEND
  0
POLYLINE
  8
LC_OH_2021_05_O7
  70
1
  66
1
  0
VERTEX
  8
LC_OH_2021_05_O7
  10
312562.227
  20
4485605.374
  0
VERTEX
  8
LC_OH_2021_05_O7
  10
312582.002
  20
4484558.000
  0
VERTEX
  8
LC_OH_2021_05_O7
  10
310448.002
  20
4484280.500
  0
VERTEX
  8
LC_OH_2021_05_O7
  10
309082.964
  20
4485693.466
  0
VERTEX
  8
LC_OH_2021_05_O7
  10
311106.559
  20
4485641.830
  0
SEQEND
  8
LC_OH_2021_05_O7
  0
ENDSEC
  0
EOF
