  0
SECTION
  2
HEADER
  9
$ACADVER
  1
AC1009
  9
$LUNITS
  70
2
  9
$LIMMIN
  10
257541.511
  20
4467805.033
  9
$LIMMAX
  10
286389.152
  20
4487168.824
  9
$EXTMIN
  10
257541.511
  20
4467805.033
  9
$EXTMAX
  10
286389.152
  20
4487168.824
  999
Created by Global Mapper
  999
Projection: UTM
  999
Datum: ETRS89
  999
Ground Units: meters
  999
ZONE: 30
  0
ENDSEC
  0
SECTION
  2
TABLES
  0
ENDSEC
  0
SECTION
  2
BLOCKS
  0
BLOCK
  8
FeatureAttribs
  70
0
  2
FEATURE
  3
FEATURE
  10
0.00000000
  20
0.00000000
  0
ATTDEF
  8
FeatureAttribs
  70
0
  1
 
  2
NAME
  3
NAME
  10
0.00000000
  20
0.00000000
  40
1.00000000
  0
ENDBLK
  0
ENDSEC
  0
SECTION
  2
ENTITIES
  0
INSERT
  8
FeatureAttribs
  2
FEATURE
  41
1
  42
1
  43
1
  50
0
  10
257838.006
  20
4468925.741
 66
1
  0
ATTRIB
  8
FeatureAttribs
 70
0
  1
PNOA-H_AMS_1956-57_33k_ES_PAN_21mic_H50_0575_fot_71B-22055_W.tif
  2
NAME
  10
257838.006
  20
4468925.741
 40
34.74396
  0
SEQEND
  0
POLYLINE
  8
LC_OH_2021_05_O7
  70
1
  66
1
  0
VERTEX
  8
LC_OH_2021_05_O7
  10
258117.179
  20
4468646.981
  0
VERTEX
  8
LC_OH_2021_05_O7
  10
257541.511
  20
4468665.422
  0
VERTEX
  8
LC_OH_2021_05_O7
  10
257558.724
  20
4469198.722
  0
VERTEX
  8
LC_OH_2021_05_O7
  10
257599.000
  20
4469204.000
  0
VERTEX
  8
LC_OH_2021_05_O7
  10
257603.000
  20
4469204.500
  0
VERTEX
  8
LC_OH_2021_05_O7
  10
257606.500
  20
4469204.500
  0
VERTEX
  8
LC_OH_2021_05_O7
  10
257610.000
  20
4469202.500
  0
VERTEX
  8
LC_OH_2021_05_O7
  10
258134.500
  20
4468867.000
  0
SEQEND
  8
LC_OH_2021_05_O7
  0
INSERT
  8
FeatureAttribs
  2
FEATURE
  41
1
  42
1
  43
1
  50
0
  10
284523.501
  20
4468287.573
 66
1
  0
ATTRIB
  8
FeatureAttribs
 70
0
  1
PNOA-H_AMS_1956-57_33k_ES_PAN_21mic_H50_0576_fot_71B-22044_W.tif
  2
NAME
  10
284523.501
  20
4468287.573
 40
34.74396
  0
SEQEND
  0
POLYLINE
  8
LC_OH_2021_05_O7
  70
1
  66
1
  0
VERTEX
  8
LC_OH_2021_05_O7
  10
285334.983
  20
4467820.146
  0
VERTEX
  8
LC_OH_2021_05_O7
  10
283732.908
  20
4467866.175
  0
VERTEX
  8
LC_OH_2021_05_O7
  10
283648.001
  20
4468553.000
  0
VERTEX
  8
LC_OH_2021_05_O7
  10
283648.001
  20
4468557.500
  0
VERTEX
  8
LC_OH_2021_05_O7
  10
283757.001
  20
4468597.500
  0
VERTEX
  8
LC_OH_2021_05_O7
  10
283758.501
  20
4468598.000
  0
VERTEX
  8
LC_OH_2021_05_O7
  10
284187.001
  20
4468755.000
  0
VERTEX
  8
LC_OH_2021_05_O7
  10
285399.001
  20
4468444.500
  0
SEQEND
  8
LC_OH_2021_05_O7
  0
INSERT
  8
FeatureAttribs
  2
FEATURE
  41
1
  42
1
  43
1
  50
0
  10
281550.276
  20
4468291.314
 66
1
  0
ATTRIB
  8
FeatureAttribs
 70
0
  1
PNOA-H_AMS_1956-57_33k_ES_PAN_21mic_H50_0576_fot_71B-22045_W.tif
  2
NAME
  10
281550.276
  20
4468291.314
 40
34.74396
  0
SEQEND
  0
POLYLINE
  8
LC_OH_2021_05_O7
  70
1
  66
1
  0
VERTEX
  8
LC_OH_2021_05_O7
  10
282655.539
  20
4467897.128
  0
VERTEX
  8
LC_OH_2021_05_O7
  10
282321.152
  20
4467906.735
  0
VERTEX
  8
LC_OH_2021_05_O7
  10
280424.052
  20
4467962.135
  0
VERTEX
  8
LC_OH_2021_05_O7
  10
280427.001
  20
4468316.000
  0
VERTEX
  8
LC_OH_2021_05_O7
  10
281562.501
  20
4468685.500
  0
VERTEX
  8
LC_OH_2021_05_O7
  10
281710.001
  20
4468650.500
  0
VERTEX
  8
LC_OH_2021_05_O7
  10
281711.501
  20
4468650.500
  0
VERTEX
  8
LC_OH_2021_05_O7
  10
282676.501
  20
4468422.500
  0
SEQEND
  8
LC_OH_2021_05_O7
  0
INSERT
  8
FeatureAttribs
  2
FEATURE
  41
1
  42
1
  43
1
  50
0
  10
279099.137
  20
4468324.817
 66
1
  0
ATTRIB
  8
FeatureAttribs
 70
0
  1
PNOA-H_AMS_1956-57_33k_ES_PAN_21mic_H50_0576_fot_71B-22046_W.tif
  2
NAME
  10
279099.137
  20
4468324.817
 40
34.74396
  0
SEQEND
  0
POLYLINE
  8
LC_OH_2021_05_O7
  70
1
  66
1
  0
VERTEX
  8
LC_OH_2021_05_O7
  10
280424.052
  20
4467962.135
  0
VERTEX
  8
LC_OH_2021_05_O7
  10
278781.262
  20
4468010.108
  0
VERTEX
  8
LC_OH_2021_05_O7
  10
277771.274
  20
4468040.078
  0
VERTEX
  8
LC_OH_2021_05_O7
  10
277774.001
  20
4468320.000
  0
VERTEX
  8
LC_OH_2021_05_O7
  10
279075.501
  20
4468687.500
  0
VERTEX
  8
LC_OH_2021_05_O7
  10
279078.501
  20
4468687.500
  0
VERTEX
  8
LC_OH_2021_05_O7
  10
279661.501
  20
4468526.500
  0
VERTEX
  8
LC_OH_2021_05_O7
  10
279663.501
  20
4468526.000
  0
VERTEX
  8
LC_OH_2021_05_O7
  10
280427.001
  20
4468316.000
  0
SEQEND
  8
LC_OH_2021_05_O7
  0
INSERT
  8
FeatureAttribs
  2
FEATURE
  41
1
  42
1
  43
1
  50
0
  10
273997.991
  20
4468423.314
 66
1
  0
ATTRIB
  8
FeatureAttribs
 70
0
  1
PNOA-H_AMS_1956-57_33k_ES_PAN_21mic_H50_0576_fot_71B-22048_W.tif
  2
NAME
  10
273997.991
  20
4468423.314
 40
34.74396
  0
SEQEND
  0
POLYLINE
  8
LC_OH_2021_05_O7
  70
1
  66
1
  0
VERTEX
  8
LC_OH_2021_05_O7
  10
275258.964
  20
4468114.628
  0
VERTEX
  8
LC_OH_2021_05_O7
  10
275241.353
  20
4468115.150
  0
VERTEX
  8
LC_OH_2021_05_O7
  10
272725.481
  20
4468190.993
  0
VERTEX
  8
LC_OH_2021_05_O7
  10
272728.001
  20
4468428.500
  0
VERTEX
  8
LC_OH_2021_05_O7
  10
274376.001
  20
4468731.500
  0
VERTEX
  8
LC_OH_2021_05_O7
  10
274378.501
  20
4468732.000
  0
VERTEX
  8
LC_OH_2021_05_O7
  10
274382.501
  20
4468732.000
  0
VERTEX
  8
LC_OH_2021_05_O7
  10
274397.501
  20
4468726.000
  0
VERTEX
  8
LC_OH_2021_05_O7
  10
275270.501
  20
4468374.000
  0
SEQEND
  8
LC_OH_2021_05_O7
  0
INSERT
  8
FeatureAttribs
  2
FEATURE
  41
1
  42
1
  43
1
  50
0
  10
276516.346
  20
4468341.039
 66
1
  0
ATTRIB
  8
FeatureAttribs
 70
0
  1
PNOA-H_AMS_1956-57_33k_ES_PAN_21mic_H50_0576_fot_71B-22047_W.tif
  2
NAME
  10
276516.346
  20
4468341.039
 40
34.74396
  0
SEQEND
  0
POLYLINE
  8
LC_OH_2021_05_O7
  70
1
  66
1
  0
VERTEX
  8
LC_OH_2021_05_O7
  10
277771.274
  20
4468040.078
  0
VERTEX
  8
LC_OH_2021_05_O7
  10
275258.691
  20
4468114.636
  0
VERTEX
  8
LC_OH_2021_05_O7
  10
275270.001
  20
4468370.000
  0
VERTEX
  8
LC_OH_2021_05_O7
  10
275270.501
  20
4468374.000
  0
VERTEX
  8
LC_OH_2021_05_O7
  10
275273.001
  20
4468374.500
  0
VERTEX
  8
LC_OH_2021_05_O7
  10
275564.001
  20
4468427.000
  0
VERTEX
  8
LC_OH_2021_05_O7
  10
275567.001
  20
4468427.500
  0
VERTEX
  8
LC_OH_2021_05_O7
  10
276760.001
  20
4468642.000
  0
VERTEX
  8
LC_OH_2021_05_O7
  10
277774.001
  20
4468320.000
  0
SEQEND
  8
LC_OH_2021_05_O7
  0
INSERT
  8
FeatureAttribs
  2
FEATURE
  41
1
  42
1
  43
1
  50
0
  10
259454.090
  20
4468771.809
 66
1
  0
ATTRIB
  8
FeatureAttribs
 70
0
  1
PNOA-H_AMS_1956-57_33k_ES_PAN_21mic_H50_0576_fot_71B-22054_W.tif
  2
NAME
  10
259454.090
  20
4468771.809
 40
34.74396
  0
SEQEND
  0
POLYLINE
  8
LC_OH_2021_05_O7
  70
1
  66
1
  0
VERTEX
  8
LC_OH_2021_05_O7
  10
260782.084
  20
4468561.618
  0
VERTEX
  8
LC_OH_2021_05_O7
  10
258117.181
  20
4468646.981
  0
VERTEX
  8
LC_OH_2021_05_O7
  10
258134.500
  20
4468867.000
  0
VERTEX
  8
LC_OH_2021_05_O7
  10
260280.000
  20
4468981.500
  0
VERTEX
  8
LC_OH_2021_05_O7
  10
260289.500
  20
4468982.000
  0
VERTEX
  8
LC_OH_2021_05_O7
  10
260292.000
  20
4468982.000
  0
VERTEX
  8
LC_OH_2021_05_O7
  10
260298.500
  20
4468978.000
  0
VERTEX
  8
LC_OH_2021_05_O7
  10
260791.000
  20
4468672.500
  0
SEQEND
  8
LC_OH_2021_05_O7
  0
INSERT
  8
FeatureAttribs
  2
FEATURE
  41
1
  42
1
  43
1
  50
0
  10
262048.069
  20
4468652.890
 66
1
  0
ATTRIB
  8
FeatureAttribs
 70
0
  1
PNOA-H_AMS_1956-57_33k_ES_PAN_21mic_H50_0576_fot_71B-22053_W.tif
  2
NAME
  10
262048.069
  20
4468652.890
 40
34.74396
  0
SEQEND
  0
POLYLINE
  8
LC_OH_2021_05_O7
  70
1
  66
1
  0
VERTEX
  8
LC_OH_2021_05_O7
  10
263307.278
  20
4468481.779
  0
VERTEX
  8
LC_OH_2021_05_O7
  10
261081.520
  20
4468552.026
  0
VERTEX
  8
LC_OH_2021_05_O7
  10
260781.638
  20
4468561.632
  0
VERTEX
  8
LC_OH_2021_05_O7
  10
260790.500
  20
4468672.000
  0
VERTEX
  8
LC_OH_2021_05_O7
  10
262980.500
  20
4468824.000
  0
VERTEX
  8
LC_OH_2021_05_O7
  10
263278.000
  20
4468644.500
  0
VERTEX
  8
LC_OH_2021_05_O7
  10
263279.500
  20
4468644.000
  0
VERTEX
  8
LC_OH_2021_05_O7
  10
263314.000
  20
4468623.500
  0
VERTEX
  8
LC_OH_2021_05_O7
  10
263314.500
  20
4468616.000
  0
SEQEND
  8
LC_OH_2021_05_O7
  0
INSERT
  8
FeatureAttribs
  2
FEATURE
  41
1
  42
1
  43
1
  50
0
  10
264510.208
  20
4468532.268
 66
1
  0
ATTRIB
  8
FeatureAttribs
 70
0
  1
PNOA-H_AMS_1956-57_33k_ES_PAN_21mic_H50_0576_fot_71B-22052_W.tif
  2
NAME
  10
264510.208
  20
4468532.268
 40
34.74396
  0
SEQEND
  0
POLYLINE
  8
LC_OH_2021_05_O7
  70
1
  66
1
  0
VERTEX
  8
LC_OH_2021_05_O7
  10
265707.571
  20
4468406.536
  0
VERTEX
  8
LC_OH_2021_05_O7
  10
264621.509
  20
4468440.301
  0
VERTEX
  8
LC_OH_2021_05_O7
  10
263306.915
  20
4468481.791
  0
VERTEX
  8
LC_OH_2021_05_O7
  10
263314.500
  20
4468623.000
  0
VERTEX
  8
LC_OH_2021_05_O7
  10
265590.500
  20
4468658.000
  0
VERTEX
  8
LC_OH_2021_05_O7
  10
265713.500
  20
4468592.000
  0
SEQEND
  8
LC_OH_2021_05_O7
  0
INSERT
  8
FeatureAttribs
  2
FEATURE
  41
1
  42
1
  43
1
  50
0
  10
271471.001
  20
4468439.496
 66
1
  0
ATTRIB
  8
FeatureAttribs
 70
0
  1
PNOA-H_AMS_1956-57_33k_ES_PAN_21mic_H50_0576_fot_71B-22049_W.tif
  2
NAME
  10
271471.001
  20
4468439.496
 40
34.74396
  0
SEQEND
  0
POLYLINE
  8
LC_OH_2021_05_O7
  70
1
  66
1
  0
VERTEX
  8
LC_OH_2021_05_O7
  10
272725.481
  20
4468190.993
  0
VERTEX
  8
LC_OH_2021_05_O7
  10
271701.425
  20
4468221.863
  0
VERTEX
  8
LC_OH_2021_05_O7
  10
270222.777
  20
4468267.135
  0
VERTEX
  8
LC_OH_2021_05_O7
  10
270214.001
  20
4468504.500
  0
VERTEX
  8
LC_OH_2021_05_O7
  10
272055.501
  20
4468687.500
  0
VERTEX
  8
LC_OH_2021_05_O7
  10
272060.501
  20
4468688.000
  0
VERTEX
  8
LC_OH_2021_05_O7
  10
272068.501
  20
4468686.000
  0
VERTEX
  8
LC_OH_2021_05_O7
  10
272728.001
  20
4468428.500
  0
SEQEND
  8
LC_OH_2021_05_O7
  0
INSERT
  8
FeatureAttribs
  2
FEATURE
  41
1
  42
1
  43
1
  50
0
  10
259194.544
  20
4484839.499
 66
1
  0
ATTRIB
  8
FeatureAttribs
 70
0
  1
PNOA-H_AMS_1956-57_33k_ES_PAN_21mic_H50_0553_fot_67A-44266_E.tif
  2
NAME
  10
259194.544
  20
4484839.499
 40
34.74396
  0
SEQEND
  0
POLYLINE
  8
LC_OH_2021_05_O7
  70
1
  66
1
  0
VERTEX
  8
LC_OH_2021_05_O7
  10
260655.627
  20
4487087.953
  0
VERTEX
  8
LC_OH_2021_05_O7
  10
260567.000
  20
4482046.000
  0
VERTEX
  8
LC_OH_2021_05_O7
  10
260060.000
  20
4481831.500
  0
VERTEX
  8
LC_OH_2021_05_O7
  10
257973.932
  20
4482049.460
  0
VERTEX
  8
LC_OH_2021_05_O7
  10
257989.893
  20
4482542.935
  0
VERTEX
  8
LC_OH_2021_05_O7
  10
258064.736
  20
4484855.876
  0
VERTEX
  8
LC_OH_2021_05_O7
  10
258139.611
  20
4487168.824
  0
SEQEND
  8
LC_OH_2021_05_O7
  0
INSERT
  8
FeatureAttribs
  2
FEATURE
  41
1
  42
1
  43
1
  50
0
  10
265010.063
  20
4484659.500
 66
1
  0
ATTRIB
  8
FeatureAttribs
 70
0
  1
PNOA-H_AMS_1956-57_33k_ES_PAN_21mic_H50_0553_fot_67A-44268_E.tif
  2
NAME
  10
265010.063
  20
4484659.500
 40
34.74396
  0
SEQEND
  0
POLYLINE
  8
LC_OH_2021_05_O7
  70
1
  66
1
  0
VERTEX
  8
LC_OH_2021_05_O7
  10
266609.826
  20
4486899.577
  0
VERTEX
  8
LC_OH_2021_05_O7
  10
266370.500
  20
4481945.000
  0
VERTEX
  8
LC_OH_2021_05_O7
  10
265907.000
  20
4481752.000
  0
VERTEX
  8
LC_OH_2021_05_O7
  10
265902.000
  20
4481750.000
  0
VERTEX
  8
LC_OH_2021_05_O7
  10
265898.000
  20
4481750.000
  0
VERTEX
  8
LC_OH_2021_05_O7
  10
263370.500
  20
4481960.500
  0
VERTEX
  8
LC_OH_2021_05_O7
  10
263646.440
  20
4486992.757
  0
VERTEX
  8
LC_OH_2021_05_O7
  10
265202.111
  20
4486943.491
  0
SEQEND
  8
LC_OH_2021_05_O7
  0
INSERT
  8
FeatureAttribs
  2
FEATURE
  41
1
  42
1
  43
1
  50
0
  10
266900.786
  20
4468504.872
 66
1
  0
ATTRIB
  8
FeatureAttribs
 70
0
  1
PNOA-H_AMS_1956-57_33k_ES_PAN_21mic_H50_0576_fot_71B-22051_W.tif
  2
NAME
  10
266900.786
  20
4468504.872
 40
34.74396
  0
SEQEND
  0
POLYLINE
  8
LC_OH_2021_05_O7
  70
1
  66
1
  0
VERTEX
  8
LC_OH_2021_05_O7
  10
268081.181
  20
4468332.743
  0
VERTEX
  8
LC_OH_2021_05_O7
  10
265707.571
  20
4468406.536
  0
VERTEX
  8
LC_OH_2021_05_O7
  10
265713.500
  20
4468592.000
  0
VERTEX
  8
LC_OH_2021_05_O7
  10
267812.500
  20
4468676.500
  0
VERTEX
  8
LC_OH_2021_05_O7
  10
267825.000
  20
4468677.000
  0
VERTEX
  8
LC_OH_2021_05_O7
  10
267834.500
  20
4468676.000
  0
VERTEX
  8
LC_OH_2021_05_O7
  10
268094.000
  20
4468549.000
  0
SEQEND
  8
LC_OH_2021_05_O7
  0
INSERT
  8
FeatureAttribs
  2
FEATURE
  41
1
  42
1
  43
1
  50
0
  10
262070.231
  20
4484782.249
 66
1
  0
ATTRIB
  8
FeatureAttribs
 70
0
  1
PNOA-H_AMS_1956-57_33k_ES_PAN_21mic_H50_0553_fot_67A-44267_E.tif
  2
NAME
  10
262070.231
  20
4484782.249
 40
34.74396
  0
SEQEND
  0
POLYLINE
  8
LC_OH_2021_05_O7
  70
1
  66
1
  0
VERTEX
  8
LC_OH_2021_05_O7
  10
263646.873
  20
4486992.743
  0
VERTEX
  8
LC_OH_2021_05_O7
  10
263371.000
  20
4481965.000
  0
VERTEX
  8
LC_OH_2021_05_O7
  10
263370.000
  20
4481960.000
  0
VERTEX
  8
LC_OH_2021_05_O7
  10
263054.000
  20
4481818.500
  0
VERTEX
  8
LC_OH_2021_05_O7
  10
260567.000
  20
4482046.000
  0
VERTEX
  8
LC_OH_2021_05_O7
  10
260655.220
  20
4487087.966
  0
VERTEX
  8
LC_OH_2021_05_O7
  10
261670.871
  20
4487055.321
  0
SEQEND
  8
LC_OH_2021_05_O7
  0
INSERT
  8
FeatureAttribs
  2
FEATURE
  41
1
  42
1
  43
1
  50
0
  10
279978.956
  20
4484148.750
 66
1
  0
ATTRIB
  8
FeatureAttribs
 70
0
  1
PNOA-H_AMS_1956-57_33k_ES_PAN_21mic_H50_0553_fot_67A-44273_E.tif
  2
NAME
  10
279978.956
  20
4484148.750
 40
34.74396
  0
SEQEND
  0
POLYLINE
  8
LC_OH_2021_05_O7
  70
1
  66
1
  0
VERTEX
  8
LC_OH_2021_05_O7
  10
279716.934
  20
4486501.463
  0
VERTEX
  8
LC_OH_2021_05_O7
  10
281486.501
  20
4486152.500
  0
VERTEX
  8
LC_OH_2021_05_O7
  10
281391.501
  20
4481987.500
  0
VERTEX
  8
LC_OH_2021_05_O7
  10
278465.501
  20
4481749.000
  0
VERTEX
  8
LC_OH_2021_05_O7
  10
278460.501
  20
4481749.000
  0
VERTEX
  8
LC_OH_2021_05_O7
  10
278460.501
  20
4481770.000
  0
VERTEX
  8
LC_OH_2021_05_O7
  10
278567.501
  20
4486265.000
  0
VERTEX
  8
LC_OH_2021_05_O7
  10
279359.285
  20
4486511.943
  0
SEQEND
  8
LC_OH_2021_05_O7
  0
INSERT
  8
FeatureAttribs
  2
FEATURE
  41
1
  42
1
  43
1
  50
0
  10
271018.571
  20
4484283.750
 66
1
  0
ATTRIB
  8
FeatureAttribs
 70
0
  1
PNOA-H_AMS_1956-57_33k_ES_PAN_21mic_H50_0553_fot_67A-44270_E.tif
  2
NAME
  10
271018.571
  20
4484283.750
 40
34.74396
  0
SEQEND
  0
POLYLINE
  8
LC_OH_2021_05_O7
  70
1
  66
1
  0
VERTEX
  8
LC_OH_2021_05_O7
  10
272166.572
  20
4486727.857
  0
VERTEX
  8
LC_OH_2021_05_O7
  10
272719.001
  20
4486570.000
  0
VERTEX
  8
LC_OH_2021_05_O7
  10
272330.001
  20
4481700.000
  0
VERTEX
  8
LC_OH_2021_05_O7
  10
271675.501
  20
4481442.000
  0
VERTEX
  8
LC_OH_2021_05_O7
  10
269322.000
  20
4481848.500
  0
VERTEX
  8
LC_OH_2021_05_O7
  10
269685.812
  20
4486804.071
  0
SEQEND
  8
LC_OH_2021_05_O7
  0
INSERT
  8
FeatureAttribs
  2
FEATURE
  41
1
  42
1
  43
1
  50
0
  10
274021.265
  20
4484071.499
 66
1
  0
ATTRIB
  8
FeatureAttribs
 70
0
  1
PNOA-H_AMS_1956-57_33k_ES_PAN_21mic_H50_0553_fot_67A-44271_E.tif
  2
NAME
  10
274021.265
  20
4484071.499
 40
34.74396
  0
SEQEND
  0
POLYLINE
  8
LC_OH_2021_05_O7
  70
1
  66
1
  0
VERTEX
  8
LC_OH_2021_05_O7
  10
274597.742
  20
4486654.271
  0
VERTEX
  8
LC_OH_2021_05_O7
  10
275615.001
  20
4486374.000
  0
VERTEX
  8
LC_OH_2021_05_O7
  10
275426.001
  20
4481626.000
  0
VERTEX
  8
LC_OH_2021_05_O7
  10
274464.501
  20
4481275.000
  0
VERTEX
  8
LC_OH_2021_05_O7
  10
272330.001
  20
4481700.000
  0
VERTEX
  8
LC_OH_2021_05_O7
  10
272718.501
  20
4486569.500
  0
VERTEX
  8
LC_OH_2021_05_O7
  10
273188.836
  20
4486696.888
  0
SEQEND
  8
LC_OH_2021_05_O7
  0
INSERT
  8
FeatureAttribs
  2
FEATURE
  41
1
  42
1
  43
1
  50
0
  10
268005.052
  20
4484495.000
 66
1
  0
ATTRIB
  8
FeatureAttribs
 70
0
  1
PNOA-H_AMS_1956-57_33k_ES_PAN_21mic_H50_0553_fot_67A-44269_E.tif
  2
NAME
  10
268005.052
  20
4484495.000
 40
34.74396
  0
SEQEND
  0
POLYLINE
  8
LC_OH_2021_05_O7
  70
1
  66
1
  0
VERTEX
  8
LC_OH_2021_05_O7
  10
269685.815
  20
4486804.071
  0
VERTEX
  8
LC_OH_2021_05_O7
  10
269322.500
  20
4481851.000
  0
VERTEX
  8
LC_OH_2021_05_O7
  10
269321.500
  20
4481848.000
  0
VERTEX
  8
LC_OH_2021_05_O7
  10
269304.500
  20
4481841.000
  0
VERTEX
  8
LC_OH_2021_05_O7
  10
268715.000
  20
4481605.000
  0
VERTEX
  8
LC_OH_2021_05_O7
  10
266370.500
  20
4481945.000
  0
VERTEX
  8
LC_OH_2021_05_O7
  10
266609.826
  20
4486899.577
  0
VERTEX
  8
LC_OH_2021_05_O7
  10
268733.332
  20
4486833.333
  0
SEQEND
  8
LC_OH_2021_05_O7
  0
INSERT
  8
FeatureAttribs
  2
FEATURE
  41
1
  42
1
  43
1
  50
0
  10
285743.011
  20
4483988.501
 66
1
  0
ATTRIB
  8
FeatureAttribs
 70
0
  1
PNOA-H_AMS_1956-57_33k_ES_PAN_21mic_H50_0554_fot_67A-44275_E.tif
  2
NAME
  10
285743.011
  20
4483988.501
 40
34.74396
  0
SEQEND
  0
POLYLINE
  8
LC_OH_2021_05_O7
  70
1
  66
1
  0
VERTEX
  8
LC_OH_2021_05_O7
  10
286382.223
  20
4486065.242
  0
VERTEX
  8
LC_OH_2021_05_O7
  10
286323.037
  20
4483994.776
  0
VERTEX
  8
LC_OH_2021_05_O7
  10
286257.555
  20
4481703.118
  0
VERTEX
  8
LC_OH_2021_05_O7
  10
284305.501
  20
4481805.000
  0
VERTEX
  8
LC_OH_2021_05_O7
  10
284301.001
  20
4481806.500
  0
VERTEX
  8
LC_OH_2021_05_O7
  10
284271.001
  20
4481830.000
  0
VERTEX
  8
LC_OH_2021_05_O7
  10
284370.001
  20
4486065.500
  0
VERTEX
  8
LC_OH_2021_05_O7
  10
285038.501
  20
4486309.500
  0
SEQEND
  8
LC_OH_2021_05_O7
  0
INSERT
  8
FeatureAttribs
  2
FEATURE
  41
1
  42
1
  43
1
  50
0
  10
282882.403
  20
4484123.500
 66
1
  0
ATTRIB
  8
FeatureAttribs
 70
0
  1
PNOA-H_AMS_1956-57_33k_ES_PAN_21mic_H50_0553_fot_67A-44274_E.tif
  2
NAME
  10
282882.403
  20
4484123.500
 40
34.74396
  0
SEQEND
  0
POLYLINE
  8
LC_OH_2021_05_O7
  70
1
  66
1
  0
VERTEX
  8
LC_OH_2021_05_O7
  10
282598.749
  20
4486417.019
  0
VERTEX
  8
LC_OH_2021_05_O7
  10
284370.001
  20
4486065.000
  0
VERTEX
  8
LC_OH_2021_05_O7
  10
284271.001
  20
4481830.500
  0
VERTEX
  8
LC_OH_2021_05_O7
  10
281680.001
  20
4481787.500
  0
VERTEX
  8
LC_OH_2021_05_O7
  10
281391.501
  20
4481987.000
  0
VERTEX
  8
LC_OH_2021_05_O7
  10
281486.501
  20
4486152.500
  0
VERTEX
  8
LC_OH_2021_05_O7
  10
281708.501
  20
4486228.500
  0
VERTEX
  8
LC_OH_2021_05_O7
  10
281710.001
  20
4486229.000
  0
VERTEX
  8
LC_OH_2021_05_O7
  10
282287.323
  20
4486426.145
  0
SEQEND
  8
LC_OH_2021_05_O7
  0
INSERT
  8
FeatureAttribs
  2
FEATURE
  41
1
  42
1
  43
1
  50
0
  10
277015.621
  20
4483953.501
 66
1
  0
ATTRIB
  8
FeatureAttribs
 70
0
  1
PNOA-H_AMS_1956-57_33k_ES_PAN_21mic_H50_0553_fot_67A-44272_E.tif
  2
NAME
  10
277015.621
  20
4483953.501
 40
34.74396
  0
SEQEND
  0
POLYLINE
  8
LC_OH_2021_05_O7
  70
1
  66
1
  0
VERTEX
  8
LC_OH_2021_05_O7
  10
277333.871
  20
4486572.235
  0
VERTEX
  8
LC_OH_2021_05_O7
  10
277613.001
  20
4486502.500
  0
VERTEX
  8
LC_OH_2021_05_O7
  10
277615.501
  20
4486502.000
  0
VERTEX
  8
LC_OH_2021_05_O7
  10
278567.501
  20
4486265.000
  0
VERTEX
  8
LC_OH_2021_05_O7
  10
278460.501
  20
4481749.000
  0
VERTEX
  8
LC_OH_2021_05_O7
  10
278274.501
  20
4481586.000
  0
VERTEX
  8
LC_OH_2021_05_O7
  10
277196.001
  20
4481205.500
  0
VERTEX
  8
LC_OH_2021_05_O7
  10
275426.001
  20
4481626.000
  0
VERTEX
  8
LC_OH_2021_05_O7
  10
275614.501
  20
4486368.500
  0
VERTEX
  8
LC_OH_2021_05_O7
  10
275615.001
  20
4486374.000
  0
VERTEX
  8
LC_OH_2021_05_O7
  10
275619.501
  20
4486375.500
  0
VERTEX
  8
LC_OH_2021_05_O7
  10
276437.471
  20
4486598.925
  0
SEQEND
  8
LC_OH_2021_05_O7
  0
INSERT
  8
FeatureAttribs
  2
FEATURE
  41
1
  42
1
  43
1
  50
0
  10
269151.988
  20
4468439.817
 66
1
  0
ATTRIB
  8
FeatureAttribs
 70
0
  1
PNOA-H_AMS_1956-57_33k_ES_PAN_21mic_H50_0576_fot_71B-22050_W.tif
  2
NAME
  10
269151.988
  20
4468439.817
 40
34.74396
  0
SEQEND
  0
POLYLINE
  8
LC_OH_2021_05_O7
  70
1
  66
1
  0
VERTEX
  8
LC_OH_2021_05_O7
  10
270222.794
  20
4468267.135
  0
VERTEX
  8
LC_OH_2021_05_O7
  10
268161.477
  20
4468330.247
  0
VERTEX
  8
LC_OH_2021_05_O7
  10
268081.181
  20
4468332.743
  0
VERTEX
  8
LC_OH_2021_05_O7
  10
268094.000
  20
4468549.000
  0
VERTEX
  8
LC_OH_2021_05_O7
  10
269944.500
  20
4468612.000
  0
VERTEX
  8
LC_OH_2021_05_O7
  10
269959.000
  20
4468612.500
  0
VERTEX
  8
LC_OH_2021_05_O7
  10
269974.000
  20
4468612.500
  0
VERTEX
  8
LC_OH_2021_05_O7
  10
269976.500
  20
4468611.500
  0
VERTEX
  8
LC_OH_2021_05_O7
  10
270214.001
  20
4468505.000
  0
SEQEND
  8
LC_OH_2021_05_O7
  0
INSERT
  8
FeatureAttribs
  2
FEATURE
  41
1
  42
1
  43
1
  50
0
  10
286073.789
  20
4477218.380
 66
1
  0
ATTRIB
  8
FeatureAttribs
 70
0
  1
PNOA-H_AMS_1956-57_33k_ES_PAN_21mic_H50_0554_fot_69C-46851_W.tif
  2
NAME
  10
286073.789
  20
4477218.380
 40
34.74396
  0
SEQEND
  0
POLYLINE
  8
LC_OH_2021_05_O7
  70
1
  66
1
  0
VERTEX
  8
LC_OH_2021_05_O7
  10
286125.900
  20
4477092.691
  0
VERTEX
  8
LC_OH_2021_05_O7
  10
286014.501
  20
4477275.500
  0
VERTEX
  8
LC_OH_2021_05_O7
  10
286133.077
  20
4477344.068
  0
SEQEND
  8
LC_OH_2021_05_O7
  0
INSERT
  8
FeatureAttribs
  2
FEATURE
  41
1
  42
1
  43
1
  50
0
  10
259020.277
  20
4471061.749
 66
1
  0
ATTRIB
  8
FeatureAttribs
 70
0
  1
PNOA-H_AMS_1956-57_33k_ES_PAN_21mic_H50_0553_fot_70A-46727_E.tif
  2
NAME
  10
259020.277
  20
4471061.749
 40
34.74396
  0
SEQEND
  0
POLYLINE
  8
LC_OH_2021_05_O7
  70
1
  66
1
  0
VERTEX
  8
LC_OH_2021_05_O7
  10
257686.178
  20
4473146.740
  0
VERTEX
  8
LC_OH_2021_05_O7
  10
257879.500
  20
4473256.500
  0
VERTEX
  8
LC_OH_2021_05_O7
  10
259178.500
  20
4473137.000
  0
VERTEX
  8
LC_OH_2021_05_O7
  10
259183.500
  20
4473137.000
  0
VERTEX
  8
LC_OH_2021_05_O7
  10
260514.000
  20
4473015.000
  0
VERTEX
  8
LC_OH_2021_05_O7
  10
260292.000
  20
4468984.000
  0
VERTEX
  8
LC_OH_2021_05_O7
  10
260291.500
  20
4468982.000
  0
VERTEX
  8
LC_OH_2021_05_O7
  10
260289.500
  20
4468981.500
  0
VERTEX
  8
LC_OH_2021_05_O7
  10
258141.000
  20
4468867.000
  0
VERTEX
  8
LC_OH_2021_05_O7
  10
258134.000
  20
4468867.000
  0
VERTEX
  8
LC_OH_2021_05_O7
  10
257606.000
  20
4469204.500
  0
VERTEX
  8
LC_OH_2021_05_O7
  10
257647.584
  20
4471951.505
  0
SEQEND
  8
LC_OH_2021_05_O7
  0
INSERT
  8
FeatureAttribs
  2
FEATURE
  41
1
  42
1
  43
1
  50
0
  10
257603.147
  20
4470574.909
 66
1
  0
ATTRIB
  8
FeatureAttribs
 70
0
  1
PNOA-H_AMS_1956-57_33k_ES_PAN_21mic_H50_0552_fot_70A-46726_E.tif
  2
NAME
  10
257603.147
  20
4470574.909
 40
34.74396
  0
SEQEND
  0
POLYLINE
  8
LC_OH_2021_05_O7
  70
1
  66
1
  0
VERTEX
  8
LC_OH_2021_05_O7
  10
257647.584
  20
4471951.505
  0
VERTEX
  8
LC_OH_2021_05_O7
  10
257606.000
  20
4469204.500
  0
VERTEX
  8
LC_OH_2021_05_O7
  10
257558.710
  20
4469198.313
  0
VERTEX
  8
LC_OH_2021_05_O7
  10
257616.161
  20
4470978.325
  0
SEQEND
  8
LC_OH_2021_05_O7
  0
INSERT
  8
FeatureAttribs
  2
FEATURE
  41
1
  42
1
  43
1
  50
0
  10
261716.862
  20
4470855.750
 66
1
  0
ATTRIB
  8
FeatureAttribs
 70
0
  1
PNOA-H_AMS_1956-57_33k_ES_PAN_21mic_H50_0553_fot_70A-46728_E.tif
  2
NAME
  10
261716.862
  20
4470855.750
 40
34.74396
  0
SEQEND
  0
POLYLINE
  8
LC_OH_2021_05_O7
  70
1
  66
1
  0
VERTEX
  8
LC_OH_2021_05_O7
  10
260513.500
  20
4473012.000
  0
VERTEX
  8
LC_OH_2021_05_O7
  10
260514.000
  20
4473015.000
  0
VERTEX
  8
LC_OH_2021_05_O7
  10
260552.000
  20
4473033.500
  0
VERTEX
  8
LC_OH_2021_05_O7
  10
260563.500
  20
4473039.000
  0
VERTEX
  8
LC_OH_2021_05_O7
  10
260569.500
  20
4473039.000
  0
VERTEX
  8
LC_OH_2021_05_O7
  10
261228.000
  20
4472985.500
  0
VERTEX
  8
LC_OH_2021_05_O7
  10
261231.500
  20
4472985.500
  0
VERTEX
  8
LC_OH_2021_05_O7
  10
263096.000
  20
4472835.500
  0
VERTEX
  8
LC_OH_2021_05_O7
  10
262980.500
  20
4468824.500
  0
VERTEX
  8
LC_OH_2021_05_O7
  10
262971.500
  20
4468823.000
  0
VERTEX
  8
LC_OH_2021_05_O7
  10
260797.000
  20
4468672.500
  0
VERTEX
  8
LC_OH_2021_05_O7
  10
260790.000
  20
4468672.500
  0
VERTEX
  8
LC_OH_2021_05_O7
  10
260785.000
  20
4468675.500
  0
VERTEX
  8
LC_OH_2021_05_O7
  10
260291.500
  20
4468982.000
  0
SEQEND
  8
LC_OH_2021_05_O7
  0
INSERT
  8
FeatureAttribs
  2
FEATURE
  41
1
  42
1
  43
1
  50
0
  10
266671.077
  20
4470847.248
 66
1
  0
ATTRIB
  8
FeatureAttribs
 70
0
  1
PNOA-H_AMS_1956-57_33k_ES_PAN_21mic_H50_0553_fot_70A-46730_E.tif
  2
NAME
  10
266671.077
  20
4470847.248
 40
34.74396
  0
SEQEND
  0
POLYLINE
  8
LC_OH_2021_05_O7
  70
1
  66
1
  0
VERTEX
  8
LC_OH_2021_05_O7
  10
266271.000
  20
4473102.500
  0
VERTEX
  8
LC_OH_2021_05_O7
  10
267374.000
  20
4472818.000
  0
VERTEX
  8
LC_OH_2021_05_O7
  10
267375.500
  20
4472818.000
  0
VERTEX
  8
LC_OH_2021_05_O7
  10
267801.500
  20
4472708.000
  0
VERTEX
  8
LC_OH_2021_05_O7
  10
267831.500
  20
4468677.000
  0
VERTEX
  8
LC_OH_2021_05_O7
  10
265724.000
  20
4468592.000
  0
VERTEX
  8
LC_OH_2021_05_O7
  10
265712.500
  20
4468592.000
  0
VERTEX
  8
LC_OH_2021_05_O7
  10
265589.500
  20
4468658.000
  0
VERTEX
  8
LC_OH_2021_05_O7
  10
265472.000
  20
4472760.000
  0
SEQEND
  8
LC_OH_2021_05_O7
  0
INSERT
  8
FeatureAttribs
  2
FEATURE
  41
1
  42
1
  43
1
  50
0
  10
264282.655
  20
4470809.499
 66
1
  0
ATTRIB
  8
FeatureAttribs
 70
0
  1
PNOA-H_AMS_1956-57_33k_ES_PAN_21mic_H50_0553_fot_70A-46729_E.tif
  2
NAME
  10
264282.655
  20
4470809.499
 40
34.74396
  0
SEQEND
  0
POLYLINE
  8
LC_OH_2021_05_O7
  70
1
  66
1
  0
VERTEX
  8
LC_OH_2021_05_O7
  10
263096.000
  20
4472835.500
  0
VERTEX
  8
LC_OH_2021_05_O7
  10
263277.500
  20
4472932.000
  0
VERTEX
  8
LC_OH_2021_05_O7
  10
263278.500
  20
4472932.500
  0
VERTEX
  8
LC_OH_2021_05_O7
  10
263394.000
  20
4472994.000
  0
VERTEX
  8
LC_OH_2021_05_O7
  10
263399.500
  20
4472996.000
  0
VERTEX
  8
LC_OH_2021_05_O7
  10
265472.000
  20
4472760.000
  0
VERTEX
  8
LC_OH_2021_05_O7
  10
265589.500
  20
4468658.000
  0
VERTEX
  8
LC_OH_2021_05_O7
  10
263314.000
  20
4468623.000
  0
VERTEX
  8
LC_OH_2021_05_O7
  10
262980.000
  20
4468824.000
  0
SEQEND
  8
LC_OH_2021_05_O7
  0
INSERT
  8
FeatureAttribs
  2
FEATURE
  41
1
  42
1
  43
1
  50
0
  10
257887.084
  20
4475159.379
 66
1
  0
ATTRIB
  8
FeatureAttribs
 70
0
  1
PNOA-H_AMS_1956-57_33k_ES_PAN_21mic_H50_0552_fot_69B-52008_E.tif
  2
NAME
  10
257887.084
  20
4475159.379
 40
34.74396
  0
SEQEND
  0
POLYLINE
  8
LC_OH_2021_05_O7
  70
1
  66
1
  0
VERTEX
  8
LC_OH_2021_05_O7
  10
257816.236
  20
4477172.328
  0
VERTEX
  8
LC_OH_2021_05_O7
  10
258088.000
  20
4477016.500
  0
VERTEX
  8
LC_OH_2021_05_O7
  10
257895.000
  20
4473540.000
  0
VERTEX
  8
LC_OH_2021_05_O7
  10
257895.000
  20
4473534.500
  0
VERTEX
  8
LC_OH_2021_05_O7
  10
257879.500
  20
4473256.000
  0
VERTEX
  8
LC_OH_2021_05_O7
  10
257686.168
  20
4473146.430
  0
VERTEX
  8
LC_OH_2021_05_O7
  10
257690.843
  20
4473291.234
  0
VERTEX
  8
LC_OH_2021_05_O7
  10
257765.558
  20
4475604.150
  0
SEQEND
  8
LC_OH_2021_05_O7
  0
INSERT
  8
FeatureAttribs
  2
FEATURE
  41
1
  42
1
  43
1
  50
0
  10
273246.451
  20
4470606.499
 66
1
  0
ATTRIB
  8
FeatureAttribs
 70
0
  1
PNOA-H_AMS_1956-57_33k_ES_PAN_21mic_H50_0553_fot_70A-46733_E.tif
  2
NAME
  10
273246.451
  20
4470606.499
 40
34.74396
  0
SEQEND
  0
POLYLINE
  8
LC_OH_2021_05_O7
  70
1
  66
1
  0
VERTEX
  8
LC_OH_2021_05_O7
  10
272137.501
  20
4472650.500
  0
VERTEX
  8
LC_OH_2021_05_O7
  10
274076.501
  20
4472784.000
  0
VERTEX
  8
LC_OH_2021_05_O7
  10
274083.501
  20
4472784.500
  0
VERTEX
  8
LC_OH_2021_05_O7
  10
274408.001
  20
4472603.500
  0
VERTEX
  8
LC_OH_2021_05_O7
  10
274381.001
  20
4468732.000
  0
VERTEX
  8
LC_OH_2021_05_O7
  10
272730.001
  20
4468428.500
  0
VERTEX
  8
LC_OH_2021_05_O7
  10
272726.501
  20
4468428.500
  0
VERTEX
  8
LC_OH_2021_05_O7
  10
272062.501
  20
4468688.000
  0
SEQEND
  8
LC_OH_2021_05_O7
  0
INSERT
  8
FeatureAttribs
  2
FEATURE
  41
1
  42
1
  43
1
  50
0
  10
275566.173
  20
4470569.250
 66
1
  0
ATTRIB
  8
FeatureAttribs
 70
0
  1
PNOA-H_AMS_1956-57_33k_ES_PAN_21mic_H50_0553_fot_70A-46734_E.tif
  2
NAME
  10
275566.173
  20
4470569.250
 40
34.74396
  0
SEQEND
  0
POLYLINE
  8
LC_OH_2021_05_O7
  70
1
  66
1
  0
VERTEX
  8
LC_OH_2021_05_O7
  10
274408.001
  20
4472603.500
  0
VERTEX
  8
LC_OH_2021_05_O7
  10
276577.501
  20
4472764.000
  0
VERTEX
  8
LC_OH_2021_05_O7
  10
276584.001
  20
4472764.500
  0
VERTEX
  8
LC_OH_2021_05_O7
  10
276591.501
  20
4472764.000
  0
VERTEX
  8
LC_OH_2021_05_O7
  10
276716.501
  20
4472691.500
  0
VERTEX
  8
LC_OH_2021_05_O7
  10
276758.501
  20
4468642.000
  0
VERTEX
  8
LC_OH_2021_05_O7
  10
275273.001
  20
4468374.000
  0
VERTEX
  8
LC_OH_2021_05_O7
  10
275269.001
  20
4468374.000
  0
VERTEX
  8
LC_OH_2021_05_O7
  10
275264.001
  20
4468376.000
  0
VERTEX
  8
LC_OH_2021_05_O7
  10
274381.001
  20
4468732.000
  0
SEQEND
  8
LC_OH_2021_05_O7
  0
INSERT
  8
FeatureAttribs
  2
FEATURE
  41
1
  42
1
  43
1
  50
0
  10
280306.533
  20
4470594.500
 66
1
  0
ATTRIB
  8
FeatureAttribs
 70
0
  1
PNOA-H_AMS_1956-57_33k_ES_PAN_21mic_H50_0553_fot_70A-46736_E.tif
  2
NAME
  10
280306.533
  20
4470594.500
 40
34.74396
  0
SEQEND
  0
POLYLINE
  8
LC_OH_2021_05_O7
  70
1
  66
1
  0
VERTEX
  8
LC_OH_2021_05_O7
  10
279422.001
  20
4472873.000
  0
VERTEX
  8
LC_OH_2021_05_O7
  10
279662.501
  20
4472840.000
  0
VERTEX
  8
LC_OH_2021_05_O7
  10
279663.501
  20
4472840.000
  0
VERTEX
  8
LC_OH_2021_05_O7
  10
281537.001
  20
4472584.000
  0
VERTEX
  8
LC_OH_2021_05_O7
  10
281563.001
  20
4468685.500
  0
VERTEX
  8
LC_OH_2021_05_O7
  10
280428.001
  20
4468316.000
  0
VERTEX
  8
LC_OH_2021_05_O7
  10
279077.001
  20
4468687.500
  0
VERTEX
  8
LC_OH_2021_05_O7
  10
279047.501
  20
4472642.500
  0
SEQEND
  8
LC_OH_2021_05_O7
  0
INSERT
  8
FeatureAttribs
  2
FEATURE
  41
1
  42
1
  43
1
  50
0
  10
271051.814
  20
4470718.999
 66
1
  0
ATTRIB
  8
FeatureAttribs
 70
0
  1
PNOA-H_AMS_1956-57_33k_ES_PAN_21mic_H50_0553_fot_70A-46732_E.tif
  2
NAME
  10
271051.814
  20
4470718.999
 40
34.74396
  0
SEQEND
  0
POLYLINE
  8
LC_OH_2021_05_O7
  70
1
  66
1
  0
VERTEX
  8
LC_OH_2021_05_O7
  10
270029.500
  20
4472651.500
  0
VERTEX
  8
LC_OH_2021_05_O7
  10
271517.501
  20
4472933.000
  0
VERTEX
  8
LC_OH_2021_05_O7
  10
271520.001
  20
4472933.500
  0
VERTEX
  8
LC_OH_2021_05_O7
  10
272137.501
  20
4472650.500
  0
VERTEX
  8
LC_OH_2021_05_O7
  10
272063.001
  20
4468693.500
  0
VERTEX
  8
LC_OH_2021_05_O7
  10
272062.501
  20
4468688.000
  0
VERTEX
  8
LC_OH_2021_05_O7
  10
272060.501
  20
4468687.500
  0
VERTEX
  8
LC_OH_2021_05_O7
  10
270214.501
  20
4468504.500
  0
VERTEX
  8
LC_OH_2021_05_O7
  10
269973.000
  20
4468612.500
  0
SEQEND
  8
LC_OH_2021_05_O7
  0
INSERT
  8
FeatureAttribs
  2
FEATURE
  41
1
  42
1
  43
1
  50
0
  10
285550.124
  20
4470713.499
 66
1
  0
ATTRIB
  8
FeatureAttribs
 70
0
  1
PNOA-H_AMS_1956-57_33k_ES_PAN_21mic_H50_0553_fot_70A-46738_E.tif
  2
NAME
  10
285550.124
  20
4470713.499
 40
34.74396
  0
SEQEND
  0
POLYLINE
  8
LC_OH_2021_05_O7
  70
1
  66
1
  0
VERTEX
  8
LC_OH_2021_05_O7
  10
286002.144
  20
4472755.231
  0
VERTEX
  8
LC_OH_2021_05_O7
  10
285992.885
  20
4472430.640
  0
VERTEX
  8
LC_OH_2021_05_O7
  10
285926.940
  20
4470117.833
  0
VERTEX
  8
LC_OH_2021_05_O7
  10
285880.336
  20
4468482.667
  0
VERTEX
  8
LC_OH_2021_05_O7
  10
285403.001
  20
4468444.500
  0
VERTEX
  8
LC_OH_2021_05_O7
  10
285398.001
  20
4468444.500
  0
VERTEX
  8
LC_OH_2021_05_O7
  10
285390.001
  20
4468446.500
  0
VERTEX
  8
LC_OH_2021_05_O7
  10
284186.501
  20
4468755.000
  0
VERTEX
  8
LC_OH_2021_05_O7
  10
284177.501
  20
4472511.500
  0
VERTEX
  8
LC_OH_2021_05_O7
  10
285105.001
  20
4472982.500
  0
VERTEX
  8
LC_OH_2021_05_O7
  10
285806.501
  20
4472804.500
  0
VERTEX
  8
LC_OH_2021_05_O7
  10
285807.501
  20
4472804.500
  0
SEQEND
  8
LC_OH_2021_05_O7
  0
INSERT
  8
FeatureAttribs
  2
FEATURE
  41
1
  42
1
  43
1
  50
0
  10
259382.076
  20
4475250.000
 66
1
  0
ATTRIB
  8
FeatureAttribs
 70
0
  1
PNOA-H_AMS_1956-57_33k_ES_PAN_21mic_H50_0553_fot_69B-52009_E.tif
  2
NAME
  10
259382.076
  20
4475250.000
 40
34.74396
  0
SEQEND
  0
POLYLINE
  8
LC_OH_2021_05_O7
  70
1
  66
1
  0
VERTEX
  8
LC_OH_2021_05_O7
  10
258088.000
  20
4477016.500
  0
VERTEX
  8
LC_OH_2021_05_O7
  10
260070.000
  20
4477484.500
  0
VERTEX
  8
LC_OH_2021_05_O7
  10
260072.500
  20
4477485.000
  0
VERTEX
  8
LC_OH_2021_05_O7
  10
260077.500
  20
4477484.000
  0
VERTEX
  8
LC_OH_2021_05_O7
  10
260942.000
  20
4477023.000
  0
VERTEX
  8
LC_OH_2021_05_O7
  10
260565.000
  20
4473042.000
  0
VERTEX
  8
LC_OH_2021_05_O7
  10
260564.500
  20
4473039.000
  0
VERTEX
  8
LC_OH_2021_05_O7
  10
260515.000
  20
4473015.000
  0
VERTEX
  8
LC_OH_2021_05_O7
  10
257879.500
  20
4473256.500
  0
SEQEND
  8
LC_OH_2021_05_O7
  0
INSERT
  8
FeatureAttribs
  2
FEATURE
  41
1
  42
1
  43
1
  50
0
  10
264882.827
  20
4474966.749
 66
1
  0
ATTRIB
  8
FeatureAttribs
 70
0
  1
PNOA-H_AMS_1956-57_33k_ES_PAN_21mic_H50_0553_fot_69B-52011_E.tif
  2
NAME
  10
264882.827
  20
4474966.749
 40
34.74396
  0
SEQEND
  0
POLYLINE
  8
LC_OH_2021_05_O7
  70
1
  66
1
  0
VERTEX
  8
LC_OH_2021_05_O7
  10
265867.500
  20
4477173.500
  0
VERTEX
  8
LC_OH_2021_05_O7
  10
265875.000
  20
4477173.500
  0
VERTEX
  8
LC_OH_2021_05_O7
  10
265877.000
  20
4477172.500
  0
VERTEX
  8
LC_OH_2021_05_O7
  10
266357.000
  20
4476896.000
  0
VERTEX
  8
LC_OH_2021_05_O7
  10
266271.500
  20
4473102.500
  0
VERTEX
  8
LC_OH_2021_05_O7
  10
265472.500
  20
4472760.000
  0
VERTEX
  8
LC_OH_2021_05_O7
  10
263398.500
  20
4472996.000
  0
VERTEX
  8
LC_OH_2021_05_O7
  10
263507.000
  20
4476985.000
  0
VERTEX
  8
LC_OH_2021_05_O7
  10
265861.500
  20
4477173.000
  0
VERTEX
  8
LC_OH_2021_05_O7
  10
265867.500
  20
4477173.500
  0
SEQEND
  8
LC_OH_2021_05_O7
  0
INSERT
  8
FeatureAttribs
  2
FEATURE
  41
1
  42
1
  43
1
  50
0
  10
267673.289
  20
4474946.500
 66
1
  0
ATTRIB
  8
FeatureAttribs
 70
0
  1
PNOA-H_AMS_1956-57_33k_ES_PAN_21mic_H50_0553_fot_69B-52012_E.tif
  2
NAME
  10
267673.289
  20
4474946.500
 40
34.74396
  0
SEQEND
  0
POLYLINE
  8
LC_OH_2021_05_O7
  70
1
  66
1
  0
VERTEX
  8
LC_OH_2021_05_O7
  10
268652.500
  20
4477185.000
  0
VERTEX
  8
LC_OH_2021_05_O7
  10
269152.000
  20
4476900.500
  0
VERTEX
  8
LC_OH_2021_05_O7
  10
268917.000
  20
4473026.000
  0
VERTEX
  8
LC_OH_2021_05_O7
  10
267801.500
  20
4472708.000
  0
VERTEX
  8
LC_OH_2021_05_O7
  10
266271.500
  20
4473102.000
  0
VERTEX
  8
LC_OH_2021_05_O7
  10
266357.000
  20
4476896.000
  0
VERTEX
  8
LC_OH_2021_05_O7
  10
268648.500
  20
4477184.500
  0
VERTEX
  8
LC_OH_2021_05_O7
  10
268652.500
  20
4477185.000
  0
SEQEND
  8
LC_OH_2021_05_O7
  0
INSERT
  8
FeatureAttribs
  2
FEATURE
  41
1
  42
1
  43
1
  50
0
  10
277901.309
  20
4470505.749
 66
1
  0
ATTRIB
  8
FeatureAttribs
 70
0
  1
PNOA-H_AMS_1956-57_33k_ES_PAN_21mic_H50_0553_fot_70A-46735_E.tif
  2
NAME
  10
277901.309
  20
4470505.749
 40
34.74396
  0
SEQEND
  0
POLYLINE
  8
LC_OH_2021_05_O7
  70
1
  66
1
  0
VERTEX
  8
LC_OH_2021_05_O7
  10
277601.001
  20
4472672.500
  0
VERTEX
  8
LC_OH_2021_05_O7
  10
277615.501
  20
4472672.500
  0
VERTEX
  8
LC_OH_2021_05_O7
  10
279047.501
  20
4472642.500
  0
VERTEX
  8
LC_OH_2021_05_O7
  10
279077.001
  20
4468687.500
  0
VERTEX
  8
LC_OH_2021_05_O7
  10
277774.501
  20
4468320.000
  0
VERTEX
  8
LC_OH_2021_05_O7
  10
276758.501
  20
4468642.000
  0
VERTEX
  8
LC_OH_2021_05_O7
  10
276716.501
  20
4472691.500
  0
SEQEND
  8
LC_OH_2021_05_O7
  0
INSERT
  8
FeatureAttribs
  2
FEATURE
  41
1
  42
1
  43
1
  50
0
  10
262105.166
  20
4475057.248
 66
1
  0
ATTRIB
  8
FeatureAttribs
 70
0
  1
PNOA-H_AMS_1956-57_33k_ES_PAN_21mic_H50_0553_fot_69B-52010_E.tif
  2
NAME
  10
262105.166
  20
4475057.248
 40
34.74396
  0
SEQEND
  0
POLYLINE
  8
LC_OH_2021_05_O7
  70
1
  66
1
  0
VERTEX
  8
LC_OH_2021_05_O7
  10
261228.000
  20
4477058.000
  0
VERTEX
  8
LC_OH_2021_05_O7
  10
263029.500
  20
4477279.000
  0
VERTEX
  8
LC_OH_2021_05_O7
  10
263507.000
  20
4476985.500
  0
VERTEX
  8
LC_OH_2021_05_O7
  10
263398.500
  20
4472996.000
  0
VERTEX
  8
LC_OH_2021_05_O7
  10
263097.000
  20
4472835.500
  0
VERTEX
  8
LC_OH_2021_05_O7
  10
260564.500
  20
4473039.000
  0
VERTEX
  8
LC_OH_2021_05_O7
  10
260942.000
  20
4477022.500
  0
VERTEX
  8
LC_OH_2021_05_O7
  10
261224.000
  20
4477057.500
  0
VERTEX
  8
LC_OH_2021_05_O7
  10
261228.000
  20
4477058.000
  0
SEQEND
  8
LC_OH_2021_05_O7
  0
INSERT
  8
FeatureAttribs
  2
FEATURE
  41
1
  42
1
  43
1
  50
0
  10
275373.209
  20
4474777.248
 66
1
  0
ATTRIB
  8
FeatureAttribs
 70
0
  1
PNOA-H_AMS_1956-57_33k_ES_PAN_21mic_H50_0553_fot_69B-52015_E.tif
  2
NAME
  10
275373.209
  20
4474777.248
 40
34.74396
  0
SEQEND
  0
POLYLINE
  8
LC_OH_2021_05_O7
  70
1
  66
1
  0
VERTEX
  8
LC_OH_2021_05_O7
  10
275567.501
  20
4476820.500
  0
VERTEX
  8
LC_OH_2021_05_O7
  10
276676.501
  20
4476693.000
  0
VERTEX
  8
LC_OH_2021_05_O7
  10
276590.001
  20
4472764.500
  0
VERTEX
  8
LC_OH_2021_05_O7
  10
274414.501
  20
4472603.500
  0
VERTEX
  8
LC_OH_2021_05_O7
  10
274407.001
  20
4472603.500
  0
VERTEX
  8
LC_OH_2021_05_O7
  10
274084.001
  20
4472784.000
  0
VERTEX
  8
LC_OH_2021_05_O7
  10
274140.501
  20
4476795.500
  0
VERTEX
  8
LC_OH_2021_05_O7
  10
274431.001
  20
4476951.000
  0
VERTEX
  8
LC_OH_2021_05_O7
  10
275565.001
  20
4476820.500
  0
VERTEX
  8
LC_OH_2021_05_O7
  10
275567.501
  20
4476820.500
  0
SEQEND
  8
LC_OH_2021_05_O7
  0
INSERT
  8
FeatureAttribs
  2
FEATURE
  41
1
  42
1
  43
1
  50
0
  10
272847.861
  20
4474775.000
 66
1
  0
ATTRIB
  8
FeatureAttribs
 70
0
  1
PNOA-H_AMS_1956-57_33k_ES_PAN_21mic_H50_0553_fot_69B-52014_E.tif
  2
NAME
  10
272847.861
  20
4474775.000
 40
34.74396
  0
SEQEND
  0
POLYLINE
  8
LC_OH_2021_05_O7
  70
1
  66
1
  0
VERTEX
  8
LC_OH_2021_05_O7
  10
273519.501
  20
4476821.500
  0
VERTEX
  8
LC_OH_2021_05_O7
  10
274140.501
  20
4476795.500
  0
VERTEX
  8
LC_OH_2021_05_O7
  10
274084.001
  20
4472784.500
  0
VERTEX
  8
LC_OH_2021_05_O7
  10
272141.001
  20
4472650.500
  0
VERTEX
  8
LC_OH_2021_05_O7
  10
272134.501
  20
4472651.500
  0
VERTEX
  8
LC_OH_2021_05_O7
  10
271520.501
  20
4472933.000
  0
VERTEX
  8
LC_OH_2021_05_O7
  10
271656.501
  20
4476899.500
  0
VERTEX
  8
LC_OH_2021_05_O7
  10
273514.001
  20
4476821.500
  0
VERTEX
  8
LC_OH_2021_05_O7
  10
273519.501
  20
4476821.500
  0
SEQEND
  8
LC_OH_2021_05_O7
  0
INSERT
  8
FeatureAttribs
  2
FEATURE
  41
1
  42
1
  43
1
  50
0
  10
268909.623
  20
4470787.500
 66
1
  0
ATTRIB
  8
FeatureAttribs
 70
0
  1
PNOA-H_AMS_1956-57_33k_ES_PAN_21mic_H50_0553_fot_70A-46731_E.tif
  2
NAME
  10
268909.623
  20
4470787.500
 40
34.74396
  0
SEQEND
  0
POLYLINE
  8
LC_OH_2021_05_O7
  70
1
  66
1
  0
VERTEX
  8
LC_OH_2021_05_O7
  10
268916.500
  20
4473026.000
  0
VERTEX
  8
LC_OH_2021_05_O7
  10
269422.500
  20
4472855.500
  0
VERTEX
  8
LC_OH_2021_05_O7
  10
269423.500
  20
4472855.500
  0
VERTEX
  8
LC_OH_2021_05_O7
  10
270029.500
  20
4472651.500
  0
VERTEX
  8
LC_OH_2021_05_O7
  10
269973.000
  20
4468612.500
  0
VERTEX
  8
LC_OH_2021_05_O7
  10
268103.000
  20
4468549.000
  0
VERTEX
  8
LC_OH_2021_05_O7
  10
268093.500
  20
4468549.000
  0
VERTEX
  8
LC_OH_2021_05_O7
  10
268089.000
  20
4468551.000
  0
VERTEX
  8
LC_OH_2021_05_O7
  10
267831.500
  20
4468677.000
  0
VERTEX
  8
LC_OH_2021_05_O7
  10
267801.500
  20
4472708.500
  0
SEQEND
  8
LC_OH_2021_05_O7
  0
INSERT
  8
FeatureAttribs
  2
FEATURE
  41
1
  42
1
  43
1
  50
0
  10
270305.588
  20
4474823.249
 66
1
  0
ATTRIB
  8
FeatureAttribs
 70
0
  1
PNOA-H_AMS_1956-57_33k_ES_PAN_21mic_H50_0553_fot_69B-52013_E.tif
  2
NAME
  10
270305.588
  20
4474823.249
 40
34.74396
  0
SEQEND
  0
POLYLINE
  8
LC_OH_2021_05_O7
  70
1
  66
1
  0
VERTEX
  8
LC_OH_2021_05_O7
  10
269421.500
  20
4476911.500
  0
VERTEX
  8
LC_OH_2021_05_O7
  10
271511.001
  20
4476995.000
  0
VERTEX
  8
LC_OH_2021_05_O7
  10
271656.501
  20
4476899.500
  0
VERTEX
  8
LC_OH_2021_05_O7
  10
271520.501
  20
4472933.500
  0
VERTEX
  8
LC_OH_2021_05_O7
  10
270030.500
  20
4472651.500
  0
VERTEX
  8
LC_OH_2021_05_O7
  10
268917.000
  20
4473025.500
  0
VERTEX
  8
LC_OH_2021_05_O7
  10
269151.500
  20
4476898.000
  0
VERTEX
  8
LC_OH_2021_05_O7
  10
269152.000
  20
4476900.500
  0
VERTEX
  8
LC_OH_2021_05_O7
  10
269159.000
  20
4476901.000
  0
VERTEX
  8
LC_OH_2021_05_O7
  10
269409.000
  20
4476911.000
  0
VERTEX
  8
LC_OH_2021_05_O7
  10
269421.500
  20
4476911.500
  0
SEQEND
  8
LC_OH_2021_05_O7
  0
INSERT
  8
FeatureAttribs
  2
FEATURE
  41
1
  42
1
  43
1
  50
0
  10
282865.748
  20
4470665.000
 66
1
  0
ATTRIB
  8
FeatureAttribs
 70
0
  1
PNOA-H_AMS_1956-57_33k_ES_PAN_21mic_H50_0553_fot_70A-46737_E.tif
  2
NAME
  10
282865.748
  20
4470665.000
 40
34.74396
  0
SEQEND
  0
POLYLINE
  8
LC_OH_2021_05_O7
  70
1
  66
1
  0
VERTEX
  8
LC_OH_2021_05_O7
  10
281710.001
  20
4472670.500
  0
VERTEX
  8
LC_OH_2021_05_O7
  10
281711.001
  20
4472671.000
  0
VERTEX
  8
LC_OH_2021_05_O7
  10
282184.501
  20
4472907.500
  0
VERTEX
  8
LC_OH_2021_05_O7
  10
282186.501
  20
4472907.500
  0
VERTEX
  8
LC_OH_2021_05_O7
  10
284177.501
  20
4472511.000
  0
VERTEX
  8
LC_OH_2021_05_O7
  10
284186.001
  20
4468754.500
  0
VERTEX
  8
LC_OH_2021_05_O7
  10
283648.001
  20
4468557.000
  0
VERTEX
  8
LC_OH_2021_05_O7
  10
282679.001
  20
4468422.500
  0
VERTEX
  8
LC_OH_2021_05_O7
  10
282658.001
  20
4468426.500
  0
VERTEX
  8
LC_OH_2021_05_O7
  10
281563.001
  20
4468685.500
  0
VERTEX
  8
LC_OH_2021_05_O7
  10
281537.001
  20
4472584.000
  0
SEQEND
  8
LC_OH_2021_05_O7
  0
INSERT
  8
FeatureAttribs
  2
FEATURE
  41
1
  42
1
  43
1
  50
0
  10
278001.972
  20
4474821.749
 66
1
  0
ATTRIB
  8
FeatureAttribs
 70
0
  1
PNOA-H_AMS_1956-57_33k_ES_PAN_21mic_H50_0553_fot_69B-52016_E.tif
  2
NAME
  10
278001.972
  20
4474821.749
 40
34.74396
  0
SEQEND
  0
POLYLINE
  8
LC_OH_2021_05_O7
  70
1
  66
1
  0
VERTEX
  8
LC_OH_2021_05_O7
  10
277615.501
  20
4476950.500
  0
VERTEX
  8
LC_OH_2021_05_O7
  10
279318.001
  20
4476654.000
  0
VERTEX
  8
LC_OH_2021_05_O7
  10
279422.501
  20
4472873.000
  0
VERTEX
  8
LC_OH_2021_05_O7
  10
279048.501
  20
4472642.500
  0
VERTEX
  8
LC_OH_2021_05_O7
  10
276722.501
  20
4472691.000
  0
VERTEX
  8
LC_OH_2021_05_O7
  10
276714.001
  20
4472692.500
  0
VERTEX
  8
LC_OH_2021_05_O7
  10
276590.001
  20
4472764.500
  0
VERTEX
  8
LC_OH_2021_05_O7
  10
276676.501
  20
4476693.000
  0
VERTEX
  8
LC_OH_2021_05_O7
  10
277325.001
  20
4477001.000
  0
VERTEX
  8
LC_OH_2021_05_O7
  10
277613.501
  20
4476950.500
  0
VERTEX
  8
LC_OH_2021_05_O7
  10
277615.501
  20
4476950.500
  0
SEQEND
  8
LC_OH_2021_05_O7
  0
INSERT
  8
FeatureAttribs
  2
FEATURE
  41
1
  42
1
  43
1
  50
0
  10
283638.933
  20
4474963.751
 66
1
  0
ATTRIB
  8
FeatureAttribs
 70
0
  1
PNOA-H_AMS_1956-57_33k_ES_PAN_21mic_H50_0553_fot_69B-52018_E.tif
  2
NAME
  10
283638.933
  20
4474963.751
 40
34.74396
  0
SEQEND
  0
POLYLINE
  8
LC_OH_2021_05_O7
  70
1
  66
1
  0
VERTEX
  8
LC_OH_2021_05_O7
  10
282240.501
  20
4477169.500
  0
VERTEX
  8
LC_OH_2021_05_O7
  10
284168.001
  20
4477416.000
  0
VERTEX
  8
LC_OH_2021_05_O7
  10
284171.501
  20
4477416.500
  0
VERTEX
  8
LC_OH_2021_05_O7
  10
285023.501
  20
4477088.000
  0
VERTEX
  8
LC_OH_2021_05_O7
  10
285105.001
  20
4472997.000
  0
VERTEX
  8
LC_OH_2021_05_O7
  10
285105.001
  20
4472982.000
  0
VERTEX
  8
LC_OH_2021_05_O7
  10
284177.501
  20
4472511.000
  0
VERTEX
  8
LC_OH_2021_05_O7
  10
282185.501
  20
4472907.500
  0
SEQEND
  8
LC_OH_2021_05_O7
  0
INSERT
  8
FeatureAttribs
  2
FEATURE
  41
1
  42
1
  43
1
  50
0
  10
280787.973
  20
4475018.999
 66
1
  0
ATTRIB
  8
FeatureAttribs
 70
0
  1
PNOA-H_AMS_1956-57_33k_ES_PAN_21mic_H50_0553_fot_69B-52017_E.tif
  2
NAME
  10
280787.973
  20
4475018.999
 40
34.74396
  0
SEQEND
  0
POLYLINE
  8
LC_OH_2021_05_O7
  70
1
  66
1
  0
VERTEX
  8
LC_OH_2021_05_O7
  10
279663.001
  20
4476825.000
  0
VERTEX
  8
LC_OH_2021_05_O7
  10
280794.001
  20
4477384.500
  0
VERTEX
  8
LC_OH_2021_05_O7
  10
281519.501
  20
4477454.000
  0
VERTEX
  8
LC_OH_2021_05_O7
  10
282240.501
  20
4477169.500
  0
VERTEX
  8
LC_OH_2021_05_O7
  10
282185.501
  20
4472907.500
  0
VERTEX
  8
LC_OH_2021_05_O7
  10
281537.501
  20
4472584.000
  0
VERTEX
  8
LC_OH_2021_05_O7
  10
279422.501
  20
4472873.000
  0
VERTEX
  8
LC_OH_2021_05_O7
  10
279318.001
  20
4476654.000
  0
VERTEX
  8
LC_OH_2021_05_O7
  10
279662.001
  20
4476824.500
  0
VERTEX
  8
LC_OH_2021_05_O7
  10
279663.001
  20
4476825.000
  0
SEQEND
  8
LC_OH_2021_05_O7
  0
INSERT
  8
FeatureAttribs
  2
FEATURE
  41
1
  42
1
  43
1
  50
0
  10
285574.716
  20
4475015.528
 66
1
  0
ATTRIB
  8
FeatureAttribs
 70
0
  1
PNOA-H_AMS_1956-57_33k_ES_PAN_21mic_H50_0554_fot_69B-52019_E.tif
  2
NAME
  10
285574.716
  20
4475015.528
 40
34.74396
  0
SEQEND
  0
POLYLINE
  8
LC_OH_2021_05_O7
  70
1
  66
1
  0
VERTEX
  8
LC_OH_2021_05_O7
  10
286125.930
  20
4477093.747
  0
VERTEX
  8
LC_OH_2021_05_O7
  10
286124.861
  20
4477056.274
  0
VERTEX
  8
LC_OH_2021_05_O7
  10
286058.859
  20
4474743.454
  0
VERTEX
  8
LC_OH_2021_05_O7
  10
286002.139
  20
4472755.056
  0
VERTEX
  8
LC_OH_2021_05_O7
  10
285105.001
  20
4472982.500
  0
VERTEX
  8
LC_OH_2021_05_O7
  10
285023.501
  20
4477088.000
  0
VERTEX
  8
LC_OH_2021_05_O7
  10
285803.501
  20
4477236.000
  0
VERTEX
  8
LC_OH_2021_05_O7
  10
285806.001
  20
4477236.500
  0
VERTEX
  8
LC_OH_2021_05_O7
  10
286014.001
  20
4477276.000
  0
VERTEX
  8
LC_OH_2021_05_O7
  10
286015.501
  20
4477275.000
  0
SEQEND
  8
LC_OH_2021_05_O7
  0
INSERT
  8
FeatureAttribs
  2
FEATURE
  41
1
  42
1
  43
1
  50
0
  10
275853.828
  20
4479159.500
 66
1
  0
ATTRIB
  8
FeatureAttribs
 70
0
  1
PNOA-H_AMS_1956-57_33k_ES_PAN_21mic_H50_0553_fot_68B-47526_E.tif
  2
NAME
  10
275853.828
  20
4479159.500
 40
34.74396
  0
SEQEND
  0
POLYLINE
  8
LC_OH_2021_05_O7
  70
1
  66
1
  0
VERTEX
  8
LC_OH_2021_05_O7
  10
275567.501
  20
4481592.500
  0
VERTEX
  8
LC_OH_2021_05_O7
  10
277197.001
  20
4481205.500
  0
VERTEX
  8
LC_OH_2021_05_O7
  10
277325.001
  20
4477000.500
  0
VERTEX
  8
LC_OH_2021_05_O7
  10
276677.001
  20
4476693.000
  0
VERTEX
  8
LC_OH_2021_05_O7
  10
274431.501
  20
4476951.000
  0
VERTEX
  8
LC_OH_2021_05_O7
  10
274464.501
  20
4481275.500
  0
VERTEX
  8
LC_OH_2021_05_O7
  10
275425.501
  20
4481626.000
  0
VERTEX
  8
LC_OH_2021_05_O7
  10
275566.001
  20
4481592.500
  0
VERTEX
  8
LC_OH_2021_05_O7
  10
275567.501
  20
4481592.500
  0
SEQEND
  8
LC_OH_2021_05_O7
  0
INSERT
  8
FeatureAttribs
  2
FEATURE
  41
1
  42
1
  43
1
  50
0
  10
267285.559
  20
4479420.499
 66
1
  0
ATTRIB
  8
FeatureAttribs
 70
0
  1
PNOA-H_AMS_1956-57_33k_ES_PAN_21mic_H50_0553_fot_68B-47523_E.tif
  2
NAME
  10
267285.559
  20
4479420.499
 40
34.74396
  0
SEQEND
  0
POLYLINE
  8
LC_OH_2021_05_O7
  70
1
  66
1
  0
VERTEX
  8
LC_OH_2021_05_O7
  10
266369.500
  20
4481945.000
  0
VERTEX
  8
LC_OH_2021_05_O7
  10
268714.000
  20
4481605.000
  0
VERTEX
  8
LC_OH_2021_05_O7
  10
268652.500
  20
4477184.500
  0
VERTEX
  8
LC_OH_2021_05_O7
  10
266359.000
  20
4476896.000
  0
VERTEX
  8
LC_OH_2021_05_O7
  10
266356.500
  20
4476896.000
  0
VERTEX
  8
LC_OH_2021_05_O7
  10
266342.500
  20
4476904.000
  0
VERTEX
  8
LC_OH_2021_05_O7
  10
265874.000
  20
4477173.500
  0
VERTEX
  8
LC_OH_2021_05_O7
  10
265901.500
  20
4481750.000
  0
VERTEX
  8
LC_OH_2021_05_O7
  10
266368.500
  20
4481944.500
  0
VERTEX
  8
LC_OH_2021_05_O7
  10
266369.500
  20
4481945.000
  0
SEQEND
  8
LC_OH_2021_05_O7
  0
INSERT
  8
FeatureAttribs
  2
FEATURE
  41
1
  42
1
  43
1
  50
0
  10
261554.431
  20
4479534.250
 66
1
  0
ATTRIB
  8
FeatureAttribs
 70
0
  1
PNOA-H_AMS_1956-57_33k_ES_PAN_21mic_H50_0553_fot_68B-47521_E.tif
  2
NAME
  10
261554.431
  20
4479534.250
 40
34.74396
  0
SEQEND
  0
POLYLINE
  8
LC_OH_2021_05_O7
  70
1
  66
1
  0
VERTEX
  8
LC_OH_2021_05_O7
  10
260566.500
  20
4482046.000
  0
VERTEX
  8
LC_OH_2021_05_O7
  10
263054.000
  20
4481818.500
  0
VERTEX
  8
LC_OH_2021_05_O7
  10
263028.500
  20
4477279.000
  0
VERTEX
  8
LC_OH_2021_05_O7
  10
260942.000
  20
4477022.500
  0
VERTEX
  8
LC_OH_2021_05_O7
  10
260074.500
  20
4477485.000
  0
VERTEX
  8
LC_OH_2021_05_O7
  10
260060.000
  20
4481832.000
  0
VERTEX
  8
LC_OH_2021_05_O7
  10
260565.500
  20
4482045.500
  0
VERTEX
  8
LC_OH_2021_05_O7
  10
260566.500
  20
4482046.000
  0
SEQEND
  8
LC_OH_2021_05_O7
  0
INSERT
  8
FeatureAttribs
  2
FEATURE
  41
1
  42
1
  43
1
  50
0
  10
264464.333
  20
4479472.749
 66
1
  0
ATTRIB
  8
FeatureAttribs
 70
0
  1
PNOA-H_AMS_1956-57_33k_ES_PAN_21mic_H50_0553_fot_68B-47522_E.tif
  2
NAME
  10
264464.333
  20
4479472.749
 40
34.74396
  0
SEQEND
  0
POLYLINE
  8
LC_OH_2021_05_O7
  70
1
  66
1
  0
VERTEX
  8
LC_OH_2021_05_O7
  10
265327.500
  20
4481797.500
  0
VERTEX
  8
LC_OH_2021_05_O7
  10
265901.500
  20
4481750.000
  0
VERTEX
  8
LC_OH_2021_05_O7
  10
265874.000
  20
4477173.500
  0
VERTEX
  8
LC_OH_2021_05_O7
  10
263507.000
  20
4476985.000
  0
VERTEX
  8
LC_OH_2021_05_O7
  10
263028.500
  20
4477279.000
  0
VERTEX
  8
LC_OH_2021_05_O7
  10
263054.000
  20
4481819.000
  0
VERTEX
  8
LC_OH_2021_05_O7
  10
263368.500
  20
4481960.000
  0
VERTEX
  8
LC_OH_2021_05_O7
  10
263374.500
  20
4481960.500
  0
VERTEX
  8
LC_OH_2021_05_O7
  10
265321.000
  20
4481798.000
  0
VERTEX
  8
LC_OH_2021_05_O7
  10
265327.500
  20
4481797.500
  0
SEQEND
  8
LC_OH_2021_05_O7
  0
INSERT
  8
FeatureAttribs
  2
FEATURE
  41
1
  42
1
  43
1
  50
0
  10
273021.204
  20
4479247.749
 66
1
  0
ATTRIB
  8
FeatureAttribs
 70
0
  1
PNOA-H_AMS_1956-57_33k_ES_PAN_21mic_H50_0553_fot_68B-47525_E.tif
  2
NAME
  10
273021.204
  20
4479247.749
 40
34.74396
  0
SEQEND
  0
POLYLINE
  8
LC_OH_2021_05_O7
  70
1
  66
1
  0
VERTEX
  8
LC_OH_2021_05_O7
  10
273519.501
  20
4481463.000
  0
VERTEX
  8
LC_OH_2021_05_O7
  10
274464.501
  20
4481275.000
  0
VERTEX
  8
LC_OH_2021_05_O7
  10
274431.501
  20
4476951.000
  0
VERTEX
  8
LC_OH_2021_05_O7
  10
274141.001
  20
4476795.500
  0
VERTEX
  8
LC_OH_2021_05_O7
  10
271657.501
  20
4476899.000
  0
VERTEX
  8
LC_OH_2021_05_O7
  10
271511.001
  20
4476994.500
  0
VERTEX
  8
LC_OH_2021_05_O7
  10
271511.001
  20
4477007.000
  0
VERTEX
  8
LC_OH_2021_05_O7
  10
271674.001
  20
4481442.000
  0
VERTEX
  8
LC_OH_2021_05_O7
  10
272329.001
  20
4481700.000
  0
VERTEX
  8
LC_OH_2021_05_O7
  10
273517.001
  20
4481463.500
  0
VERTEX
  8
LC_OH_2021_05_O7
  10
273519.501
  20
4481463.000
  0
SEQEND
  8
LC_OH_2021_05_O7
  0
INSERT
  8
FeatureAttribs
  2
FEATURE
  41
1
  42
1
  43
1
  50
0
  10
270140.722
  20
4479374.500
 66
1
  0
ATTRIB
  8
FeatureAttribs
 70
0
  1
PNOA-H_AMS_1956-57_33k_ES_PAN_21mic_H50_0553_fot_68B-47524_E.tif
  2
NAME
  10
270140.722
  20
4479374.500
 40
34.74396
  0
SEQEND
  0
POLYLINE
  8
LC_OH_2021_05_O7
  70
1
  66
1
  0
VERTEX
  8
LC_OH_2021_05_O7
  10
269423.500
  20
4481831.000
  0
VERTEX
  8
LC_OH_2021_05_O7
  10
271674.001
  20
4481442.000
  0
VERTEX
  8
LC_OH_2021_05_O7
  10
271511.001
  20
4476995.000
  0
VERTEX
  8
LC_OH_2021_05_O7
  10
269159.000
  20
4476900.500
  0
VERTEX
  8
LC_OH_2021_05_O7
  10
269151.500
  20
4476900.500
  0
VERTEX
  8
LC_OH_2021_05_O7
  10
269148.500
  20
4476902.000
  0
VERTEX
  8
LC_OH_2021_05_O7
  10
268653.000
  20
4477184.500
  0
VERTEX
  8
LC_OH_2021_05_O7
  10
268714.000
  20
4481605.000
  0
VERTEX
  8
LC_OH_2021_05_O7
  10
269321.500
  20
4481848.500
  0
VERTEX
  8
LC_OH_2021_05_O7
  10
269421.000
  20
4481831.000
  0
VERTEX
  8
LC_OH_2021_05_O7
  10
269423.500
  20
4481831.000
  0
SEQEND
  8
LC_OH_2021_05_O7
  0
INSERT
  8
FeatureAttribs
  2
FEATURE
  41
1
  42
1
  43
1
  50
0
  10
258576.187
  20
4479549.250
 66
1
  0
ATTRIB
  8
FeatureAttribs
 70
0
  1
PNOA-H_AMS_1956-57_33k_ES_PAN_21mic_H50_0553_fot_68B-47520_E.tif
  2
NAME
  10
258576.187
  20
4479549.250
 40
34.74396
  0
SEQEND
  0
POLYLINE
  8
LC_OH_2021_05_O7
  70
1
  66
1
  0
VERTEX
  8
LC_OH_2021_05_O7
  10
257973.929
  20
4482049.371
  0
VERTEX
  8
LC_OH_2021_05_O7
  10
259182.000
  20
4481923.000
  0
VERTEX
  8
LC_OH_2021_05_O7
  10
259183.500
  20
4481923.000
  0
VERTEX
  8
LC_OH_2021_05_O7
  10
260060.000
  20
4481831.500
  0
VERTEX
  8
LC_OH_2021_05_O7
  10
260074.500
  20
4477485.000
  0
VERTEX
  8
LC_OH_2021_05_O7
  10
258088.500
  20
4477016.500
  0
VERTEX
  8
LC_OH_2021_05_O7
  10
257816.240
  20
4477172.428
  0
VERTEX
  8
LC_OH_2021_05_O7
  10
257840.304
  20
4477917.072
  0
VERTEX
  8
LC_OH_2021_05_O7
  10
257915.083
  20
4480230.001
  0
SEQEND
  8
LC_OH_2021_05_O7
  0
INSERT
  8
FeatureAttribs
  2
FEATURE
  41
1
  42
1
  43
1
  50
0
  10
278507.180
  20
4479120.249
 66
1
  0
ATTRIB
  8
FeatureAttribs
 70
0
  1
PNOA-H_AMS_1956-57_33k_ES_PAN_21mic_H50_0553_fot_68B-47527_E.tif
  2
NAME
  10
278507.180
  20
4479120.249
 40
34.74396
  0
SEQEND
  0
POLYLINE
  8
LC_OH_2021_05_O7
  70
1
  66
1
  0
VERTEX
  8
LC_OH_2021_05_O7
  10
277615.001
  20
4481353.500
  0
VERTEX
  8
LC_OH_2021_05_O7
  10
278276.001
  20
4481586.500
  0
VERTEX
  8
LC_OH_2021_05_O7
  10
280794.001
  20
4477384.500
  0
VERTEX
  8
LC_OH_2021_05_O7
  10
279318.501
  20
4476654.000
  0
VERTEX
  8
LC_OH_2021_05_O7
  10
277325.001
  20
4477001.000
  0
VERTEX
  8
LC_OH_2021_05_O7
  10
277197.001
  20
4481205.500
  0
VERTEX
  8
LC_OH_2021_05_O7
  10
277613.501
  20
4481353.000
  0
VERTEX
  8
LC_OH_2021_05_O7
  10
277615.001
  20
4481353.500
  0
SEQEND
  8
LC_OH_2021_05_O7
  0
INSERT
  8
FeatureAttribs
  2
FEATURE
  41
1
  42
1
  43
1
  50
0
  10
283820.188
  20
4486241.025
 66
1
  0
ATTRIB
  8
FeatureAttribs
 70
0
  1
PNOA-H_AMS_1956-57_33k_ES_PAN_21mic_H50_0528_fot_66A-18855_E.tif
  2
NAME
  10
283820.188
  20
4486241.025
 40
34.74396
  0
SEQEND
  0
POLYLINE
  8
LC_OH_2021_05_O7
  70
1
  66
1
  0
VERTEX
  8
LC_OH_2021_05_O7
  10
285042.674
  20
4486346.441
  0
VERTEX
  8
LC_OH_2021_05_O7
  10
285039.001
  20
4486309.500
  0
VERTEX
  8
LC_OH_2021_05_O7
  10
284370.001
  20
4486065.000
  0
VERTEX
  8
LC_OH_2021_05_O7
  10
282597.702
  20
4486417.050
  0
VERTEX
  8
LC_OH_2021_05_O7
  10
282858.025
  20
4486409.422
  0
SEQEND
  8
LC_OH_2021_05_O7
  0
INSERT
  8
FeatureAttribs
  2
FEATURE
  41
1
  42
1
  43
1
  50
0
  10
285714.076
  20
4486205.749
 66
1
  0
ATTRIB
  8
FeatureAttribs
 70
0
  1
PNOA-H_AMS_1956-57_33k_ES_PAN_21mic_H50_0528_fot_66A-18854_E.tif
  2
NAME
  10
285714.076
  20
4486205.749
 40
34.74396
  0
SEQEND
  0
POLYLINE
  8
LC_OH_2021_05_O7
  70
1
  66
1
  0
VERTEX
  8
LC_OH_2021_05_O7
  10
286382.218
  20
4486065.057
  0
VERTEX
  8
LC_OH_2021_05_O7
  10
285039.001
  20
4486309.500
  0
VERTEX
  8
LC_OH_2021_05_O7
  10
285042.671
  20
4486346.441
  0
VERTEX
  8
LC_OH_2021_05_O7
  10
286389.152
  20
4486307.624
  0
SEQEND
  8
LC_OH_2021_05_O7
  0
INSERT
  8
FeatureAttribs
  2
FEATURE
  41
1
  42
1
  43
1
  50
0
  10
275518.016
  20
4486514.146
 66
1
  0
ATTRIB
  8
FeatureAttribs
 70
0
  1
PNOA-H_AMS_1956-57_33k_ES_PAN_21mic_H50_0528_fot_66A-18858_E.tif
  2
NAME
  10
275518.016
  20
4486514.146
 40
34.74396
  0
SEQEND
  0
POLYLINE
  8
LC_OH_2021_05_O7
  70
1
  66
1
  0
VERTEX
  8
LC_OH_2021_05_O7
  10
276438.962
  20
4486598.881
  0
VERTEX
  8
LC_OH_2021_05_O7
  10
275616.001
  20
4486374.000
  0
VERTEX
  8
LC_OH_2021_05_O7
  10
274597.069
  20
4486654.291
  0
VERTEX
  8
LC_OH_2021_05_O7
  10
275795.716
  20
4486618.034
  0
SEQEND
  8
LC_OH_2021_05_O7
  0
INSERT
  8
FeatureAttribs
  2
FEATURE
  41
1
  42
1
  43
1
  50
0
  10
281001.248
  20
4486326.998
 66
1
  0
ATTRIB
  8
FeatureAttribs
 70
0
  1
PNOA-H_AMS_1956-57_33k_ES_PAN_21mic_H50_0528_fot_66A-18856_E.tif
  2
NAME
  10
281001.248
  20
4486326.998
 40
34.74396
  0
SEQEND
  0
POLYLINE
  8
LC_OH_2021_05_O7
  70
1
  66
1
  0
VERTEX
  8
LC_OH_2021_05_O7
  10
282286.713
  20
4486426.163
  0
VERTEX
  8
LC_OH_2021_05_O7
  10
281491.001
  20
4486153.500
  0
VERTEX
  8
LC_OH_2021_05_O7
  10
281485.001
  20
4486152.500
  0
VERTEX
  8
LC_OH_2021_05_O7
  10
279715.782
  20
4486501.496
  0
SEQEND
  8
LC_OH_2021_05_O7
  0
INSERT
  8
FeatureAttribs
  2
FEATURE
  41
1
  42
1
  43
1
  50
0
  10
272678.443
  20
4486648.911
 66
1
  0
ATTRIB
  8
FeatureAttribs
 70
0
  1
PNOA-H_AMS_1956-57_33k_ES_PAN_21mic_H50_0528_fot_66A-18859_E.tif
  2
NAME
  10
272678.443
  20
4486648.911
 40
34.74396
  0
SEQEND
  0
POLYLINE
  8
LC_OH_2021_05_O7
  70
1
  66
1
  0
VERTEX
  8
LC_OH_2021_05_O7
  10
273189.193
  20
4486696.878
  0
VERTEX
  8
LC_OH_2021_05_O7
  10
272720.001
  20
4486570.000
  0
VERTEX
  8
LC_OH_2021_05_O7
  10
272167.692
  20
4486727.823
  0
VERTEX
  8
LC_OH_2021_05_O7
  10
272264.534
  20
4486724.847
  0
SEQEND
  8
LC_OH_2021_05_O7
  0
INSERT
  8
FeatureAttribs
  2
FEATURE
  41
1
  42
1
  43
1
  50
0
  10
278346.857
  20
4486418.626
 66
1
  0
ATTRIB
  8
FeatureAttribs
 70
0
  1
PNOA-H_AMS_1956-57_33k_ES_PAN_21mic_H50_0528_fot_66A-18857_E.tif
  2
NAME
  10
278346.857
  20
4486418.626
 40
34.74396
  0
SEQEND
  0
POLYLINE
  8
LC_OH_2021_05_O7
  70
1
  66
1
  0
VERTEX
  8
LC_OH_2021_05_O7
  10
279360.447
  20
4486511.909
  0
VERTEX
  8
LC_OH_2021_05_O7
  10
278566.501
  20
4486265.000
  0
VERTEX
  8
LC_OH_2021_05_O7
  10
277333.266
  20
4486572.253
  0
VERTEX
  8
LC_OH_2021_05_O7
  10
279326.880
  20
4486512.892
  0
SEQEND
  8
LC_OH_2021_05_O7
  0
INSERT
  8
FeatureAttribs
  2
FEATURE
  41
1
  42
1
  43
1
  50
0
  10
285587.225
  20
4479446.751
 66
1
  0
ATTRIB
  8
FeatureAttribs
 70
0
  1
PNOA-H_AMS_1956-57_33k_ES_PAN_21mic_H50_0553_fot_68C-27865_W.tif
  2
NAME
  10
285587.225
  20
4479446.751
 40
34.74396
  0
SEQEND
  0
POLYLINE
  8
LC_OH_2021_05_O7
  70
1
  66
1
  0
VERTEX
  8
LC_OH_2021_05_O7
  10
286257.568
  20
4481703.561
  0
VERTEX
  8
LC_OH_2021_05_O7
  10
286256.950
  20
4481681.936
  0
VERTEX
  8
LC_OH_2021_05_O7
  10
286190.891
  20
4479369.102
  0
VERTEX
  8
LC_OH_2021_05_O7
  10
286133.073
  20
4477343.923
  0
VERTEX
  8
LC_OH_2021_05_O7
  10
286015.501
  20
4477276.000
  0
VERTEX
  8
LC_OH_2021_05_O7
  10
285022.001
  20
4477088.000
  0
VERTEX
  8
LC_OH_2021_05_O7
  10
284173.001
  20
4477416.000
  0
VERTEX
  8
LC_OH_2021_05_O7
  10
284303.001
  20
4481798.000
  0
VERTEX
  8
LC_OH_2021_05_O7
  10
284303.001
  20
4481805.500
  0
SEQEND
  8
LC_OH_2021_05_O7
  0
INSERT
  8
FeatureAttribs
  2
FEATURE
  41
1
  42
1
  43
1
  50
0
  10
280508.068
  20
4479686.001
 66
1
  0
ATTRIB
  8
FeatureAttribs
 70
0
  1
PNOA-H_AMS_1956-57_33k_ES_PAN_21mic_H50_0553_fot_68C-27867_W.tif
  2
NAME
  10
280508.068
  20
4479686.001
 40
34.74396
  0
SEQEND
  0
POLYLINE
  8
LC_OH_2021_05_O7
  70
1
  66
1
  0
VERTEX
  8
LC_OH_2021_05_O7
  10
281525.001
  20
4477630.500
  0
VERTEX
  8
LC_OH_2021_05_O7
  10
281518.501
  20
4477454.000
  0
VERTEX
  8
LC_OH_2021_05_O7
  10
280793.501
  20
4477384.500
  0
VERTEX
  8
LC_OH_2021_05_O7
  10
278275.501
  20
4481586.500
  0
VERTEX
  8
LC_OH_2021_05_O7
  10
278460.001
  20
4481749.000
  0
VERTEX
  8
LC_OH_2021_05_O7
  10
281389.501
  20
4481987.500
  0
VERTEX
  8
LC_OH_2021_05_O7
  10
281391.501
  20
4481987.500
  0
VERTEX
  8
LC_OH_2021_05_O7
  10
281395.501
  20
4481985.000
  0
VERTEX
  8
LC_OH_2021_05_O7
  10
281680.501
  20
4481787.500
  0
VERTEX
  8
LC_OH_2021_05_O7
  10
281525.001
  20
4477636.000
  0
VERTEX
  8
LC_OH_2021_05_O7
  10
281525.001
  20
4477630.500
  0
SEQEND
  8
LC_OH_2021_05_O7
  0
INSERT
  8
FeatureAttribs
  2
FEATURE
  41
1
  42
1
  43
1
  50
0
  10
282914.893
  20
4479500.001
 66
1
  0
ATTRIB
  8
FeatureAttribs
 70
0
  1
PNOA-H_AMS_1956-57_33k_ES_PAN_21mic_H50_0553_fot_68C-27866_W.tif
  2
NAME
  10
282914.893
  20
4479500.001
 40
34.74396
  0
SEQEND
  0
POLYLINE
  8
LC_OH_2021_05_O7
  70
1
  66
1
  0
VERTEX
  8
LC_OH_2021_05_O7
  10
284252.501
  20
4481830.500
  0
VERTEX
  8
LC_OH_2021_05_O7
  10
284272.001
  20
4481830.000
  0
VERTEX
  8
LC_OH_2021_05_O7
  10
284303.001
  20
4481805.500
  0
VERTEX
  8
LC_OH_2021_05_O7
  10
284303.001
  20
4481798.000
  0
VERTEX
  8
LC_OH_2021_05_O7
  10
284173.001
  20
4477416.500
  0
VERTEX
  8
LC_OH_2021_05_O7
  10
282244.501
  20
4477169.500
  0
VERTEX
  8
LC_OH_2021_05_O7
  10
282239.001
  20
4477169.500
  0
VERTEX
  8
LC_OH_2021_05_O7
  10
282230.001
  20
4477173.000
  0
VERTEX
  8
LC_OH_2021_05_O7
  10
281518.501
  20
4477454.000
  0
VERTEX
  8
LC_OH_2021_05_O7
  10
281680.501
  20
4481787.500
  0
VERTEX
  8
LC_OH_2021_05_O7
  10
284222.501
  20
4481830.000
  0
VERTEX
  8
LC_OH_2021_05_O7
  10
284252.501
  20
4481830.500
  0
SEQEND
  8
LC_OH_2021_05_O7
  0
INSERT
  8
FeatureAttribs
  2
FEATURE
  41
1
  42
1
  43
1
  50
0
  10
283194.469
  20
4468211.580
 66
1
  0
ATTRIB
  8
FeatureAttribs
 70
0
  1
PNOA-H_AMS_1956-57_33k_ES_PAN_21mic_H50_0576_fot_71C-29344_E.tif
  2
NAME
  10
283194.469
  20
4468211.580
 40
34.74396
  0
SEQEND
  0
POLYLINE
  8
LC_OH_2021_05_O7
  70
1
  66
1
  0
VERTEX
  8
LC_OH_2021_05_O7
  10
283733.398
  20
4467866.161
  0
VERTEX
  8
LC_OH_2021_05_O7
  10
282655.539
  20
4467897.128
  0
VERTEX
  8
LC_OH_2021_05_O7
  10
282676.501
  20
4468422.500
  0
VERTEX
  8
LC_OH_2021_05_O7
  10
283648.001
  20
4468557.000
  0
SEQEND
  8
LC_OH_2021_05_O7
  0
INSERT
  8
FeatureAttribs
  2
FEATURE
  41
1
  42
1
  43
1
  50
0
  10
285607.654
  20
4468143.947
 66
1
  0
ATTRIB
  8
FeatureAttribs
 70
0
  1
PNOA-H_AMS_1956-57_33k_ES_PAN_21mic_H50_0577_fot_71C-29345_E.tif
  2
NAME
  10
285607.654
  20
4468143.947
 40
34.74396
  0
SEQEND
  0
POLYLINE
  8
LC_OH_2021_05_O7
  70
1
  66
1
  0
VERTEX
  8
LC_OH_2021_05_O7
  10
285880.342
  20
4468482.862
  0
VERTEX
  8
LC_OH_2021_05_O7
  10
285861.023
  20
4467805.033
  0
VERTEX
  8
LC_OH_2021_05_O7
  10
285334.967
  20
4467820.147
  0
VERTEX
  8
LC_OH_2021_05_O7
  10
285399.001
  20
4468444.500
  0
VERTEX
  8
LC_OH_2021_05_O7
  10
285876.001
  20
4468482.500
  0
SEQEND
  8
LC_OH_2021_05_O7
  0
ENDSEC
  0
EOF
