  0
SECTION
  2
HEADER
  9
$ACADVER
  1
AC1009
  9
$LUNITS
  70
2
  9
$LIMMIN
  10
229220.658
  20
4468665.422
  9
$LIMMAX
  10
258139.611
  20
4488137.072
  9
$EXTMIN
  10
229220.658
  20
4468665.422
  9
$EXTMAX
  10
258139.611
  20
4488137.072
  999
Created by Global Mapper
  999
Projection: UTM
  999
Datum: ETRS89
  999
Ground Units: meters
  999
ZONE: 30
  0
ENDSEC
  0
SECTION
  2
TABLES
  0
ENDSEC
  0
SECTION
  2
BLOCKS
  0
BLOCK
  8
FeatureAttribs
  70
0
  2
FEATURE
  3
FEATURE
  10
0.00000000
  20
0.00000000
  0
ATTDEF
  8
FeatureAttribs
  70
0
  1
 
  2
NAME
  3
NAME
  10
0.00000000
  20
0.00000000
  40
1.00000000
  0
ENDBLK
  0
ENDSEC
  0
SECTION
  2
ENTITIES
  0
INSERT
  8
FeatureAttribs
  2
FEATURE
  41
1
  42
1
  43
1
  50
0
  10
256487.311
  20
4468932.072
 66
1
  0
ATTRIB
  8
FeatureAttribs
 70
0
  1
PNOA-H_AMS_1956-57_33k_ES_PAN_21mic_H50_0575_fot_71B-22055_W.tif
  2
NAME
  10
256487.311
  20
4468932.072
 40
34.86332
  0
SEQEND
  0
POLYLINE
  8
LC_OH_2021_05_O7
  70
1
  66
1
  0
VERTEX
  8
LC_OH_2021_05_O7
  10
257558.724
  20
4469198.722
  0
VERTEX
  8
LC_OH_2021_05_O7
  10
257541.511
  20
4468665.422
  0
VERTEX
  8
LC_OH_2021_05_O7
  10
255415.899
  20
4468734.514
  0
VERTEX
  8
LC_OH_2021_05_O7
  10
255428.000
  20
4468919.500
  0
SEQEND
  8
LC_OH_2021_05_O7
  0
INSERT
  8
FeatureAttribs
  2
FEATURE
  41
1
  42
1
  43
1
  50
0
  10
248656.636
  20
4469334.583
 66
1
  0
ATTRIB
  8
FeatureAttribs
 70
0
  1
PNOA-H_AMS_1956-57_33k_ES_PAN_21mic_H50_0575_fot_000-22058_R.tif
  2
NAME
  10
248656.636
  20
4469334.583
 40
34.86332
  0
SEQEND
  0
POLYLINE
  8
LC_OH_2021_05_O7
  70
1
  66
1
  0
VERTEX
  8
LC_OH_2021_05_O7
  10
250014.785
  20
4468912.166
  0
VERTEX
  8
LC_OH_2021_05_O7
  10
247277.773
  20
4469003.715
  0
VERTEX
  8
LC_OH_2021_05_O7
  10
247299.500
  20
4469327.000
  0
VERTEX
  8
LC_OH_2021_05_O7
  10
248864.000
  20
4469756.500
  0
VERTEX
  8
LC_OH_2021_05_O7
  10
248865.500
  20
4469757.000
  0
VERTEX
  8
LC_OH_2021_05_O7
  10
248868.000
  20
4469757.000
  0
VERTEX
  8
LC_OH_2021_05_O7
  10
248881.000
  20
4469750.500
  0
VERTEX
  8
LC_OH_2021_05_O7
  10
250035.500
  20
4469162.000
  0
SEQEND
  8
LC_OH_2021_05_O7
  0
INSERT
  8
FeatureAttribs
  2
FEATURE
  41
1
  42
1
  43
1
  50
0
  10
251346.663
  20
4469189.712
 66
1
  0
ATTRIB
  8
FeatureAttribs
 70
0
  1
PNOA-H_AMS_1956-57_33k_ES_PAN_21mic_H50_0575_fot_000-22057_R.tif
  2
NAME
  10
251346.663
  20
4469189.712
 40
34.86332
  0
SEQEND
  0
POLYLINE
  8
LC_OH_2021_05_O7
  70
1
  66
1
  0
VERTEX
  8
LC_OH_2021_05_O7
  10
252669.140
  20
4468824.424
  0
VERTEX
  8
LC_OH_2021_05_O7
  10
250461.430
  20
4468897.227
  0
VERTEX
  8
LC_OH_2021_05_O7
  10
250014.827
  20
4468912.165
  0
VERTEX
  8
LC_OH_2021_05_O7
  10
250035.500
  20
4469161.500
  0
VERTEX
  8
LC_OH_2021_05_O7
  10
251762.000
  20
4469554.500
  0
VERTEX
  8
LC_OH_2021_05_O7
  10
251764.500
  20
4469555.000
  0
VERTEX
  8
LC_OH_2021_05_O7
  10
252678.500
  20
4469047.000
  0
SEQEND
  8
LC_OH_2021_05_O7
  0
INSERT
  8
FeatureAttribs
  2
FEATURE
  41
1
  42
1
  43
1
  50
0
  10
254048.580
  20
4469060.507
 66
1
  0
ATTRIB
  8
FeatureAttribs
 70
0
  1
PNOA-H_AMS_1956-57_33k_ES_PAN_21mic_H50_0575_fot_000-22056_R.tif
  2
NAME
  10
254048.580
  20
4469060.507
 40
34.86332
  0
SEQEND
  0
POLYLINE
  8
LC_OH_2021_05_O7
  70
1
  66
1
  0
VERTEX
  8
LC_OH_2021_05_O7
  10
255415.899
  20
4468734.514
  0
VERTEX
  8
LC_OH_2021_05_O7
  10
254001.481
  20
4468780.488
  0
VERTEX
  8
LC_OH_2021_05_O7
  10
252669.160
  20
4468824.424
  0
VERTEX
  8
LC_OH_2021_05_O7
  10
252678.500
  20
4469046.500
  0
VERTEX
  8
LC_OH_2021_05_O7
  10
253033.500
  20
4469108.000
  0
VERTEX
  8
LC_OH_2021_05_O7
  10
253036.500
  20
4469108.500
  0
VERTEX
  8
LC_OH_2021_05_O7
  10
254656.000
  20
4469386.500
  0
VERTEX
  8
LC_OH_2021_05_O7
  10
255428.000
  20
4468919.500
  0
SEQEND
  8
LC_OH_2021_05_O7
  0
INSERT
  8
FeatureAttribs
  2
FEATURE
  41
1
  42
1
  43
1
  50
0
  10
243127.943
  20
4469606.106
 66
1
  0
ATTRIB
  8
FeatureAttribs
 70
0
  1
PNOA-H_AMS_1956-57_33k_ES_PAN_21mic_H50_0575_fot_000-22060_R.tif
  2
NAME
  10
243127.943
  20
4469606.106
 40
34.86332
  0
SEQEND
  0
POLYLINE
  8
LC_OH_2021_05_O7
  70
1
  66
1
  0
VERTEX
  8
LC_OH_2021_05_O7
  10
244501.694
  20
4469097.712
  0
VERTEX
  8
LC_OH_2021_05_O7
  10
243381.262
  20
4469135.717
  0
VERTEX
  8
LC_OH_2021_05_O7
  10
241729.386
  20
4469192.529
  0
VERTEX
  8
LC_OH_2021_05_O7
  10
241779.000
  20
4469674.000
  0
VERTEX
  8
LC_OH_2021_05_O7
  10
243090.500
  20
4470114.500
  0
VERTEX
  8
LC_OH_2021_05_O7
  10
244526.500
  20
4469472.500
  0
SEQEND
  8
LC_OH_2021_05_O7
  0
INSERT
  8
FeatureAttribs
  2
FEATURE
  41
1
  42
1
  43
1
  50
0
  10
240350.034
  20
4469691.500
 66
1
  0
ATTRIB
  8
FeatureAttribs
 70
0
  1
PNOA-H_AMS_1956-57_33k_ES_PAN_21mic_H50_0575_fot_000-22061_R.tif
  2
NAME
  10
240350.034
  20
4469691.500
 40
34.86332
  0
SEQEND
  0
POLYLINE
  8
LC_OH_2021_05_O7
  70
1
  66
1
  0
VERTEX
  8
LC_OH_2021_05_O7
  10
241729.386
  20
4469192.529
  0
VERTEX
  8
LC_OH_2021_05_O7
  10
239841.145
  20
4469257.470
  0
VERTEX
  8
LC_OH_2021_05_O7
  10
238915.033
  20
4469289.758
  0
VERTEX
  8
LC_OH_2021_05_O7
  10
238987.500
  20
4469930.500
  0
VERTEX
  8
LC_OH_2021_05_O7
  10
240250.000
  20
4470353.000
  0
VERTEX
  8
LC_OH_2021_05_O7
  10
241779.000
  20
4469674.000
  0
SEQEND
  8
LC_OH_2021_05_O7
  0
INSERT
  8
FeatureAttribs
  2
FEATURE
  41
1
  42
1
  43
1
  50
0
  10
237590.539
  20
4469873.500
 66
1
  0
ATTRIB
  8
FeatureAttribs
 70
0
  1
PNOA-H_AMS_1956-57_33k_ES_PAN_21mic_H50_0575_fot_000-22062_R.tif
  2
NAME
  10
237590.539
  20
4469873.500
 40
34.86332
  0
SEQEND
  0
POLYLINE
  8
LC_OH_2021_05_O7
  70
1
  66
1
  0
VERTEX
  8
LC_OH_2021_05_O7
  10
238915.151
  20
4469289.754
  0
VERTEX
  8
LC_OH_2021_05_O7
  10
236301.006
  20
4469380.894
  0
VERTEX
  8
LC_OH_2021_05_O7
  10
236200.000
  20
4469384.463
  0
VERTEX
  8
LC_OH_2021_05_O7
  10
236200.000
  20
4470264.872
  0
VERTEX
  8
LC_OH_2021_05_O7
  10
236653.000
  20
4470445.000
  0
VERTEX
  8
LC_OH_2021_05_O7
  10
236654.500
  20
4470445.500
  0
VERTEX
  8
LC_OH_2021_05_O7
  10
237338.000
  20
4470717.000
  0
VERTEX
  8
LC_OH_2021_05_O7
  10
238987.500
  20
4469930.500
  0
SEQEND
  8
LC_OH_2021_05_O7
  0
INSERT
  8
FeatureAttribs
  2
FEATURE
  41
1
  42
1
  43
1
  50
0
  10
245900.597
  20
4469477.107
 66
1
  0
ATTRIB
  8
FeatureAttribs
 70
0
  1
PNOA-H_AMS_1956-57_33k_ES_PAN_21mic_H50_0575_fot_000-22059_R.tif
  2
NAME
  10
245900.597
  20
4469477.107
 40
34.86332
  0
SEQEND
  0
POLYLINE
  8
LC_OH_2021_05_O7
  70
1
  66
1
  0
VERTEX
  8
LC_OH_2021_05_O7
  10
247277.773
  20
4469003.715
  0
VERTEX
  8
LC_OH_2021_05_O7
  10
246921.357
  20
4469015.636
  0
VERTEX
  8
LC_OH_2021_05_O7
  10
244501.694
  20
4469097.712
  0
VERTEX
  8
LC_OH_2021_05_O7
  10
244526.500
  20
4469472.500
  0
VERTEX
  8
LC_OH_2021_05_O7
  10
245968.000
  20
4469950.500
  0
VERTEX
  8
LC_OH_2021_05_O7
  10
245971.000
  20
4469950.500
  0
VERTEX
  8
LC_OH_2021_05_O7
  10
245978.500
  20
4469947.000
  0
VERTEX
  8
LC_OH_2021_05_O7
  10
247299.500
  20
4469327.000
  0
SEQEND
  8
LC_OH_2021_05_O7
  0
INSERT
  8
FeatureAttribs
  2
FEATURE
  41
1
  42
1
  43
1
  50
0
  10
234200.975
  20
4485822.499
 66
1
  0
ATTRIB
  8
FeatureAttribs
 70
0
  1
PNOA-H_AMS_1956-57_33k_ES_PAN_21mic_H50_0552_fot_67A-44257_E.tif
  2
NAME
  10
234200.975
  20
4485822.499
 40
34.86332
  0
SEQEND
  0
POLYLINE
  8
LC_OH_2021_05_O7
  70
1
  66
1
  0
VERTEX
  8
LC_OH_2021_05_O7
  10
235451.757
  20
4487938.150
  0
VERTEX
  8
LC_OH_2021_05_O7
  10
235475.500
  20
4483468.500
  0
VERTEX
  8
LC_OH_2021_05_O7
  10
233679.000
  20
4483178.000
  0
VERTEX
  8
LC_OH_2021_05_O7
  10
232842.500
  20
4483562.500
  0
VERTEX
  8
LC_OH_2021_05_O7
  10
233032.880
  20
4488024.101
  0
VERTEX
  8
LC_OH_2021_05_O7
  10
233420.210
  20
4488010.184
  0
SEQEND
  8
LC_OH_2021_05_O7
  0
INSERT
  8
FeatureAttribs
  2
FEATURE
  41
1
  42
1
  43
1
  50
0
  10
239344.952
  20
4485861.501
 66
1
  0
ATTRIB
  8
FeatureAttribs
 70
0
  1
PNOA-H_AMS_1956-57_33k_ES_PAN_21mic_H50_0552_fot_67A-44259_E.tif
  2
NAME
  10
239344.952
  20
4485861.501
 40
34.86332
  0
SEQEND
  0
POLYLINE
  8
LC_OH_2021_05_O7
  70
1
  66
1
  0
VERTEX
  8
LC_OH_2021_05_O7
  10
240689.397
  20
4487754.306
  0
VERTEX
  8
LC_OH_2021_05_O7
  10
240614.000
  20
4483454.500
  0
VERTEX
  8
LC_OH_2021_05_O7
  10
238667.500
  20
4483167.500
  0
VERTEX
  8
LC_OH_2021_05_O7
  10
238285.500
  20
4483298.000
  0
VERTEX
  8
LC_OH_2021_05_O7
  10
238058.000
  20
4483430.500
  0
VERTEX
  8
LC_OH_2021_05_O7
  10
238013.827
  20
4487847.810
  0
VERTEX
  8
LC_OH_2021_05_O7
  10
240483.002
  20
4487761.429
  0
SEQEND
  8
LC_OH_2021_05_O7
  0
INSERT
  8
FeatureAttribs
  2
FEATURE
  41
1
  42
1
  43
1
  50
0
  10
236747.298
  20
4485984.250
 66
1
  0
ATTRIB
  8
FeatureAttribs
 70
0
  1
PNOA-H_AMS_1956-57_33k_ES_PAN_21mic_H50_0552_fot_67A-44258_E.tif
  2
NAME
  10
236747.298
  20
4485984.250
 40
34.86332
  0
SEQEND
  0
POLYLINE
  8
LC_OH_2021_05_O7
  70
1
  66
1
  0
VERTEX
  8
LC_OH_2021_05_O7
  10
238013.827
  20
4487847.810
  0
VERTEX
  8
LC_OH_2021_05_O7
  10
238058.000
  20
4483430.500
  0
VERTEX
  8
LC_OH_2021_05_O7
  10
235562.500
  20
4483433.500
  0
VERTEX
  8
LC_OH_2021_05_O7
  10
235475.500
  20
4483468.500
  0
VERTEX
  8
LC_OH_2021_05_O7
  10
235451.759
  20
4487938.150
  0
VERTEX
  8
LC_OH_2021_05_O7
  10
236951.617
  20
4487884.969
  0
SEQEND
  8
LC_OH_2021_05_O7
  0
INSERT
  8
FeatureAttribs
  2
FEATURE
  41
1
  42
1
  43
1
  50
0
  10
244825.763
  20
4485580.250
 66
1
  0
ATTRIB
  8
FeatureAttribs
 70
0
  1
PNOA-H_AMS_1956-57_33k_ES_PAN_21mic_H50_0552_fot_67A-44261_E.tif
  2
NAME
  10
244825.763
  20
4485580.250
 40
34.86332
  0
SEQEND
  0
POLYLINE
  8
LC_OH_2021_05_O7
  70
1
  66
1
  0
VERTEX
  8
LC_OH_2021_05_O7
  10
246382.818
  20
4487558.948
  0
VERTEX
  8
LC_OH_2021_05_O7
  10
246086.000
  20
4483054.500
  0
VERTEX
  8
LC_OH_2021_05_O7
  10
245457.500
  20
4482846.500
  0
VERTEX
  8
LC_OH_2021_05_O7
  10
245097.500
  20
4482733.500
  0
VERTEX
  8
LC_OH_2021_05_O7
  10
243318.000
  20
4483336.500
  0
VERTEX
  8
LC_OH_2021_05_O7
  10
243474.222
  20
4487658.202
  0
VERTEX
  8
LC_OH_2021_05_O7
  10
244014.366
  20
4487639.562
  0
SEQEND
  8
LC_OH_2021_05_O7
  0
INSERT
  8
FeatureAttribs
  2
FEATURE
  41
1
  42
1
  43
1
  50
0
  10
230133.330
  20
4485889.516
 66
1
  0
ATTRIB
  8
FeatureAttribs
 70
0
  1
PNOA-H_AMS_1956-57_33k_ES_PAN_21mic_H50_0551_fot_67A-44255_E.tif
  2
NAME
  10
230133.330
  20
4485889.516
 40
34.86332
  0
SEQEND
  0
POLYLINE
  8
LC_OH_2021_05_O7
  70
1
  66
1
  0
VERTEX
  8
LC_OH_2021_05_O7
  10
230540.390
  20
4488113.659
  0
VERTEX
  8
LC_OH_2021_05_O7
  10
230343.000
  20
4483694.500
  0
VERTEX
  8
LC_OH_2021_05_O7
  10
229726.269
  20
4483641.960
  0
VERTEX
  8
LC_OH_2021_05_O7
  10
229805.139
  20
4485824.012
  0
VERTEX
  8
LC_OH_2021_05_O7
  10
229888.780
  20
4488137.072
  0
SEQEND
  8
LC_OH_2021_05_O7
  0
INSERT
  8
FeatureAttribs
  2
FEATURE
  41
1
  42
1
  43
1
  50
0
  10
247683.974
  20
4485446.000
 66
1
  0
ATTRIB
  8
FeatureAttribs
 70
0
  1
PNOA-H_AMS_1956-57_33k_ES_PAN_21mic_H50_0552_fot_67A-44262_E.tif
  2
NAME
  10
247683.974
  20
4485446.000
 40
34.86332
  0
SEQEND
  0
POLYLINE
  8
LC_OH_2021_05_O7
  70
1
  66
1
  0
VERTEX
  8
LC_OH_2021_05_O7
  10
249203.112
  20
4487463.741
  0
VERTEX
  8
LC_OH_2021_05_O7
  10
249022.500
  20
4482851.000
  0
VERTEX
  8
LC_OH_2021_05_O7
  10
248168.000
  20
4482572.000
  0
VERTEX
  8
LC_OH_2021_05_O7
  10
246086.500
  20
4483055.000
  0
VERTEX
  8
LC_OH_2021_05_O7
  10
246382.913
  20
4487558.945
  0
VERTEX
  8
LC_OH_2021_05_O7
  10
247545.709
  20
4487519.368
  0
SEQEND
  8
LC_OH_2021_05_O7
  0
INSERT
  8
FeatureAttribs
  2
FEATURE
  41
1
  42
1
  43
1
  50
0
  10
242029.315
  20
4485733.750
 66
1
  0
ATTRIB
  8
FeatureAttribs
 70
0
  1
PNOA-H_AMS_1956-57_33k_ES_PAN_21mic_H50_0552_fot_67A-44260_E.tif
  2
NAME
  10
242029.315
  20
4485733.750
 40
34.86332
  0
SEQEND
  0
POLYLINE
  8
LC_OH_2021_05_O7
  70
1
  66
1
  0
VERTEX
  8
LC_OH_2021_05_O7
  10
243474.222
  20
4487658.202
  0
VERTEX
  8
LC_OH_2021_05_O7
  10
243318.000
  20
4483336.500
  0
VERTEX
  8
LC_OH_2021_05_O7
  10
241773.500
  20
4482957.500
  0
VERTEX
  8
LC_OH_2021_05_O7
  10
241769.000
  20
4482958.500
  0
VERTEX
  8
LC_OH_2021_05_O7
  10
241720.000
  20
4482979.500
  0
VERTEX
  8
LC_OH_2021_05_O7
  10
240614.000
  20
4483454.500
  0
VERTEX
  8
LC_OH_2021_05_O7
  10
240689.397
  20
4487754.306
  0
SEQEND
  8
LC_OH_2021_05_O7
  0
INSERT
  8
FeatureAttribs
  2
FEATURE
  41
1
  42
1
  43
1
  50
0
  10
257901.056
  20
4484613.593
 66
1
  0
ATTRIB
  8
FeatureAttribs
 70
0
  1
PNOA-H_AMS_1956-57_33k_ES_PAN_21mic_H50_0553_fot_67A-44266_E.tif
  2
NAME
  10
257901.056
  20
4484613.593
 40
34.86332
  0
SEQEND
  0
POLYLINE
  8
LC_OH_2021_05_O7
  70
1
  66
1
  0
VERTEX
  8
LC_OH_2021_05_O7
  10
257973.932
  20
4482049.460
  0
VERTEX
  8
LC_OH_2021_05_O7
  10
257662.500
  20
4482082.000
  0
VERTEX
  8
LC_OH_2021_05_O7
  10
257866.698
  20
4487177.725
  0
VERTEX
  8
LC_OH_2021_05_O7
  10
258139.611
  20
4487168.824
  0
VERTEX
  8
LC_OH_2021_05_O7
  10
258064.736
  20
4484855.876
  0
VERTEX
  8
LC_OH_2021_05_O7
  10
257989.893
  20
4482542.935
  0
SEQEND
  8
LC_OH_2021_05_O7
  0
INSERT
  8
FeatureAttribs
  2
FEATURE
  41
1
  42
1
  43
1
  50
0
  10
250568.322
  20
4485276.749
 66
1
  0
ATTRIB
  8
FeatureAttribs
 70
0
  1
PNOA-H_AMS_1956-57_33k_ES_PAN_21mic_H50_0552_fot_67A-44263_E.tif
  2
NAME
  10
250568.322
  20
4485276.749
 40
34.86332
  0
SEQEND
  0
POLYLINE
  8
LC_OH_2021_05_O7
  70
1
  66
1
  0
VERTEX
  8
LC_OH_2021_05_O7
  10
252116.660
  20
4487366.446
  0
VERTEX
  8
LC_OH_2021_05_O7
  10
251891.000
  20
4482530.000
  0
VERTEX
  8
LC_OH_2021_05_O7
  10
251320.000
  20
4482324.500
  0
VERTEX
  8
LC_OH_2021_05_O7
  10
249022.500
  20
4482851.000
  0
VERTEX
  8
LC_OH_2021_05_O7
  10
249203.112
  20
4487463.741
  0
VERTEX
  8
LC_OH_2021_05_O7
  10
251077.030
  20
4487400.847
  0
SEQEND
  8
LC_OH_2021_05_O7
  0
INSERT
  8
FeatureAttribs
  2
FEATURE
  41
1
  42
1
  43
1
  50
0
  10
256345.155
  20
4484951.000
 66
1
  0
ATTRIB
  8
FeatureAttribs
 70
0
  1
PNOA-H_AMS_1956-57_33k_ES_PAN_21mic_H50_0552_fot_67A-44265_E.tif
  2
NAME
  10
256345.155
  20
4484951.000
 40
34.86332
  0
SEQEND
  0
POLYLINE
  8
LC_OH_2021_05_O7
  70
1
  66
1
  0
VERTEX
  8
LC_OH_2021_05_O7
  10
257866.662
  20
4487177.726
  0
VERTEX
  8
LC_OH_2021_05_O7
  10
257730.500
  20
4483787.000
  0
VERTEX
  8
LC_OH_2021_05_O7
  10
257730.000
  20
4483774.500
  0
VERTEX
  8
LC_OH_2021_05_O7
  10
257663.000
  20
4482091.000
  0
VERTEX
  8
LC_OH_2021_05_O7
  10
257662.500
  20
4482082.000
  0
VERTEX
  8
LC_OH_2021_05_O7
  10
257661.000
  20
4482081.000
  0
VERTEX
  8
LC_OH_2021_05_O7
  10
257218.500
  20
4481908.000
  0
VERTEX
  8
LC_OH_2021_05_O7
  10
257215.000
  20
4481908.000
  0
VERTEX
  8
LC_OH_2021_05_O7
  10
254735.000
  20
4482277.000
  0
VERTEX
  8
LC_OH_2021_05_O7
  10
254733.000
  20
4482277.500
  0
VERTEX
  8
LC_OH_2021_05_O7
  10
254733.000
  20
4482280.500
  0
VERTEX
  8
LC_OH_2021_05_O7
  10
255069.403
  20
4487268.961
  0
SEQEND
  8
LC_OH_2021_05_O7
  0
INSERT
  8
FeatureAttribs
  2
FEATURE
  41
1
  42
1
  43
1
  50
0
  10
253469.287
  20
4485137.500
 66
1
  0
ATTRIB
  8
FeatureAttribs
 70
0
  1
PNOA-H_AMS_1956-57_33k_ES_PAN_21mic_H50_0552_fot_67A-44264_E.tif
  2
NAME
  10
253469.287
  20
4485137.500
 40
34.86332
  0
SEQEND
  0
POLYLINE
  8
LC_OH_2021_05_O7
  70
1
  66
1
  0
VERTEX
  8
LC_OH_2021_05_O7
  10
255069.449
  20
4487268.959
  0
VERTEX
  8
LC_OH_2021_05_O7
  10
254733.500
  20
4482280.500
  0
VERTEX
  8
LC_OH_2021_05_O7
  10
254733.000
  20
4482277.500
  0
VERTEX
  8
LC_OH_2021_05_O7
  10
254731.000
  20
4482276.500
  0
VERTEX
  8
LC_OH_2021_05_O7
  10
254318.500
  20
4482127.500
  0
VERTEX
  8
LC_OH_2021_05_O7
  10
251891.000
  20
4482530.000
  0
VERTEX
  8
LC_OH_2021_05_O7
  10
252116.660
  20
4487366.446
  0
VERTEX
  8
LC_OH_2021_05_O7
  10
254608.331
  20
4487283.999
  0
SEQEND
  8
LC_OH_2021_05_O7
  0
INSERT
  8
FeatureAttribs
  2
FEATURE
  41
1
  42
1
  43
1
  50
0
  10
231690.608
  20
4485869.000
 66
1
  0
ATTRIB
  8
FeatureAttribs
 70
0
  1
PNOA-H_AMS_1956-57_33k_ES_PAN_21mic_H50_0552_fot_67A-44256_E.tif
  2
NAME
  10
231690.608
  20
4485869.000
 40
34.86332
  0
SEQEND
  0
POLYLINE
  8
LC_OH_2021_05_O7
  70
1
  66
1
  0
VERTEX
  8
LC_OH_2021_05_O7
  10
233033.166
  20
4488024.091
  0
VERTEX
  8
LC_OH_2021_05_O7
  10
232842.500
  20
4483562.500
  0
VERTEX
  8
LC_OH_2021_05_O7
  10
230997.500
  20
4483371.500
  0
VERTEX
  8
LC_OH_2021_05_O7
  10
230343.000
  20
4483694.500
  0
VERTEX
  8
LC_OH_2021_05_O7
  10
230540.390
  20
4488113.659
  0
SEQEND
  8
LC_OH_2021_05_O7
  0
INSERT
  8
FeatureAttribs
  2
FEATURE
  41
1
  42
1
  43
1
  50
0
  10
240934.141
  20
4480594.499
 66
1
  0
ATTRIB
  8
FeatureAttribs
 70
0
  1
PNOA-H_AMS_1956-57_33k_ES_PAN_21mic_H50_0552_fot_68A-40352_E.tif
  2
NAME
  10
240934.141
  20
4480594.499
 40
34.86332
  0
SEQEND
  0
POLYLINE
  8
LC_OH_2021_05_O7
  70
1
  66
1
  0
VERTEX
  8
LC_OH_2021_05_O7
  10
241760.500
  20
4482822.500
  0
VERTEX
  8
LC_OH_2021_05_O7
  10
241761.500
  20
4482813.500
  0
VERTEX
  8
LC_OH_2021_05_O7
  10
241836.500
  20
4479709.500
  0
VERTEX
  8
LC_OH_2021_05_O7
  10
241776.500
  20
4478838.000
  0
VERTEX
  8
LC_OH_2021_05_O7
  10
240370.500
  20
4478371.000
  0
VERTEX
  8
LC_OH_2021_05_O7
  10
240354.500
  20
4478366.500
  0
VERTEX
  8
LC_OH_2021_05_O7
  10
238947.000
  20
4478991.000
  0
VERTEX
  8
LC_OH_2021_05_O7
  10
238956.500
  20
4479157.500
  0
VERTEX
  8
LC_OH_2021_05_O7
  10
238958.000
  20
4479166.000
  0
VERTEX
  8
LC_OH_2021_05_O7
  10
241760.500
  20
4482821.500
  0
VERTEX
  8
LC_OH_2021_05_O7
  10
241760.500
  20
4482822.500
  0
SEQEND
  8
LC_OH_2021_05_O7
  0
INSERT
  8
FeatureAttribs
  2
FEATURE
  41
1
  42
1
  43
1
  50
0
  10
245668.056
  20
4480427.499
 66
1
  0
ATTRIB
  8
FeatureAttribs
 70
0
  1
PNOA-H_AMS_1956-57_33k_ES_PAN_21mic_H50_0552_fot_000-40354_R.tif
  2
NAME
  10
245668.056
  20
4480427.499
 40
34.86332
  0
SEQEND
  0
POLYLINE
  8
LC_OH_2021_05_O7
  70
1
  66
1
  0
VERTEX
  8
LC_OH_2021_05_O7
  10
245455.500
  20
4482846.500
  0
VERTEX
  8
LC_OH_2021_05_O7
  10
245457.500
  20
4482846.500
  0
VERTEX
  8
LC_OH_2021_05_O7
  10
245465.500
  20
4482827.000
  0
VERTEX
  8
LC_OH_2021_05_O7
  10
247321.000
  20
4478240.000
  0
VERTEX
  8
LC_OH_2021_05_O7
  10
246654.000
  20
4478009.500
  0
VERTEX
  8
LC_OH_2021_05_O7
  10
246649.500
  20
4478008.500
  0
VERTEX
  8
LC_OH_2021_05_O7
  10
246642.500
  20
4478011.000
  0
VERTEX
  8
LC_OH_2021_05_O7
  10
244818.500
  20
4478680.000
  0
VERTEX
  8
LC_OH_2021_05_O7
  10
244955.000
  20
4481608.000
  0
VERTEX
  8
LC_OH_2021_05_O7
  10
245097.500
  20
4482733.000
  0
VERTEX
  8
LC_OH_2021_05_O7
  10
245101.000
  20
4482735.000
  0
VERTEX
  8
LC_OH_2021_05_O7
  10
245454.000
  20
4482846.000
  0
VERTEX
  8
LC_OH_2021_05_O7
  10
245455.500
  20
4482846.500
  0
SEQEND
  8
LC_OH_2021_05_O7
  0
INSERT
  8
FeatureAttribs
  2
FEATURE
  41
1
  42
1
  43
1
  50
0
  10
243495.334
  20
4479874.749
 66
1
  0
ATTRIB
  8
FeatureAttribs
 70
0
  1
PNOA-H_AMS_1956-57_33k_ES_PAN_21mic_H50_0552_fot_000-40353_R.tif
  2
NAME
  10
243495.334
  20
4479874.749
 40
34.86332
  0
SEQEND
  0
POLYLINE
  8
LC_OH_2021_05_O7
  70
1
  66
1
  0
VERTEX
  8
LC_OH_2021_05_O7
  10
244954.500
  20
4481610.000
  0
VERTEX
  8
LC_OH_2021_05_O7
  10
244955.500
  20
4481610.000
  0
VERTEX
  8
LC_OH_2021_05_O7
  10
244955.500
  20
4481608.000
  0
VERTEX
  8
LC_OH_2021_05_O7
  10
244818.500
  20
4478680.000
  0
VERTEX
  8
LC_OH_2021_05_O7
  10
243504.000
  20
4478141.500
  0
VERTEX
  8
LC_OH_2021_05_O7
  10
243496.500
  20
4478139.500
  0
VERTEX
  8
LC_OH_2021_05_O7
  10
241780.000
  20
4478836.000
  0
VERTEX
  8
LC_OH_2021_05_O7
  10
241776.500
  20
4478837.500
  0
VERTEX
  8
LC_OH_2021_05_O7
  10
241776.500
  20
4478845.000
  0
VERTEX
  8
LC_OH_2021_05_O7
  10
241836.000
  20
4479701.500
  0
VERTEX
  8
LC_OH_2021_05_O7
  10
241837.000
  20
4479704.000
  0
VERTEX
  8
LC_OH_2021_05_O7
  10
244953.500
  20
4481609.500
  0
VERTEX
  8
LC_OH_2021_05_O7
  10
244954.500
  20
4481610.000
  0
SEQEND
  8
LC_OH_2021_05_O7
  0
INSERT
  8
FeatureAttribs
  2
FEATURE
  41
1
  42
1
  43
1
  50
0
  10
235034.275
  20
4483309.249
 66
1
  0
ATTRIB
  8
FeatureAttribs
 70
0
  1
PNOA-H_AMS_1956-57_33k_ES_PAN_21mic_H50_0552_fot_68A-40350_E.tif
  2
NAME
  10
235034.275
  20
4483309.249
 40
34.86332
  0
SEQEND
  0
POLYLINE
  8
LC_OH_2021_05_O7
  70
1
  66
1
  0
VERTEX
  8
LC_OH_2021_05_O7
  10
235597.056
  20
4483150.000
  0
VERTEX
  8
LC_OH_2021_05_O7
  10
233677.534
  20
4483150.000
  0
VERTEX
  8
LC_OH_2021_05_O7
  10
233679.500
  20
4483178.000
  0
VERTEX
  8
LC_OH_2021_05_O7
  10
235470.500
  20
4483468.000
  0
VERTEX
  8
LC_OH_2021_05_O7
  10
235474.000
  20
4483468.500
  0
VERTEX
  8
LC_OH_2021_05_O7
  10
235476.500
  20
4483468.500
  0
VERTEX
  8
LC_OH_2021_05_O7
  10
235564.000
  20
4483433.000
  0
VERTEX
  8
LC_OH_2021_05_O7
  10
235597.056
  20
4483150.000
  0
SEQEND
  8
LC_OH_2021_05_O7
  0
INSERT
  8
FeatureAttribs
  2
FEATURE
  41
1
  42
1
  43
1
  50
0
  10
237996.575
  20
4480941.750
 66
1
  0
ATTRIB
  8
FeatureAttribs
 70
0
  1
PNOA-H_AMS_1956-57_33k_ES_PAN_21mic_H50_0552_fot_68A-40351_E.tif
  2
NAME
  10
237996.575
  20
4480941.750
 40
34.86332
  0
SEQEND
  0
POLYLINE
  8
LC_OH_2021_05_O7
  70
1
  66
1
  0
VERTEX
  8
LC_OH_2021_05_O7
  10
236520.000
  20
4479583.799
  0
VERTEX
  8
LC_OH_2021_05_O7
  10
236655.000
  20
4479868.000
  0
VERTEX
  8
LC_OH_2021_05_O7
  10
236655.000
  20
4479869.000
  0
VERTEX
  8
LC_OH_2021_05_O7
  10
238282.000
  20
4483293.500
  0
VERTEX
  8
LC_OH_2021_05_O7
  10
238284.500
  20
4483298.500
  0
VERTEX
  8
LC_OH_2021_05_O7
  10
238285.500
  20
4483298.500
  0
VERTEX
  8
LC_OH_2021_05_O7
  10
238667.000
  20
4483167.500
  0
VERTEX
  8
LC_OH_2021_05_O7
  10
238957.000
  20
4479170.000
  0
VERTEX
  8
LC_OH_2021_05_O7
  10
238947.000
  20
4478991.000
  0
VERTEX
  8
LC_OH_2021_05_O7
  10
237401.500
  20
4478585.000
  0
VERTEX
  8
LC_OH_2021_05_O7
  10
236520.000
  20
4479010.565
  0
VERTEX
  8
LC_OH_2021_05_O7
  10
236520.000
  20
4479583.799
  0
SEQEND
  8
LC_OH_2021_05_O7
  0
INSERT
  8
FeatureAttribs
  2
FEATURE
  41
1
  42
1
  43
1
  50
0
  10
232143.299
  20
4483356.248
 66
1
  0
ATTRIB
  8
FeatureAttribs
 70
0
  1
PNOA-H_AMS_1956-57_33k_ES_PAN_21mic_H50_0552_fot_68A-40349_E.tif
  2
NAME
  10
232143.299
  20
4483356.248
 40
34.86332
  0
SEQEND
  0
POLYLINE
  8
LC_OH_2021_05_O7
  70
1
  66
1
  0
VERTEX
  8
LC_OH_2021_05_O7
  10
233677.534
  20
4483150.000
  0
VERTEX
  8
LC_OH_2021_05_O7
  10
230981.193
  20
4483150.000
  0
VERTEX
  8
LC_OH_2021_05_O7
  10
230996.000
  20
4483369.500
  0
VERTEX
  8
LC_OH_2021_05_O7
  10
230997.500
  20
4483372.000
  0
VERTEX
  8
LC_OH_2021_05_O7
  10
232842.500
  20
4483562.500
  0
VERTEX
  8
LC_OH_2021_05_O7
  10
233679.500
  20
4483178.000
  0
VERTEX
  8
LC_OH_2021_05_O7
  10
233677.534
  20
4483150.000
  0
SEQEND
  8
LC_OH_2021_05_O7
  0
INSERT
  8
FeatureAttribs
  2
FEATURE
  41
1
  42
1
  43
1
  50
0
  10
248991.258
  20
4480592.749
 66
1
  0
ATTRIB
  8
FeatureAttribs
 70
0
  1
PNOA-H_AMS_1956-57_33k_ES_PAN_21mic_H50_0552_fot_206-40355_X.tif
  2
NAME
  10
248991.258
  20
4480592.749
 40
34.86332
  0
SEQEND
  0
POLYLINE
  8
LC_OH_2021_05_O7
  70
1
  66
1
  0
VERTEX
  8
LC_OH_2021_05_O7
  10
248942.000
  20
4482825.000
  0
VERTEX
  8
LC_OH_2021_05_O7
  10
249021.500
  20
4482851.000
  0
VERTEX
  8
LC_OH_2021_05_O7
  10
249026.000
  20
4482850.500
  0
VERTEX
  8
LC_OH_2021_05_O7
  10
251319.000
  20
4482325.000
  0
VERTEX
  8
LC_OH_2021_05_O7
  10
251319.000
  20
4482318.000
  0
VERTEX
  8
LC_OH_2021_05_O7
  10
251274.000
  20
4481996.500
  0
VERTEX
  8
LC_OH_2021_05_O7
  10
247939.000
  20
4478334.500
  0
VERTEX
  8
LC_OH_2021_05_O7
  10
247789.000
  20
4478389.500
  0
VERTEX
  8
LC_OH_2021_05_O7
  10
247786.000
  20
4478391.500
  0
VERTEX
  8
LC_OH_2021_05_O7
  10
248167.500
  20
4482572.000
  0
VERTEX
  8
LC_OH_2021_05_O7
  10
248940.500
  20
4482824.500
  0
VERTEX
  8
LC_OH_2021_05_O7
  10
248942.000
  20
4482825.000
  0
SEQEND
  8
LC_OH_2021_05_O7
  0
INSERT
  8
FeatureAttribs
  2
FEATURE
  41
1
  42
1
  43
1
  50
0
  10
238948.755
  20
4472191.499
 66
1
  0
ATTRIB
  8
FeatureAttribs
 70
0
  1
PNOA-H_AMS_1956-57_33k_ES_PAN_21mic_H50_0552_fot_70A-46720_E.tif
  2
NAME
  10
238948.755
  20
4472191.499
 40
34.86332
  0
SEQEND
  0
POLYLINE
  8
LC_OH_2021_05_O7
  70
1
  66
1
  0
VERTEX
  8
LC_OH_2021_05_O7
  10
237694.500
  20
4474307.000
  0
VERTEX
  8
LC_OH_2021_05_O7
  10
237695.000
  20
4474308.000
  0
VERTEX
  8
LC_OH_2021_05_O7
  10
237711.500
  20
4474309.000
  0
VERTEX
  8
LC_OH_2021_05_O7
  10
240105.000
  20
4474452.000
  0
VERTEX
  8
LC_OH_2021_05_O7
  10
240113.500
  20
4474452.500
  0
VERTEX
  8
LC_OH_2021_05_O7
  10
240118.500
  20
4474452.000
  0
VERTEX
  8
LC_OH_2021_05_O7
  10
240589.500
  20
4474167.500
  0
VERTEX
  8
LC_OH_2021_05_O7
  10
240249.500
  20
4470353.000
  0
VERTEX
  8
LC_OH_2021_05_O7
  10
238988.500
  20
4469930.500
  0
VERTEX
  8
LC_OH_2021_05_O7
  10
238986.500
  20
4469930.500
  0
VERTEX
  8
LC_OH_2021_05_O7
  10
238956.000
  20
4469945.000
  0
VERTEX
  8
LC_OH_2021_05_O7
  10
237337.500
  20
4470717.000
  0
VERTEX
  8
LC_OH_2021_05_O7
  10
237694.500
  20
4474307.000
  0
SEQEND
  8
LC_OH_2021_05_O7
  0
INSERT
  8
FeatureAttribs
  2
FEATURE
  41
1
  42
1
  43
1
  50
0
  10
244631.164
  20
4471790.999
 66
1
  0
ATTRIB
  8
FeatureAttribs
 70
0
  1
PNOA-H_AMS_1956-57_33k_ES_PAN_21mic_H50_0552_fot_70A-46722_E.tif
  2
NAME
  10
244631.164
  20
4471790.999
 40
34.86332
  0
SEQEND
  0
POLYLINE
  8
LC_OH_2021_05_O7
  70
1
  66
1
  0
VERTEX
  8
LC_OH_2021_05_O7
  10
243320.500
  20
4474102.500
  0
VERTEX
  8
LC_OH_2021_05_O7
  10
243321.000
  20
4474109.500
  0
VERTEX
  8
LC_OH_2021_05_O7
  10
243323.000
  20
4474109.500
  0
VERTEX
  8
LC_OH_2021_05_O7
  10
244844.500
  20
4473979.000
  0
VERTEX
  8
LC_OH_2021_05_O7
  10
244847.500
  20
4473979.000
  0
VERTEX
  8
LC_OH_2021_05_O7
  10
246192.500
  20
4473864.000
  0
VERTEX
  8
LC_OH_2021_05_O7
  10
245970.000
  20
4469954.000
  0
VERTEX
  8
LC_OH_2021_05_O7
  10
245969.500
  20
4469950.500
  0
VERTEX
  8
LC_OH_2021_05_O7
  10
244528.000
  20
4469472.500
  0
VERTEX
  8
LC_OH_2021_05_O7
  10
244525.000
  20
4469472.500
  0
VERTEX
  8
LC_OH_2021_05_O7
  10
244516.000
  20
4469476.500
  0
VERTEX
  8
LC_OH_2021_05_O7
  10
243091.500
  20
4470114.500
  0
SEQEND
  8
LC_OH_2021_05_O7
  0
INSERT
  8
FeatureAttribs
  2
FEATURE
  41
1
  42
1
  43
1
  50
0
  10
253300.024
  20
4471264.000
 66
1
  0
ATTRIB
  8
FeatureAttribs
 70
0
  1
PNOA-H_AMS_1956-57_33k_ES_PAN_21mic_H50_0552_fot_70A-46725_E.tif
  2
NAME
  10
253300.024
  20
4471264.000
 40
34.86332
  0
SEQEND
  0
POLYLINE
  8
LC_OH_2021_05_O7
  70
1
  66
1
  0
VERTEX
  8
LC_OH_2021_05_O7
  10
251955.500
  20
4473423.000
  0
VERTEX
  8
LC_OH_2021_05_O7
  10
251956.000
  20
4473426.500
  0
VERTEX
  8
LC_OH_2021_05_O7
  10
252053.500
  20
4473481.000
  0
VERTEX
  8
LC_OH_2021_05_O7
  10
252062.000
  20
4473481.500
  0
VERTEX
  8
LC_OH_2021_05_O7
  10
253034.000
  20
4473413.500
  0
VERTEX
  8
LC_OH_2021_05_O7
  10
253039.500
  20
4473413.500
  0
VERTEX
  8
LC_OH_2021_05_O7
  10
254853.000
  20
4473287.500
  0
VERTEX
  8
LC_OH_2021_05_O7
  10
254655.500
  20
4469386.500
  0
VERTEX
  8
LC_OH_2021_05_O7
  10
252679.000
  20
4469046.500
  0
VERTEX
  8
LC_OH_2021_05_O7
  10
251765.500
  20
4469554.500
  0
SEQEND
  8
LC_OH_2021_05_O7
  0
INSERT
  8
FeatureAttribs
  2
FEATURE
  41
1
  42
1
  43
1
  50
0
  10
236856.032
  20
4472470.305
 66
1
  0
ATTRIB
  8
FeatureAttribs
 70
0
  1
PNOA-H_AMS_1956-57_33k_ES_PAN_21mic_H50_0552_fot_70A-46719_E.tif
  2
NAME
  10
236856.032
  20
4472470.305
 40
34.86332
  0
SEQEND
  0
POLYLINE
  8
LC_OH_2021_05_O7
  70
1
  66
1
  0
VERTEX
  8
LC_OH_2021_05_O7
  10
236360.000
  20
4474655.488
  0
VERTEX
  8
LC_OH_2021_05_O7
  10
237098.000
  20
4474676.000
  0
VERTEX
  8
LC_OH_2021_05_O7
  10
237695.000
  20
4474308.000
  0
VERTEX
  8
LC_OH_2021_05_O7
  10
237337.500
  20
4470717.000
  0
VERTEX
  8
LC_OH_2021_05_O7
  10
236200.000
  20
4470264.611
  0
VERTEX
  8
LC_OH_2021_05_O7
  10
236200.000
  20
4474110.000
  0
VERTEX
  8
LC_OH_2021_05_O7
  10
236360.000
  20
4474110.000
  0
VERTEX
  8
LC_OH_2021_05_O7
  10
236360.000
  20
4474655.488
  0
SEQEND
  8
LC_OH_2021_05_O7
  0
INSERT
  8
FeatureAttribs
  2
FEATURE
  41
1
  42
1
  43
1
  50
0
  10
241792.320
  20
4471920.750
 66
1
  0
ATTRIB
  8
FeatureAttribs
 70
0
  1
PNOA-H_AMS_1956-57_33k_ES_PAN_21mic_H50_0552_fot_70A-46721_E.tif
  2
NAME
  10
241792.320
  20
4471920.750
 40
34.86332
  0
SEQEND
  0
POLYLINE
  8
LC_OH_2021_05_O7
  70
1
  66
1
  0
VERTEX
  8
LC_OH_2021_05_O7
  10
240589.500
  20
4474164.500
  0
VERTEX
  8
LC_OH_2021_05_O7
  10
240589.500
  20
4474167.500
  0
VERTEX
  8
LC_OH_2021_05_O7
  10
243257.500
  20
4474154.000
  0
VERTEX
  8
LC_OH_2021_05_O7
  10
243321.000
  20
4474109.500
  0
VERTEX
  8
LC_OH_2021_05_O7
  10
243091.500
  20
4470114.500
  0
VERTEX
  8
LC_OH_2021_05_O7
  10
241778.000
  20
4469674.000
  0
VERTEX
  8
LC_OH_2021_05_O7
  10
240249.500
  20
4470353.000
  0
VERTEX
  8
LC_OH_2021_05_O7
  10
240589.500
  20
4474164.500
  0
SEQEND
  8
LC_OH_2021_05_O7
  0
INSERT
  8
FeatureAttribs
  2
FEATURE
  41
1
  42
1
  43
1
  50
0
  10
250404.419
  20
4471392.750
 66
1
  0
ATTRIB
  8
FeatureAttribs
 70
0
  1
PNOA-H_AMS_1956-57_33k_ES_PAN_21mic_H50_0552_fot_70A-46724_E.tif
  2
NAME
  10
250404.419
  20
4471392.750
 40
34.86332
  0
SEQEND
  0
POLYLINE
  8
LC_OH_2021_05_O7
  70
1
  66
1
  0
VERTEX
  8
LC_OH_2021_05_O7
  10
248943.000
  20
4471195.500
  0
VERTEX
  8
LC_OH_2021_05_O7
  10
248943.000
  20
4471205.000
  0
VERTEX
  8
LC_OH_2021_05_O7
  10
249070.500
  20
4473624.000
  0
VERTEX
  8
LC_OH_2021_05_O7
  10
251956.000
  20
4473426.000
  0
VERTEX
  8
LC_OH_2021_05_O7
  10
251765.500
  20
4469555.000
  0
VERTEX
  8
LC_OH_2021_05_O7
  10
250035.500
  20
4469161.500
  0
VERTEX
  8
LC_OH_2021_05_O7
  10
248867.000
  20
4469757.000
  0
SEQEND
  8
LC_OH_2021_05_O7
  0
INSERT
  8
FeatureAttribs
  2
FEATURE
  41
1
  42
1
  43
1
  50
0
  10
247513.504
  20
4471596.249
 66
1
  0
ATTRIB
  8
FeatureAttribs
 70
0
  1
PNOA-H_AMS_1956-57_33k_ES_PAN_21mic_H50_0552_fot_70A-46723_E.tif
  2
NAME
  10
247513.504
  20
4471596.249
 40
34.86332
  0
SEQEND
  0
POLYLINE
  8
LC_OH_2021_05_O7
  70
1
  66
1
  0
VERTEX
  8
LC_OH_2021_05_O7
  10
246192.000
  20
4473858.000
  0
VERTEX
  8
LC_OH_2021_05_O7
  10
246192.500
  20
4473864.000
  0
VERTEX
  8
LC_OH_2021_05_O7
  10
246194.000
  20
4473865.000
  0
VERTEX
  8
LC_OH_2021_05_O7
  10
246195.000
  20
4473865.500
  0
VERTEX
  8
LC_OH_2021_05_O7
  10
249058.500
  20
4473630.000
  0
VERTEX
  8
LC_OH_2021_05_O7
  10
249063.000
  20
4473629.500
  0
VERTEX
  8
LC_OH_2021_05_O7
  10
249070.500
  20
4473624.000
  0
VERTEX
  8
LC_OH_2021_05_O7
  10
248867.000
  20
4469757.000
  0
VERTEX
  8
LC_OH_2021_05_O7
  10
247299.000
  20
4469327.000
  0
VERTEX
  8
LC_OH_2021_05_O7
  10
245969.500
  20
4469950.500
  0
SEQEND
  8
LC_OH_2021_05_O7
  0
INSERT
  8
FeatureAttribs
  2
FEATURE
  41
1
  42
1
  43
1
  50
0
  10
238751.070
  20
4476649.500
 66
1
  0
ATTRIB
  8
FeatureAttribs
 70
0
  1
PNOA-H_AMS_1956-57_33k_ES_PAN_21mic_H50_0552_fot_69B-52002_E.tif
  2
NAME
  10
238751.070
  20
4476649.500
 40
34.86332
  0
SEQEND
  0
POLYLINE
  8
LC_OH_2021_05_O7
  70
1
  66
1
  0
VERTEX
  8
LC_OH_2021_05_O7
  10
237401.500
  20
4478585.000
  0
VERTEX
  8
LC_OH_2021_05_O7
  10
238943.000
  20
4478990.500
  0
VERTEX
  8
LC_OH_2021_05_O7
  10
238945.000
  20
4478991.000
  0
VERTEX
  8
LC_OH_2021_05_O7
  10
238949.500
  20
4478990.500
  0
VERTEX
  8
LC_OH_2021_05_O7
  10
240355.500
  20
4478366.500
  0
VERTEX
  8
LC_OH_2021_05_O7
  10
240117.000
  20
4474452.500
  0
VERTEX
  8
LC_OH_2021_05_O7
  10
237694.000
  20
4474308.000
  0
VERTEX
  8
LC_OH_2021_05_O7
  10
237098.000
  20
4474675.500
  0
VERTEX
  8
LC_OH_2021_05_O7
  10
237401.500
  20
4478585.000
  0
SEQEND
  8
LC_OH_2021_05_O7
  0
INSERT
  8
FeatureAttribs
  2
FEATURE
  41
1
  42
1
  43
1
  50
0
  10
236812.748
  20
4476833.263
 66
1
  0
ATTRIB
  8
FeatureAttribs
 70
0
  1
PNOA-H_AMS_1956-57_33k_ES_PAN_21mic_H50_0552_fot_69B-52001_E.tif
  2
NAME
  10
236812.748
  20
4476833.263
 40
34.86332
  0
SEQEND
  0
POLYLINE
  8
LC_OH_2021_05_O7
  70
1
  66
1
  0
VERTEX
  8
LC_OH_2021_05_O7
  10
236520.000
  20
4479011.038
  0
VERTEX
  8
LC_OH_2021_05_O7
  10
237401.500
  20
4478585.500
  0
VERTEX
  8
LC_OH_2021_05_O7
  10
237098.000
  20
4474676.000
  0
VERTEX
  8
LC_OH_2021_05_O7
  10
236360.000
  20
4474655.492
  0
VERTEX
  8
LC_OH_2021_05_O7
  10
236360.000
  20
4478740.000
  0
VERTEX
  8
LC_OH_2021_05_O7
  10
236520.000
  20
4478740.000
  0
VERTEX
  8
LC_OH_2021_05_O7
  10
236520.000
  20
4479011.038
  0
SEQEND
  8
LC_OH_2021_05_O7
  0
INSERT
  8
FeatureAttribs
  2
FEATURE
  41
1
  42
1
  43
1
  50
0
  10
230352.496
  20
4483422.250
 66
1
  0
ATTRIB
  8
FeatureAttribs
 70
0
  1
PNOA-H_AMS_1956-57_33k_ES_PAN_21mic_H50_0552_fot_68A-40348_E.tif
  2
NAME
  10
230352.496
  20
4483422.250
 40
34.86332
  0
SEQEND
  0
POLYLINE
  8
LC_OH_2021_05_O7
  70
1
  66
1
  0
VERTEX
  8
LC_OH_2021_05_O7
  10
229726.269
  20
4483641.959
  0
VERTEX
  8
LC_OH_2021_05_O7
  10
230343.500
  20
4483694.500
  0
VERTEX
  8
LC_OH_2021_05_O7
  10
230996.500
  20
4483371.500
  0
VERTEX
  8
LC_OH_2021_05_O7
  10
230981.534
  20
4483150.000
  0
VERTEX
  8
LC_OH_2021_05_O7
  10
229708.493
  20
4483150.000
  0
VERTEX
  8
LC_OH_2021_05_O7
  10
229721.534
  20
4483510.959
  0
SEQEND
  8
LC_OH_2021_05_O7
  0
INSERT
  8
FeatureAttribs
  2
FEATURE
  41
1
  42
1
  43
1
  50
0
  10
244922.234
  20
4476271.999
 66
1
  0
ATTRIB
  8
FeatureAttribs
 70
0
  1
PNOA-H_AMS_1956-57_33k_ES_PAN_21mic_H50_0552_fot_69B-52004_E.tif
  2
NAME
  10
244922.234
  20
4476271.999
 40
34.86332
  0
SEQEND
  0
POLYLINE
  8
LC_OH_2021_05_O7
  70
1
  66
1
  0
VERTEX
  8
LC_OH_2021_05_O7
  10
244847.500
  20
4478669.500
  0
VERTEX
  8
LC_OH_2021_05_O7
  10
246650.000
  20
4478008.500
  0
VERTEX
  8
LC_OH_2021_05_O7
  10
246195.500
  20
4473865.500
  0
VERTEX
  8
LC_OH_2021_05_O7
  10
246190.500
  20
4473864.000
  0
VERTEX
  8
LC_OH_2021_05_O7
  10
243320.500
  20
4474109.500
  0
VERTEX
  8
LC_OH_2021_05_O7
  10
243257.500
  20
4474153.500
  0
VERTEX
  8
LC_OH_2021_05_O7
  10
243257.500
  20
4474157.500
  0
VERTEX
  8
LC_OH_2021_05_O7
  10
243497.500
  20
4478139.500
  0
VERTEX
  8
LC_OH_2021_05_O7
  10
244817.500
  20
4478680.000
  0
VERTEX
  8
LC_OH_2021_05_O7
  10
244821.500
  20
4478679.500
  0
VERTEX
  8
LC_OH_2021_05_O7
  10
244846.000
  20
4478670.000
  0
VERTEX
  8
LC_OH_2021_05_O7
  10
244847.500
  20
4478669.500
  0
SEQEND
  8
LC_OH_2021_05_O7
  0
INSERT
  8
FeatureAttribs
  2
FEATURE
  41
1
  42
1
  43
1
  50
0
  10
250719.613
  20
4475751.249
 66
1
  0
ATTRIB
  8
FeatureAttribs
 70
0
  1
PNOA-H_AMS_1956-57_33k_ES_PAN_21mic_H50_0552_fot_69B-52006_E.tif
  2
NAME
  10
250719.613
  20
4475751.249
 40
34.86332
  0
SEQEND
  0
POLYLINE
  8
LC_OH_2021_05_O7
  70
1
  66
1
  0
VERTEX
  8
LC_OH_2021_05_O7
  10
250871.500
  20
4478076.500
  0
VERTEX
  8
LC_OH_2021_05_O7
  10
250874.000
  20
4478076.500
  0
VERTEX
  8
LC_OH_2021_05_O7
  10
250887.500
  20
4478070.000
  0
VERTEX
  8
LC_OH_2021_05_O7
  10
252236.500
  20
4477412.500
  0
VERTEX
  8
LC_OH_2021_05_O7
  10
252056.000
  20
4473488.000
  0
VERTEX
  8
LC_OH_2021_05_O7
  10
252055.500
  20
4473481.500
  0
VERTEX
  8
LC_OH_2021_05_O7
  10
251956.000
  20
4473426.000
  0
VERTEX
  8
LC_OH_2021_05_O7
  10
249072.500
  20
4473623.500
  0
VERTEX
  8
LC_OH_2021_05_O7
  10
249069.000
  20
4473624.500
  0
VERTEX
  8
LC_OH_2021_05_O7
  10
249063.000
  20
4473629.000
  0
VERTEX
  8
LC_OH_2021_05_O7
  10
249476.000
  20
4477684.500
  0
VERTEX
  8
LC_OH_2021_05_O7
  10
250869.500
  20
4478076.000
  0
VERTEX
  8
LC_OH_2021_05_O7
  10
250871.500
  20
4478076.500
  0
SEQEND
  8
LC_OH_2021_05_O7
  0
INSERT
  8
FeatureAttribs
  2
FEATURE
  41
1
  42
1
  43
1
  50
0
  10
241820.043
  20
4476495.999
 66
1
  0
ATTRIB
  8
FeatureAttribs
 70
0
  1
PNOA-H_AMS_1956-57_33k_ES_PAN_21mic_H50_0552_fot_69B-52003_E.tif
  2
NAME
  10
241820.043
  20
4476495.999
 40
34.86332
  0
SEQEND
  0
POLYLINE
  8
LC_OH_2021_05_O7
  70
1
  66
1
  0
VERTEX
  8
LC_OH_2021_05_O7
  10
240750.000
  20
4478497.500
  0
VERTEX
  8
LC_OH_2021_05_O7
  10
241776.500
  20
4478838.000
  0
VERTEX
  8
LC_OH_2021_05_O7
  10
243497.500
  20
4478139.500
  0
VERTEX
  8
LC_OH_2021_05_O7
  10
243257.500
  20
4474154.000
  0
VERTEX
  8
LC_OH_2021_05_O7
  10
240589.000
  20
4474167.500
  0
VERTEX
  8
LC_OH_2021_05_O7
  10
240117.000
  20
4474452.500
  0
VERTEX
  8
LC_OH_2021_05_O7
  10
240355.500
  20
4478366.500
  0
VERTEX
  8
LC_OH_2021_05_O7
  10
240748.500
  20
4478497.000
  0
VERTEX
  8
LC_OH_2021_05_O7
  10
240750.000
  20
4478497.500
  0
SEQEND
  8
LC_OH_2021_05_O7
  0
INSERT
  8
FeatureAttribs
  2
FEATURE
  41
1
  42
1
  43
1
  50
0
  10
257666.881
  20
4472549.123
 66
1
  0
ATTRIB
  8
FeatureAttribs
 70
0
  1
PNOA-H_AMS_1956-57_33k_ES_PAN_21mic_H50_0553_fot_70A-46727_E.tif
  2
NAME
  10
257666.881
  20
4472549.123
 40
34.86332
  0
SEQEND
  0
POLYLINE
  8
LC_OH_2021_05_O7
  70
1
  66
1
  0
VERTEX
  8
LC_OH_2021_05_O7
  10
257686.178
  20
4473146.740
  0
VERTEX
  8
LC_OH_2021_05_O7
  10
257647.584
  20
4471951.505
  0
VERTEX
  8
LC_OH_2021_05_O7
  10
257665.500
  20
4473135.000
  0
SEQEND
  8
LC_OH_2021_05_O7
  0
INSERT
  8
FeatureAttribs
  2
FEATURE
  41
1
  42
1
  43
1
  50
0
  10
247868.136
  20
4476010.249
 66
1
  0
ATTRIB
  8
FeatureAttribs
 70
0
  1
PNOA-H_AMS_1956-57_33k_ES_PAN_21mic_H50_0552_fot_69B-52005_E.tif
  2
NAME
  10
247868.136
  20
4476010.249
 40
34.86332
  0
SEQEND
  0
POLYLINE
  8
LC_OH_2021_05_O7
  70
1
  66
1
  0
VERTEX
  8
LC_OH_2021_05_O7
  10
246894.500
  20
4478093.000
  0
VERTEX
  8
LC_OH_2021_05_O7
  10
247310.500
  20
4478236.500
  0
VERTEX
  8
LC_OH_2021_05_O7
  10
247786.500
  20
4478391.000
  0
VERTEX
  8
LC_OH_2021_05_O7
  10
247940.000
  20
4478334.000
  0
VERTEX
  8
LC_OH_2021_05_O7
  10
249476.000
  20
4477684.500
  0
VERTEX
  8
LC_OH_2021_05_O7
  10
249063.000
  20
4473629.500
  0
VERTEX
  8
LC_OH_2021_05_O7
  10
246195.500
  20
4473865.500
  0
VERTEX
  8
LC_OH_2021_05_O7
  10
246650.000
  20
4478008.500
  0
VERTEX
  8
LC_OH_2021_05_O7
  10
246893.000
  20
4478092.500
  0
VERTEX
  8
LC_OH_2021_05_O7
  10
246894.500
  20
4478093.000
  0
SEQEND
  8
LC_OH_2021_05_O7
  0
INSERT
  8
FeatureAttribs
  2
FEATURE
  41
1
  42
1
  43
1
  50
0
  10
256189.313
  20
4471126.248
 66
1
  0
ATTRIB
  8
FeatureAttribs
 70
0
  1
PNOA-H_AMS_1956-57_33k_ES_PAN_21mic_H50_0552_fot_70A-46726_E.tif
  2
NAME
  10
256189.313
  20
4471126.248
 40
34.86332
  0
SEQEND
  0
POLYLINE
  8
LC_OH_2021_05_O7
  70
1
  66
1
  0
VERTEX
  8
LC_OH_2021_05_O7
  10
257647.584
  20
4471951.505
  0
VERTEX
  8
LC_OH_2021_05_O7
  10
257616.161
  20
4470978.325
  0
VERTEX
  8
LC_OH_2021_05_O7
  10
257558.710
  20
4469198.313
  0
VERTEX
  8
LC_OH_2021_05_O7
  10
255427.500
  20
4468919.500
  0
VERTEX
  8
LC_OH_2021_05_O7
  10
254655.500
  20
4469386.500
  0
VERTEX
  8
LC_OH_2021_05_O7
  10
254852.500
  20
4473281.000
  0
VERTEX
  8
LC_OH_2021_05_O7
  10
254853.500
  20
4473288.000
  0
VERTEX
  8
LC_OH_2021_05_O7
  10
254935.500
  20
4473332.500
  0
VERTEX
  8
LC_OH_2021_05_O7
  10
254936.500
  20
4473333.000
  0
VERTEX
  8
LC_OH_2021_05_O7
  10
257665.500
  20
4473135.000
  0
SEQEND
  8
LC_OH_2021_05_O7
  0
INSERT
  8
FeatureAttribs
  2
FEATURE
  41
1
  42
1
  43
1
  50
0
  10
253606.458
  20
4475570.249
 66
1
  0
ATTRIB
  8
FeatureAttribs
 70
0
  1
PNOA-H_AMS_1956-57_33k_ES_PAN_21mic_H50_0552_fot_69B-52007_E.tif
  2
NAME
  10
253606.458
  20
4475570.249
 40
34.86332
  0
SEQEND
  0
POLYLINE
  8
LC_OH_2021_05_O7
  70
1
  66
1
  0
VERTEX
  8
LC_OH_2021_05_O7
  10
255087.500
  20
4477226.500
  0
VERTEX
  8
LC_OH_2021_05_O7
  10
255149.000
  20
4477195.000
  0
VERTEX
  8
LC_OH_2021_05_O7
  10
255150.500
  20
4477194.000
  0
VERTEX
  8
LC_OH_2021_05_O7
  10
255150.500
  20
4477185.000
  0
VERTEX
  8
LC_OH_2021_05_O7
  10
254937.500
  20
4473333.000
  0
VERTEX
  8
LC_OH_2021_05_O7
  10
254857.500
  20
4473289.500
  0
VERTEX
  8
LC_OH_2021_05_O7
  10
254853.500
  20
4473287.500
  0
VERTEX
  8
LC_OH_2021_05_O7
  10
254848.500
  20
4473287.500
  0
VERTEX
  8
LC_OH_2021_05_O7
  10
252055.500
  20
4473481.500
  0
VERTEX
  8
LC_OH_2021_05_O7
  10
252236.500
  20
4477412.500
  0
VERTEX
  8
LC_OH_2021_05_O7
  10
253888.500
  20
4477853.000
  0
VERTEX
  8
LC_OH_2021_05_O7
  10
255086.500
  20
4477227.000
  0
VERTEX
  8
LC_OH_2021_05_O7
  10
255087.500
  20
4477226.500
  0
SEQEND
  8
LC_OH_2021_05_O7
  0
INSERT
  8
FeatureAttribs
  2
FEATURE
  41
1
  42
1
  43
1
  50
0
  10
256524.572
  20
4475393.750
 66
1
  0
ATTRIB
  8
FeatureAttribs
 70
0
  1
PNOA-H_AMS_1956-57_33k_ES_PAN_21mic_H50_0552_fot_69B-52008_E.tif
  2
NAME
  10
256524.572
  20
4475393.750
 40
34.86332
  0
SEQEND
  0
POLYLINE
  8
LC_OH_2021_05_O7
  70
1
  66
1
  0
VERTEX
  8
LC_OH_2021_05_O7
  10
257816.236
  20
4477172.328
  0
VERTEX
  8
LC_OH_2021_05_O7
  10
257765.558
  20
4475604.150
  0
VERTEX
  8
LC_OH_2021_05_O7
  10
257690.843
  20
4473291.234
  0
VERTEX
  8
LC_OH_2021_05_O7
  10
257686.168
  20
4473146.430
  0
VERTEX
  8
LC_OH_2021_05_O7
  10
257666.000
  20
4473135.000
  0
VERTEX
  8
LC_OH_2021_05_O7
  10
254937.500
  20
4473333.000
  0
VERTEX
  8
LC_OH_2021_05_O7
  10
255150.500
  20
4477193.500
  0
VERTEX
  8
LC_OH_2021_05_O7
  10
256977.000
  20
4477652.500
  0
VERTEX
  8
LC_OH_2021_05_O7
  10
256998.000
  20
4477641.500
  0
SEQEND
  8
LC_OH_2021_05_O7
  0
INSERT
  8
FeatureAttribs
  2
FEATURE
  41
1
  42
1
  43
1
  50
0
  10
236977.315
  20
4481509.073
 66
1
  0
ATTRIB
  8
FeatureAttribs
 70
0
  1
PNOA-H_AMS_1956-57_33k_ES_PAN_21mic_H50_0552_fot_68B-47513_E.tif
  2
NAME
  10
236977.315
  20
4481509.073
 40
34.86332
  0
SEQEND
  0
POLYLINE
  8
LC_OH_2021_05_O7
  70
1
  66
1
  0
VERTEX
  8
LC_OH_2021_05_O7
  10
236520.000
  20
4479584.648
  0
VERTEX
  8
LC_OH_2021_05_O7
  10
236520.000
  20
4483150.000
  0
VERTEX
  8
LC_OH_2021_05_O7
  10
235596.644
  20
4483150.000
  0
VERTEX
  8
LC_OH_2021_05_O7
  10
235563.500
  20
4483433.500
  0
VERTEX
  8
LC_OH_2021_05_O7
  10
238058.500
  20
4483430.500
  0
VERTEX
  8
LC_OH_2021_05_O7
  10
238284.500
  20
4483299.000
  0
VERTEX
  8
LC_OH_2021_05_O7
  10
238258.500
  20
4483242.500
  0
VERTEX
  8
LC_OH_2021_05_O7
  10
236565.000
  20
4479679.500
  0
VERTEX
  8
LC_OH_2021_05_O7
  10
236564.500
  20
4479678.500
  0
VERTEX
  8
LC_OH_2021_05_O7
  10
236520.000
  20
4479584.648
  0
SEQEND
  8
LC_OH_2021_05_O7
  0
INSERT
  8
FeatureAttribs
  2
FEATURE
  41
1
  42
1
  43
1
  50
0
  10
243300.334
  20
4481520.000
 66
1
  0
ATTRIB
  8
FeatureAttribs
 70
0
  1
PNOA-H_AMS_1956-57_33k_ES_PAN_21mic_H50_0552_fot_68B-47515_E.tif
  2
NAME
  10
243300.334
  20
4481520.000
 40
34.86332
  0
SEQEND
  0
POLYLINE
  8
LC_OH_2021_05_O7
  70
1
  66
1
  0
VERTEX
  8
LC_OH_2021_05_O7
  10
244847.500
  20
4482818.500
  0
VERTEX
  8
LC_OH_2021_05_O7
  10
245098.000
  20
4482733.500
  0
VERTEX
  8
LC_OH_2021_05_O7
  10
244955.500
  20
4481610.000
  0
VERTEX
  8
LC_OH_2021_05_O7
  10
241836.500
  20
4479703.500
  0
VERTEX
  8
LC_OH_2021_05_O7
  10
241761.000
  20
4482813.500
  0
VERTEX
  8
LC_OH_2021_05_O7
  10
241761.000
  20
4482825.500
  0
VERTEX
  8
LC_OH_2021_05_O7
  10
241772.000
  20
4482957.000
  0
VERTEX
  8
LC_OH_2021_05_O7
  10
243301.500
  20
4483333.000
  0
VERTEX
  8
LC_OH_2021_05_O7
  10
243319.500
  20
4483336.500
  0
VERTEX
  8
LC_OH_2021_05_O7
  10
244845.500
  20
4482819.000
  0
VERTEX
  8
LC_OH_2021_05_O7
  10
244847.500
  20
4482818.500
  0
SEQEND
  8
LC_OH_2021_05_O7
  0
INSERT
  8
FeatureAttribs
  2
FEATURE
  41
1
  42
1
  43
1
  50
0
  10
247169.382
  20
4480647.499
 66
1
  0
ATTRIB
  8
FeatureAttribs
 70
0
  1
PNOA-H_AMS_1956-57_33k_ES_PAN_21mic_H50_0552_fot_68B-47516_E.tif
  2
NAME
  10
247169.382
  20
4480647.499
 40
34.86332
  0
SEQEND
  0
POLYLINE
  8
LC_OH_2021_05_O7
  70
1
  66
1
  0
VERTEX
  8
LC_OH_2021_05_O7
  10
246895.500
  20
4482867.000
  0
VERTEX
  8
LC_OH_2021_05_O7
  10
248167.500
  20
4482572.000
  0
VERTEX
  8
LC_OH_2021_05_O7
  10
247786.500
  20
4478391.500
  0
VERTEX
  8
LC_OH_2021_05_O7
  10
247786.000
  20
4478390.500
  0
VERTEX
  8
LC_OH_2021_05_O7
  10
247320.500
  20
4478240.000
  0
VERTEX
  8
LC_OH_2021_05_O7
  10
245457.500
  20
4482845.500
  0
VERTEX
  8
LC_OH_2021_05_O7
  10
245457.500
  20
4482847.000
  0
VERTEX
  8
LC_OH_2021_05_O7
  10
246086.000
  20
4483055.000
  0
VERTEX
  8
LC_OH_2021_05_O7
  10
246893.000
  20
4482867.500
  0
VERTEX
  8
LC_OH_2021_05_O7
  10
246895.500
  20
4482867.000
  0
SEQEND
  8
LC_OH_2021_05_O7
  0
INSERT
  8
FeatureAttribs
  2
FEATURE
  41
1
  42
1
  43
1
  50
0
  10
239701.419
  20
4481309.499
 66
1
  0
ATTRIB
  8
FeatureAttribs
 70
0
  1
PNOA-H_AMS_1956-57_33k_ES_PAN_21mic_H50_0552_fot_68B-47514_E.tif
  2
NAME
  10
239701.419
  20
4481309.499
 40
34.86332
  0
SEQEND
  0
POLYLINE
  8
LC_OH_2021_05_O7
  70
1
  66
1
  0
VERTEX
  8
LC_OH_2021_05_O7
  10
240751.500
  20
4483395.500
  0
VERTEX
  8
LC_OH_2021_05_O7
  10
241772.500
  20
4482957.500
  0
VERTEX
  8
LC_OH_2021_05_O7
  10
241761.000
  20
4482822.500
  0
VERTEX
  8
LC_OH_2021_05_O7
  10
238957.000
  20
4479164.500
  0
VERTEX
  8
LC_OH_2021_05_O7
  10
238667.000
  20
4483167.500
  0
VERTEX
  8
LC_OH_2021_05_O7
  10
240611.000
  20
4483454.500
  0
VERTEX
  8
LC_OH_2021_05_O7
  10
240615.000
  20
4483454.500
  0
VERTEX
  8
LC_OH_2021_05_O7
  10
240750.000
  20
4483396.000
  0
VERTEX
  8
LC_OH_2021_05_O7
  10
240751.500
  20
4483395.500
  0
SEQEND
  8
LC_OH_2021_05_O7
  0
INSERT
  8
FeatureAttribs
  2
FEATURE
  41
1
  42
1
  43
1
  50
0
  10
250181.719
  20
4479840.249
 66
1
  0
ATTRIB
  8
FeatureAttribs
 70
0
  1
PNOA-H_AMS_1956-57_33k_ES_PAN_21mic_H50_0552_fot_68B-47517_E.tif
  2
NAME
  10
250181.719
  20
4479840.249
 40
34.86332
  0
SEQEND
  0
POLYLINE
  8
LC_OH_2021_05_O7
  70
1
  66
1
  0
VERTEX
  8
LC_OH_2021_05_O7
  10
251273.000
  20
4481996.000
  0
VERTEX
  8
LC_OH_2021_05_O7
  10
251273.500
  20
4481991.000
  0
VERTEX
  8
LC_OH_2021_05_O7
  10
251270.500
  20
4481961.500
  0
VERTEX
  8
LC_OH_2021_05_O7
  10
250873.000
  20
4478076.500
  0
VERTEX
  8
LC_OH_2021_05_O7
  10
249475.500
  20
4477684.500
  0
VERTEX
  8
LC_OH_2021_05_O7
  10
247938.500
  20
4478334.500
  0
VERTEX
  8
LC_OH_2021_05_O7
  10
251272.500
  20
4481995.000
  0
VERTEX
  8
LC_OH_2021_05_O7
  10
251273.000
  20
4481996.000
  0
SEQEND
  8
LC_OH_2021_05_O7
  0
INSERT
  8
FeatureAttribs
  2
FEATURE
  41
1
  42
1
  43
1
  50
0
  10
255586.130
  20
4479735.498
 66
1
  0
ATTRIB
  8
FeatureAttribs
 70
0
  1
PNOA-H_AMS_1956-57_33k_ES_PAN_21mic_H50_0552_fot_68B-47519_E.tif
  2
NAME
  10
255586.130
  20
4479735.498
 40
34.86332
  0
SEQEND
  0
POLYLINE
  8
LC_OH_2021_05_O7
  70
1
  66
1
  0
VERTEX
  8
LC_OH_2021_05_O7
  10
254317.000
  20
4482125.500
  0
VERTEX
  8
LC_OH_2021_05_O7
  10
254318.500
  20
4482128.000
  0
VERTEX
  8
LC_OH_2021_05_O7
  10
254731.000
  20
4482277.000
  0
VERTEX
  8
LC_OH_2021_05_O7
  10
254732.000
  20
4482277.500
  0
VERTEX
  8
LC_OH_2021_05_O7
  10
257217.500
  20
4481908.000
  0
VERTEX
  8
LC_OH_2021_05_O7
  10
256978.000
  20
4477652.500
  0
VERTEX
  8
LC_OH_2021_05_O7
  10
255150.500
  20
4477193.500
  0
VERTEX
  8
LC_OH_2021_05_O7
  10
253888.000
  20
4477853.000
  0
SEQEND
  8
LC_OH_2021_05_O7
  0
INSERT
  8
FeatureAttribs
  2
FEATURE
  41
1
  42
1
  43
1
  50
0
  10
252583.734
  20
4479971.249
 66
1
  0
ATTRIB
  8
FeatureAttribs
 70
0
  1
PNOA-H_AMS_1956-57_33k_ES_PAN_21mic_H50_0552_fot_68B-47518_E.tif
  2
NAME
  10
252583.734
  20
4479971.249
 40
34.86332
  0
SEQEND
  0
POLYLINE
  8
LC_OH_2021_05_O7
  70
1
  66
1
  0
VERTEX
  8
LC_OH_2021_05_O7
  10
251890.000
  20
4482530.000
  0
VERTEX
  8
LC_OH_2021_05_O7
  10
254317.500
  20
4482127.500
  0
VERTEX
  8
LC_OH_2021_05_O7
  10
253888.000
  20
4477853.000
  0
VERTEX
  8
LC_OH_2021_05_O7
  10
252235.500
  20
4477412.500
  0
VERTEX
  8
LC_OH_2021_05_O7
  10
250873.000
  20
4478076.500
  0
VERTEX
  8
LC_OH_2021_05_O7
  10
251273.500
  20
4481996.000
  0
VERTEX
  8
LC_OH_2021_05_O7
  10
251319.500
  20
4482324.500
  0
VERTEX
  8
LC_OH_2021_05_O7
  10
251889.000
  20
4482529.500
  0
VERTEX
  8
LC_OH_2021_05_O7
  10
251890.000
  20
4482530.000
  0
SEQEND
  8
LC_OH_2021_05_O7
  0
INSERT
  8
FeatureAttribs
  2
FEATURE
  41
1
  42
1
  43
1
  50
0
  10
257475.965
  20
4479627.214
 66
1
  0
ATTRIB
  8
FeatureAttribs
 70
0
  1
PNOA-H_AMS_1956-57_33k_ES_PAN_21mic_H50_0553_fot_68B-47520_E.tif
  2
NAME
  10
257475.965
  20
4479627.214
 40
34.86332
  0
SEQEND
  0
POLYLINE
  8
LC_OH_2021_05_O7
  70
1
  66
1
  0
VERTEX
  8
LC_OH_2021_05_O7
  10
257973.929
  20
4482049.371
  0
VERTEX
  8
LC_OH_2021_05_O7
  10
257915.083
  20
4480230.001
  0
VERTEX
  8
LC_OH_2021_05_O7
  10
257840.304
  20
4477917.072
  0
VERTEX
  8
LC_OH_2021_05_O7
  10
257816.240
  20
4477172.428
  0
VERTEX
  8
LC_OH_2021_05_O7
  10
256978.000
  20
4477652.500
  0
VERTEX
  8
LC_OH_2021_05_O7
  10
257217.500
  20
4481908.000
  0
VERTEX
  8
LC_OH_2021_05_O7
  10
257662.000
  20
4482082.000
  0
SEQEND
  8
LC_OH_2021_05_O7
  0
ENDSEC
  0
EOF
