  0
SECTION
  2
HEADER
  9
$ACADVER
  1
AC1009
  9
$LUNITS
  70
2
  9
$LIMMIN
  10
200898.311
  20
4469632.760
  9
$LIMMAX
  10
229888.780
  20
4489212.449
  9
$EXTMIN
  10
200898.311
  20
4469632.760
  9
$EXTMAX
  10
229888.780
  20
4489212.449
  999
Created by Global Mapper
  999
Projection: UTM
  999
Datum: ETRS89
  999
Ground Units: meters
  999
ZONE: 30
  0
ENDSEC
  0
SECTION
  2
TABLES
  0
ENDSEC
  0
SECTION
  2
BLOCKS
  0
BLOCK
  8
FeatureAttribs
  70
0
  2
FEATURE
  3
FEATURE
  10
0.00000000
  20
0.00000000
  0
ATTDEF
  8
FeatureAttribs
  70
0
  1
 
  2
NAME
  3
NAME
  10
0.00000000
  20
0.00000000
  40
1.00000000
  0
ENDBLK
  0
ENDSEC
  0
SECTION
  2
ENTITIES
  0
INSERT
  8
FeatureAttribs
  2
FEATURE
  41
1
  42
1
  43
1
  50
0
  10
201150.476
  20
4471464.082
 66
1
  0
ATTRIB
  8
FeatureAttribs
 70
0
  1
PNOA-H_AMS_1956-57_33k_ES_PAN_21mic_H50_0573_fot_71A-22075_W.tif
  2
NAME
  10
201150.476
  20
4471464.082
 40
34.98302
  0
SEQEND
  0
POLYLINE
  8
LC_OH_2021_05_O7
  70
1
  66
1
  0
VERTEX
  8
LC_OH_2021_05_O7
  10
201402.641
  20
4470687.164
  0
VERTEX
  8
LC_OH_2021_05_O7
  10
200898.311
  20
4470707.129
  0
VERTEX
  8
LC_OH_2021_05_O7
  10
200959.061
  20
4472232.310
  0
VERTEX
  8
LC_OH_2021_05_O7
  10
201041.999
  20
4472240.500
  0
VERTEX
  8
LC_OH_2021_05_O7
  10
201046.999
  20
4472241.000
  0
VERTEX
  8
LC_OH_2021_05_O7
  10
201054.499
  20
4472240.000
  0
VERTEX
  8
LC_OH_2021_05_O7
  10
201377.499
  20
4472044.000
  0
SEQEND
  8
LC_OH_2021_05_O7
  0
INSERT
  8
FeatureAttribs
  2
FEATURE
  41
1
  42
1
  43
1
  50
0
  10
207518.712
  20
4471146.413
 66
1
  0
ATTRIB
  8
FeatureAttribs
 70
0
  1
PNOA-H_AMS_1956-57_33k_ES_PAN_21mic_H50_0574_fot_71A-22072_W.tif
  2
NAME
  10
207518.712
  20
4471146.413
 40
34.98302
  0
SEQEND
  0
POLYLINE
  8
LC_OH_2021_05_O7
  70
1
  66
1
  0
VERTEX
  8
LC_OH_2021_05_O7
  10
208259.999
  20
4470417.641
  0
VERTEX
  8
LC_OH_2021_05_O7
  10
207979.046
  20
4470428.497
  0
VERTEX
  8
LC_OH_2021_05_O7
  10
206744.912
  20
4470476.770
  0
VERTEX
  8
LC_OH_2021_05_O7
  10
206811.499
  20
4471848.000
  0
VERTEX
  8
LC_OH_2021_05_O7
  10
207976.499
  20
4471948.500
  0
VERTEX
  8
LC_OH_2021_05_O7
  10
207982.499
  20
4471949.000
  0
VERTEX
  8
LC_OH_2021_05_O7
  10
208259.999
  20
4471972.826
  0
SEQEND
  8
LC_OH_2021_05_O7
  0
INSERT
  8
FeatureAttribs
  2
FEATURE
  41
1
  42
1
  43
1
  50
0
  10
205414.750
  20
4471215.500
 66
1
  0
ATTRIB
  8
FeatureAttribs
 70
0
  1
PNOA-H_AMS_1956-57_33k_ES_PAN_21mic_H50_0574_fot_71A-22073_W.tif
  2
NAME
  10
205414.750
  20
4471215.500
 40
34.98302
  0
SEQEND
  0
POLYLINE
  8
LC_OH_2021_05_O7
  70
1
  66
1
  0
VERTEX
  8
LC_OH_2021_05_O7
  10
206745.067
  20
4470476.764
  0
VERTEX
  8
LC_OH_2021_05_O7
  10
204438.691
  20
4470566.976
  0
VERTEX
  8
LC_OH_2021_05_O7
  10
204047.113
  20
4470582.478
  0
VERTEX
  8
LC_OH_2021_05_O7
  10
204050.499
  20
4471975.500
  0
VERTEX
  8
LC_OH_2021_05_O7
  10
206365.999
  20
4472110.500
  0
VERTEX
  8
LC_OH_2021_05_O7
  10
206374.499
  20
4472111.000
  0
VERTEX
  8
LC_OH_2021_05_O7
  10
206380.499
  20
4472111.000
  0
VERTEX
  8
LC_OH_2021_05_O7
  10
206383.999
  20
4472109.000
  0
VERTEX
  8
LC_OH_2021_05_O7
  10
206811.499
  20
4471848.000
  0
SEQEND
  8
LC_OH_2021_05_O7
  0
INSERT
  8
FeatureAttribs
  2
FEATURE
  41
1
  42
1
  43
1
  50
0
  10
202720.673
  20
4471225.999
 66
1
  0
ATTRIB
  8
FeatureAttribs
 70
0
  1
PNOA-H_AMS_1956-57_33k_ES_PAN_21mic_H50_0574_fot_71A-22074_W.tif
  2
NAME
  10
202720.673
  20
4471225.999
 40
34.98302
  0
SEQEND
  0
POLYLINE
  8
LC_OH_2021_05_O7
  70
1
  66
1
  0
VERTEX
  8
LC_OH_2021_05_O7
  10
204047.113
  20
4470582.478
  0
VERTEX
  8
LC_OH_2021_05_O7
  10
201402.641
  20
4470687.164
  0
VERTEX
  8
LC_OH_2021_05_O7
  10
201377.499
  20
4472044.000
  0
VERTEX
  8
LC_OH_2021_05_O7
  10
201815.499
  20
4472060.000
  0
VERTEX
  8
LC_OH_2021_05_O7
  10
201828.999
  20
4472060.500
  0
VERTEX
  8
LC_OH_2021_05_O7
  10
203798.999
  20
4472132.000
  0
VERTEX
  8
LC_OH_2021_05_O7
  10
204050.499
  20
4471975.500
  0
SEQEND
  8
LC_OH_2021_05_O7
  0
INSERT
  8
FeatureAttribs
  2
FEATURE
  41
1
  42
1
  43
1
  50
0
  10
204007.268
  20
4487429.500
 66
1
  0
ATTRIB
  8
FeatureAttribs
 70
0
  1
PNOA-H_AMS_1956-57_33k_ES_PAN_21mic_H50_0551_fot_67A-44246_E.tif
  2
NAME
  10
204007.268
  20
4487429.500
 40
34.98302
  0
SEQEND
  0
POLYLINE
  8
LC_OH_2021_05_O7
  70
1
  66
1
  0
VERTEX
  8
LC_OH_2021_05_O7
  10
205481.583
  20
4489059.863
  0
VERTEX
  8
LC_OH_2021_05_O7
  10
205356.499
  20
4485297.000
  0
VERTEX
  8
LC_OH_2021_05_O7
  10
204153.999
  20
4484887.500
  0
VERTEX
  8
LC_OH_2021_05_O7
  10
202522.999
  20
4485428.500
  0
VERTEX
  8
LC_OH_2021_05_O7
  10
202642.971
  20
4489172.471
  0
VERTEX
  8
LC_OH_2021_05_O7
  10
205168.128
  20
4489072.166
  0
SEQEND
  8
LC_OH_2021_05_O7
  0
INSERT
  8
FeatureAttribs
  2
FEATURE
  41
1
  42
1
  43
1
  50
0
  10
202056.969
  20
4487140.223
 66
1
  0
ATTRIB
  8
FeatureAttribs
 70
0
  1
PNOA-H_AMS_1956-57_33k_ES_PAN_21mic_H50_0551_fot_67A-44245_E.tif
  2
NAME
  10
202056.969
  20
4487140.223
 40
34.98302
  0
SEQEND
  0
POLYLINE
  8
LC_OH_2021_05_O7
  70
1
  66
1
  0
VERTEX
  8
LC_OH_2021_05_O7
  10
202642.971
  20
4489172.471
  0
VERTEX
  8
LC_OH_2021_05_O7
  10
202522.999
  20
4485428.500
  0
VERTEX
  8
LC_OH_2021_05_O7
  10
201470.967
  20
4485067.996
  0
VERTEX
  8
LC_OH_2021_05_O7
  10
201544.097
  20
4486899.266
  0
VERTEX
  8
LC_OH_2021_05_O7
  10
201636.510
  20
4489212.449
  0
SEQEND
  8
LC_OH_2021_05_O7
  0
INSERT
  8
FeatureAttribs
  2
FEATURE
  41
1
  42
1
  43
1
  50
0
  10
209742.770
  20
4487131.498
 66
1
  0
ATTRIB
  8
FeatureAttribs
 70
0
  1
PNOA-H_AMS_1956-57_33k_ES_PAN_21mic_H50_0551_fot_67A-44248_E.tif
  2
NAME
  10
209742.770
  20
4487131.498
 40
34.98302
  0
SEQEND
  0
POLYLINE
  8
LC_OH_2021_05_O7
  70
1
  66
1
  0
VERTEX
  8
LC_OH_2021_05_O7
  10
211293.653
  20
4488832.979
  0
VERTEX
  8
LC_OH_2021_05_O7
  10
211110.999
  20
4485010.500
  0
VERTEX
  8
LC_OH_2021_05_O7
  10
209797.999
  20
4484652.000
  0
VERTEX
  8
LC_OH_2021_05_O7
  10
208116.999
  20
4485215.000
  0
VERTEX
  8
LC_OH_2021_05_O7
  10
208420.933
  20
4488944.499
  0
VERTEX
  8
LC_OH_2021_05_O7
  10
208699.721
  20
4488933.557
  0
SEQEND
  8
LC_OH_2021_05_O7
  0
INSERT
  8
FeatureAttribs
  2
FEATURE
  41
1
  42
1
  43
1
  50
0
  10
206854.839
  20
4487297.749
 66
1
  0
ATTRIB
  8
FeatureAttribs
 70
0
  1
PNOA-H_AMS_1956-57_33k_ES_PAN_21mic_H50_0551_fot_67A-44247_E.tif
  2
NAME
  10
206854.839
  20
4487297.749
 40
34.98302
  0
SEQEND
  0
POLYLINE
  8
LC_OH_2021_05_O7
  70
1
  66
1
  0
VERTEX
  8
LC_OH_2021_05_O7
  10
208421.123
  20
4488944.491
  0
VERTEX
  8
LC_OH_2021_05_O7
  10
208116.999
  20
4485215.000
  0
VERTEX
  8
LC_OH_2021_05_O7
  10
206956.999
  20
4484802.500
  0
VERTEX
  8
LC_OH_2021_05_O7
  10
206934.999
  20
4484808.500
  0
VERTEX
  8
LC_OH_2021_05_O7
  10
205356.499
  20
4485297.000
  0
VERTEX
  8
LC_OH_2021_05_O7
  10
205481.252
  20
4489059.876
  0
SEQEND
  8
LC_OH_2021_05_O7
  0
INSERT
  8
FeatureAttribs
  2
FEATURE
  41
1
  42
1
  43
1
  50
0
  10
218512.951
  20
4486594.248
 66
1
  0
ATTRIB
  8
FeatureAttribs
 70
0
  1
PNOA-H_AMS_1956-57_33k_ES_PAN_21mic_H50_0551_fot_67A-44251_E.tif
  2
NAME
  10
218512.951
  20
4486594.248
 40
34.98302
  0
SEQEND
  0
POLYLINE
  8
LC_OH_2021_05_O7
  70
1
  66
1
  0
VERTEX
  8
LC_OH_2021_05_O7
  10
219953.731
  20
4488503.150
  0
VERTEX
  8
LC_OH_2021_05_O7
  10
220069.999
  20
4488474.500
  0
VERTEX
  8
LC_OH_2021_05_O7
  10
219796.499
  20
4484256.500
  0
VERTEX
  8
LC_OH_2021_05_O7
  10
217580.499
  20
4484249.000
  0
VERTEX
  8
LC_OH_2021_05_O7
  10
217478.999
  20
4484249.000
  0
VERTEX
  8
LC_OH_2021_05_O7
  10
216955.999
  20
4484547.000
  0
VERTEX
  8
LC_OH_2021_05_O7
  10
217197.566
  20
4488607.093
  0
VERTEX
  8
LC_OH_2021_05_O7
  10
219294.355
  20
4488527.779
  0
SEQEND
  8
LC_OH_2021_05_O7
  0
INSERT
  8
FeatureAttribs
  2
FEATURE
  41
1
  42
1
  43
1
  50
0
  10
215617.851
  20
4486747.500
 66
1
  0
ATTRIB
  8
FeatureAttribs
 70
0
  1
PNOA-H_AMS_1956-57_33k_ES_PAN_21mic_H50_0551_fot_67A-44250_E.tif
  2
NAME
  10
215617.851
  20
4486747.500
 40
34.98302
  0
SEQEND
  0
POLYLINE
  8
LC_OH_2021_05_O7
  70
1
  66
1
  0
VERTEX
  8
LC_OH_2021_05_O7
  10
217198.030
  20
4488607.076
  0
VERTEX
  8
LC_OH_2021_05_O7
  10
216955.999
  20
4484547.000
  0
VERTEX
  8
LC_OH_2021_05_O7
  10
215022.499
  20
4484314.500
  0
VERTEX
  8
LC_OH_2021_05_O7
  10
214024.999
  20
4484805.000
  0
VERTEX
  8
LC_OH_2021_05_O7
  10
214126.999
  20
4486402.000
  0
VERTEX
  8
LC_OH_2021_05_O7
  10
214126.999
  20
4486410.000
  0
VERTEX
  8
LC_OH_2021_05_O7
  10
214274.155
  20
4488718.381
  0
VERTEX
  8
LC_OH_2021_05_O7
  10
215762.834
  20
4488661.364
  0
SEQEND
  8
LC_OH_2021_05_O7
  0
INSERT
  8
FeatureAttribs
  2
FEATURE
  41
1
  42
1
  43
1
  50
0
  10
224114.217
  20
4486245.249
 66
1
  0
ATTRIB
  8
FeatureAttribs
 70
0
  1
PNOA-H_AMS_1956-57_33k_ES_PAN_21mic_H50_0551_fot_67A-44253_E.tif
  2
NAME
  10
224114.217
  20
4486245.249
 40
34.98302
  0
SEQEND
  0
POLYLINE
  8
LC_OH_2021_05_O7
  70
1
  66
1
  0
VERTEX
  8
LC_OH_2021_05_O7
  10
225578.635
  20
4488294.350
  0
VERTEX
  8
LC_OH_2021_05_O7
  10
225368.500
  20
4483881.500
  0
VERTEX
  8
LC_OH_2021_05_O7
  10
222871.500
  20
4483888.000
  0
VERTEX
  8
LC_OH_2021_05_O7
  10
222607.500
  20
4484066.000
  0
VERTEX
  8
LC_OH_2021_05_O7
  10
222883.000
  20
4488359.000
  0
VERTEX
  8
LC_OH_2021_05_O7
  10
222960.933
  20
4488390.888
  0
SEQEND
  8
LC_OH_2021_05_O7
  0
INSERT
  8
FeatureAttribs
  2
FEATURE
  41
1
  42
1
  43
1
  50
0
  10
226732.665
  20
4486100.499
 66
1
  0
ATTRIB
  8
FeatureAttribs
 70
0
  1
PNOA-H_AMS_1956-57_33k_ES_PAN_21mic_H50_0551_fot_67A-44254_E.tif
  2
NAME
  10
226732.665
  20
4486100.499
 40
34.98302
  0
SEQEND
  0
POLYLINE
  8
LC_OH_2021_05_O7
  70
1
  66
1
  0
VERTEX
  8
LC_OH_2021_05_O7
  10
228101.524
  20
4488202.136
  0
VERTEX
  8
LC_OH_2021_05_O7
  10
227868.500
  20
4483765.500
  0
VERTEX
  8
LC_OH_2021_05_O7
  10
225645.000
  20
4483710.500
  0
VERTEX
  8
LC_OH_2021_05_O7
  10
225368.500
  20
4483881.500
  0
VERTEX
  8
LC_OH_2021_05_O7
  10
225578.635
  20
4488294.350
  0
VERTEX
  8
LC_OH_2021_05_O7
  10
226357.328
  20
4488265.633
  0
SEQEND
  8
LC_OH_2021_05_O7
  0
INSERT
  8
FeatureAttribs
  2
FEATURE
  41
1
  42
1
  43
1
  50
0
  10
212683.270
  20
4486961.250
 66
1
  0
ATTRIB
  8
FeatureAttribs
 70
0
  1
PNOA-H_AMS_1956-57_33k_ES_PAN_21mic_H50_0551_fot_67A-44249_E.tif
  2
NAME
  10
212683.270
  20
4486961.250
 40
34.98302
  0
SEQEND
  0
POLYLINE
  8
LC_OH_2021_05_O7
  70
1
  66
1
  0
VERTEX
  8
LC_OH_2021_05_O7
  10
214274.168
  20
4488718.380
  0
VERTEX
  8
LC_OH_2021_05_O7
  10
214024.999
  20
4484805.000
  0
VERTEX
  8
LC_OH_2021_05_O7
  10
212362.499
  20
4484471.500
  0
VERTEX
  8
LC_OH_2021_05_O7
  10
212357.499
  20
4484472.500
  0
VERTEX
  8
LC_OH_2021_05_O7
  10
211110.999
  20
4485010.000
  0
VERTEX
  8
LC_OH_2021_05_O7
  10
211293.655
  20
4488832.979
  0
VERTEX
  8
LC_OH_2021_05_O7
  10
212231.289
  20
4488796.623
  0
SEQEND
  8
LC_OH_2021_05_O7
  0
INSERT
  8
FeatureAttribs
  2
FEATURE
  41
1
  42
1
  43
1
  50
0
  10
221346.706
  20
4486405.999
 66
1
  0
ATTRIB
  8
FeatureAttribs
 70
0
  1
PNOA-H_AMS_1956-57_33k_ES_PAN_21mic_H50_0551_fot_67A-44252_E.tif
  2
NAME
  10
221346.706
  20
4486405.999
 40
34.98302
  0
SEQEND
  0
POLYLINE
  8
LC_OH_2021_05_O7
  70
1
  66
1
  0
VERTEX
  8
LC_OH_2021_05_O7
  10
222654.156
  20
4488402.283
  0
VERTEX
  8
LC_OH_2021_05_O7
  10
222883.000
  20
4488359.000
  0
VERTEX
  8
LC_OH_2021_05_O7
  10
222607.500
  20
4484066.500
  0
VERTEX
  8
LC_OH_2021_05_O7
  10
220083.499
  20
4484067.000
  0
VERTEX
  8
LC_OH_2021_05_O7
  10
219796.499
  20
4484256.500
  0
VERTEX
  8
LC_OH_2021_05_O7
  10
220069.499
  20
4488470.500
  0
VERTEX
  8
LC_OH_2021_05_O7
  10
220069.999
  20
4488475.000
  0
VERTEX
  8
LC_OH_2021_05_O7
  10
220131.183
  20
4488496.522
  0
SEQEND
  8
LC_OH_2021_05_O7
  0
INSERT
  8
FeatureAttribs
  2
FEATURE
  41
1
  42
1
  43
1
  50
0
  10
229213.172
  20
4485942.999
 66
1
  0
ATTRIB
  8
FeatureAttribs
 70
0
  1
PNOA-H_AMS_1956-57_33k_ES_PAN_21mic_H50_0551_fot_67A-44255_E.tif
  2
NAME
  10
229213.172
  20
4485942.999
 40
34.98302
  0
SEQEND
  0
POLYLINE
  8
LC_OH_2021_05_O7
  70
1
  66
1
  0
VERTEX
  8
LC_OH_2021_05_O7
  10
229726.269
  20
4483641.960
  0
VERTEX
  8
LC_OH_2021_05_O7
  10
228324.000
  20
4483522.500
  0
VERTEX
  8
LC_OH_2021_05_O7
  10
227868.500
  20
4483765.500
  0
VERTEX
  8
LC_OH_2021_05_O7
  10
228101.600
  20
4488202.133
  0
VERTEX
  8
LC_OH_2021_05_O7
  10
229888.780
  20
4488137.072
  0
VERTEX
  8
LC_OH_2021_05_O7
  10
229805.139
  20
4485824.012
  0
SEQEND
  8
LC_OH_2021_05_O7
  0
INSERT
  8
FeatureAttribs
  2
FEATURE
  41
1
  42
1
  43
1
  50
0
  10
201675.025
  20
4478571.000
 66
1
  0
ATTRIB
  8
FeatureAttribs
 70
0
  1
PNOA-H_AMS_1956-57_33k_ES_PAN_21mic_H50_0550_fot_000-46882_R.tif
  2
NAME
  10
201675.025
  20
4478571.000
 40
34.98302
  0
SEQEND
  0
POLYLINE
  8
LC_OH_2021_05_O7
  70
1
  66
1
  0
VERTEX
  8
LC_OH_2021_05_O7
  10
201258.601
  20
4479746.812
  0
VERTEX
  8
LC_OH_2021_05_O7
  10
203058.499
  20
4479200.500
  0
VERTEX
  8
LC_OH_2021_05_O7
  10
203046.499
  20
4477644.500
  0
VERTEX
  8
LC_OH_2021_05_O7
  10
203046.499
  20
4477630.500
  0
VERTEX
  8
LC_OH_2021_05_O7
  10
203044.499
  20
4477418.000
  0
VERTEX
  8
LC_OH_2021_05_O7
  10
201155.137
  20
4477152.398
  0
VERTEX
  8
LC_OH_2021_05_O7
  10
201174.839
  20
4477646.585
  0
SEQEND
  8
LC_OH_2021_05_O7
  0
INSERT
  8
FeatureAttribs
  2
FEATURE
  41
1
  42
1
  43
1
  50
0
  10
201823.364
  20
4480448.751
 66
1
  0
ATTRIB
  8
FeatureAttribs
 70
0
  1
PNOA-H_AMS_1956-57_33k_ES_PAN_21mic_H50_0551_fot_69A-47864_W.tif
  2
NAME
  10
201823.364
  20
4480448.751
 40
34.98302
  0
SEQEND
  0
POLYLINE
  8
LC_OH_2021_05_O7
  70
1
  66
1
  0
VERTEX
  8
LC_OH_2021_05_O7
  10
201333.999
  20
4481636.588
  0
VERTEX
  8
LC_OH_2021_05_O7
  10
203285.499
  20
4481122.000
  0
VERTEX
  8
LC_OH_2021_05_O7
  10
203274.499
  20
4480940.000
  0
VERTEX
  8
LC_OH_2021_05_O7
  10
203058.999
  20
4479200.000
  0
VERTEX
  8
LC_OH_2021_05_O7
  10
201258.597
  20
4479746.703
  0
VERTEX
  8
LC_OH_2021_05_O7
  10
201267.094
  20
4479959.747
  0
SEQEND
  8
LC_OH_2021_05_O7
  0
INSERT
  8
FeatureAttribs
  2
FEATURE
  41
1
  42
1
  43
1
  50
0
  10
204018.185
  20
4479039.500
 66
1
  0
ATTRIB
  8
FeatureAttribs
 70
0
  1
PNOA-H_AMS_1956-57_33k_ES_PAN_21mic_H50_0551_fot_000-46881_R.tif
  2
NAME
  10
204018.185
  20
4479039.500
 40
34.98302
  0
SEQEND
  0
POLYLINE
  8
LC_OH_2021_05_O7
  70
1
  66
1
  0
VERTEX
  8
LC_OH_2021_05_O7
  10
203058.999
  20
4479202.000
  0
VERTEX
  8
LC_OH_2021_05_O7
  10
203275.499
  20
4480948.500
  0
VERTEX
  8
LC_OH_2021_05_O7
  10
203275.499
  20
4480951.500
  0
VERTEX
  8
LC_OH_2021_05_O7
  10
206088.999
  20
4477793.000
  0
VERTEX
  8
LC_OH_2021_05_O7
  10
206094.999
  20
4477367.500
  0
VERTEX
  8
LC_OH_2021_05_O7
  10
206094.999
  20
4477347.500
  0
VERTEX
  8
LC_OH_2021_05_O7
  10
206090.999
  20
4477347.000
  0
VERTEX
  8
LC_OH_2021_05_O7
  10
203622.999
  20
4477127.500
  0
VERTEX
  8
LC_OH_2021_05_O7
  10
203044.999
  20
4477418.000
  0
VERTEX
  8
LC_OH_2021_05_O7
  10
203058.999
  20
4479202.000
  0
SEQEND
  8
LC_OH_2021_05_O7
  0
INSERT
  8
FeatureAttribs
  2
FEATURE
  41
1
  42
1
  43
1
  50
0
  10
205293.333
  20
4479664.499
 66
1
  0
ATTRIB
  8
FeatureAttribs
 70
0
  1
PNOA-H_AMS_1956-57_33k_ES_PAN_21mic_H50_0551_fot_69A-47863_W.tif
  2
NAME
  10
205293.333
  20
4479664.499
 40
34.98302
  0
SEQEND
  0
POLYLINE
  8
LC_OH_2021_05_O7
  70
1
  66
1
  0
VERTEX
  8
LC_OH_2021_05_O7
  10
203284.999
  20
4481114.000
  0
VERTEX
  8
LC_OH_2021_05_O7
  10
203285.499
  20
4481121.500
  0
VERTEX
  8
LC_OH_2021_05_O7
  10
203286.499
  20
4481122.500
  0
VERTEX
  8
LC_OH_2021_05_O7
  10
203992.499
  20
4481536.000
  0
VERTEX
  8
LC_OH_2021_05_O7
  10
206216.499
  20
4480963.500
  0
VERTEX
  8
LC_OH_2021_05_O7
  10
206217.499
  20
4480963.000
  0
VERTEX
  8
LC_OH_2021_05_O7
  10
206217.499
  20
4480958.500
  0
VERTEX
  8
LC_OH_2021_05_O7
  10
206165.499
  20
4479685.500
  0
VERTEX
  8
LC_OH_2021_05_O7
  10
206165.499
  20
4479678.500
  0
VERTEX
  8
LC_OH_2021_05_O7
  10
206089.999
  20
4477807.000
  0
VERTEX
  8
LC_OH_2021_05_O7
  10
206089.499
  20
4477795.000
  0
VERTEX
  8
LC_OH_2021_05_O7
  10
206088.499
  20
4477793.000
  0
VERTEX
  8
LC_OH_2021_05_O7
  10
203275.499
  20
4480951.500
  0
VERTEX
  8
LC_OH_2021_05_O7
  10
203284.999
  20
4481114.000
  0
SEQEND
  8
LC_OH_2021_05_O7
  0
INSERT
  8
FeatureAttribs
  2
FEATURE
  41
1
  42
1
  43
1
  50
0
  10
207294.218
  20
4479254.921
 66
1
  0
ATTRIB
  8
FeatureAttribs
 70
0
  1
PNOA-H_AMS_1956-57_33k_ES_PAN_21mic_H50_0551_fot_69A-47862_W.tif
  2
NAME
  10
207294.218
  20
4479254.921
 40
34.98302
  0
SEQEND
  0
POLYLINE
  8
LC_OH_2021_05_O7
  70
1
  66
1
  0
VERTEX
  8
LC_OH_2021_05_O7
  10
208619.999
  20
4481052.435
  0
VERTEX
  8
LC_OH_2021_05_O7
  10
208619.999
  20
4479580.000
  0
VERTEX
  8
LC_OH_2021_05_O7
  10
208439.999
  20
4479580.000
  0
VERTEX
  8
LC_OH_2021_05_O7
  10
208439.999
  20
4477114.343
  0
VERTEX
  8
LC_OH_2021_05_O7
  10
206262.499
  20
4477242.000
  0
VERTEX
  8
LC_OH_2021_05_O7
  10
206094.999
  20
4477347.500
  0
VERTEX
  8
LC_OH_2021_05_O7
  10
206088.999
  20
4477785.000
  0
VERTEX
  8
LC_OH_2021_05_O7
  10
206217.499
  20
4480963.500
  0
VERTEX
  8
LC_OH_2021_05_O7
  10
206903.499
  20
4481395.500
  0
VERTEX
  8
LC_OH_2021_05_O7
  10
207980.999
  20
4481180.000
  0
VERTEX
  8
LC_OH_2021_05_O7
  10
207983.499
  20
4481179.500
  0
VERTEX
  8
LC_OH_2021_05_O7
  10
208619.999
  20
4481052.435
  0
SEQEND
  8
LC_OH_2021_05_O7
  0
INSERT
  8
FeatureAttribs
  2
FEATURE
  41
1
  42
1
  43
1
  50
0
  10
201048.521
  20
4473350.907
 66
1
  0
ATTRIB
  8
FeatureAttribs
 70
0
  1
PNOA-H_AMS_1956-57_33k_ES_PAN_21mic_H50_0550_fot_70A-46706_E.tif
  2
NAME
  10
201048.521
  20
4473350.907
 40
34.98302
  0
SEQEND
  0
POLYLINE
  8
LC_OH_2021_05_O7
  70
1
  66
1
  0
VERTEX
  8
LC_OH_2021_05_O7
  10
201048.216
  20
4474469.981
  0
VERTEX
  8
LC_OH_2021_05_O7
  10
201137.999
  20
4474203.000
  0
VERTEX
  8
LC_OH_2021_05_O7
  10
201051.999
  20
4472241.000
  0
VERTEX
  8
LC_OH_2021_05_O7
  10
200959.042
  20
4472231.833
  0
VERTEX
  8
LC_OH_2021_05_O7
  10
200990.447
  20
4473020.276
  0
SEQEND
  8
LC_OH_2021_05_O7
  0
INSERT
  8
FeatureAttribs
  2
FEATURE
  41
1
  42
1
  43
1
  50
0
  10
202473.915
  20
4473483.500
 66
1
  0
ATTRIB
  8
FeatureAttribs
 70
0
  1
PNOA-H_AMS_1956-57_33k_ES_PAN_21mic_H50_0551_fot_70A-46707_E.tif
  2
NAME
  10
202473.915
  20
4473483.500
 40
34.98302
  0
SEQEND
  0
POLYLINE
  8
LC_OH_2021_05_O7
  70
1
  66
1
  0
VERTEX
  8
LC_OH_2021_05_O7
  10
201137.999
  20
4474202.500
  0
VERTEX
  8
LC_OH_2021_05_O7
  10
201836.999
  20
4474410.500
  0
VERTEX
  8
LC_OH_2021_05_O7
  10
201838.999
  20
4474411.000
  0
VERTEX
  8
LC_OH_2021_05_O7
  10
203562.499
  20
4474923.000
  0
VERTEX
  8
LC_OH_2021_05_O7
  10
203862.999
  20
4474174.500
  0
VERTEX
  8
LC_OH_2021_05_O7
  10
203798.999
  20
4472132.000
  0
VERTEX
  8
LC_OH_2021_05_O7
  10
201376.499
  20
4472044.000
  0
VERTEX
  8
LC_OH_2021_05_O7
  10
201051.999
  20
4472241.000
  0
SEQEND
  8
LC_OH_2021_05_O7
  0
INSERT
  8
FeatureAttribs
  2
FEATURE
  41
1
  42
1
  43
1
  50
0
  10
226919.924
  20
4483587.749
 66
1
  0
ATTRIB
  8
FeatureAttribs
 70
0
  1
PNOA-H_AMS_1956-57_33k_ES_PAN_21mic_H50_0551_fot_68A-40347_E.tif
  2
NAME
  10
226919.924
  20
4483587.749
 40
34.98302
  0
SEQEND
  0
POLYLINE
  8
LC_OH_2021_05_O7
  70
1
  66
1
  0
VERTEX
  8
LC_OH_2021_05_O7
  10
228318.986
  20
4483410.000
  0
VERTEX
  8
LC_OH_2021_05_O7
  10
225626.967
  20
4483410.000
  0
VERTEX
  8
LC_OH_2021_05_O7
  10
225645.000
  20
4483710.500
  0
VERTEX
  8
LC_OH_2021_05_O7
  10
226381.500
  20
4483729.000
  0
VERTEX
  8
LC_OH_2021_05_O7
  10
226402.000
  20
4483729.500
  0
VERTEX
  8
LC_OH_2021_05_O7
  10
227869.000
  20
4483765.500
  0
VERTEX
  8
LC_OH_2021_05_O7
  10
228324.500
  20
4483522.500
  0
VERTEX
  8
LC_OH_2021_05_O7
  10
228318.986
  20
4483410.000
  0
SEQEND
  8
LC_OH_2021_05_O7
  0
INSERT
  8
FeatureAttribs
  2
FEATURE
  41
1
  42
1
  43
1
  50
0
  10
207775.268
  20
4483133.650
 66
1
  0
ATTRIB
  8
FeatureAttribs
 70
0
  1
PNOA-H_AMS_1956-57_33k_ES_PAN_21mic_H50_0551_fot_68A-40340_E.tif
  2
NAME
  10
207775.268
  20
4483133.650
 40
34.98302
  0
SEQEND
  0
POLYLINE
  8
LC_OH_2021_05_O7
  70
1
  66
1
  0
VERTEX
  8
LC_OH_2021_05_O7
  10
209729.655
  20
4483930.000
  0
VERTEX
  8
LC_OH_2021_05_O7
  10
208619.999
  20
4483930.000
  0
VERTEX
  8
LC_OH_2021_05_O7
  10
208619.999
  20
4481052.300
  0
VERTEX
  8
LC_OH_2021_05_O7
  10
206903.999
  20
4481395.500
  0
VERTEX
  8
LC_OH_2021_05_O7
  10
206955.999
  20
4484802.500
  0
VERTEX
  8
LC_OH_2021_05_O7
  10
208114.499
  20
4485214.500
  0
VERTEX
  8
LC_OH_2021_05_O7
  10
208115.499
  20
4485215.000
  0
VERTEX
  8
LC_OH_2021_05_O7
  10
208118.499
  20
4485215.000
  0
VERTEX
  8
LC_OH_2021_05_O7
  10
208173.999
  20
4485196.500
  0
VERTEX
  8
LC_OH_2021_05_O7
  10
209796.999
  20
4484652.500
  0
VERTEX
  8
LC_OH_2021_05_O7
  10
209729.655
  20
4483930.000
  0
SEQEND
  8
LC_OH_2021_05_O7
  0
INSERT
  8
FeatureAttribs
  2
FEATURE
  41
1
  42
1
  43
1
  50
0
  10
205499.777
  20
4483129.999
 66
1
  0
ATTRIB
  8
FeatureAttribs
 70
0
  1
PNOA-H_AMS_1956-57_33k_ES_PAN_21mic_H50_0551_fot_68A-40339_E.tif
  2
NAME
  10
205499.777
  20
4483129.999
 40
34.98302
  0
SEQEND
  0
POLYLINE
  8
LC_OH_2021_05_O7
  70
1
  66
1
  0
VERTEX
  8
LC_OH_2021_05_O7
  10
204153.499
  20
4484887.500
  0
VERTEX
  8
LC_OH_2021_05_O7
  10
205355.999
  20
4485297.000
  0
VERTEX
  8
LC_OH_2021_05_O7
  10
205933.999
  20
4485118.000
  0
VERTEX
  8
LC_OH_2021_05_O7
  10
205935.499
  20
4485118.000
  0
VERTEX
  8
LC_OH_2021_05_O7
  10
206955.999
  20
4484802.500
  0
VERTEX
  8
LC_OH_2021_05_O7
  10
206903.999
  20
4481395.500
  0
VERTEX
  8
LC_OH_2021_05_O7
  10
206217.499
  20
4480963.000
  0
VERTEX
  8
LC_OH_2021_05_O7
  10
203992.499
  20
4481536.000
  0
VERTEX
  8
LC_OH_2021_05_O7
  10
204153.499
  20
4484887.500
  0
SEQEND
  8
LC_OH_2021_05_O7
  0
INSERT
  8
FeatureAttribs
  2
FEATURE
  41
1
  42
1
  43
1
  50
0
  10
205129.260
  20
4473405.251
 66
1
  0
ATTRIB
  8
FeatureAttribs
 70
0
  1
PNOA-H_AMS_1956-57_33k_ES_PAN_21mic_H50_0551_fot_70A-46708_E.tif
  2
NAME
  10
205129.260
  20
4473405.251
 40
34.98302
  0
SEQEND
  0
POLYLINE
  8
LC_OH_2021_05_O7
  70
1
  66
1
  0
VERTEX
  8
LC_OH_2021_05_O7
  10
203862.999
  20
4474174.000
  0
VERTEX
  8
LC_OH_2021_05_O7
  10
206121.499
  20
4474834.500
  0
VERTEX
  8
LC_OH_2021_05_O7
  10
206122.999
  20
4474835.000
  0
VERTEX
  8
LC_OH_2021_05_O7
  10
206123.999
  20
4474835.000
  0
VERTEX
  8
LC_OH_2021_05_O7
  10
206125.499
  20
4474831.500
  0
VERTEX
  8
LC_OH_2021_05_O7
  10
206437.999
  20
4474006.000
  0
VERTEX
  8
LC_OH_2021_05_O7
  10
206379.999
  20
4472111.000
  0
VERTEX
  8
LC_OH_2021_05_O7
  10
204049.999
  20
4471975.500
  0
VERTEX
  8
LC_OH_2021_05_O7
  10
203798.999
  20
4472131.500
  0
VERTEX
  8
LC_OH_2021_05_O7
  10
203862.999
  20
4474174.000
  0
SEQEND
  8
LC_OH_2021_05_O7
  0
INSERT
  8
FeatureAttribs
  2
FEATURE
  41
1
  42
1
  43
1
  50
0
  10
207337.317
  20
4473242.069
 66
1
  0
ATTRIB
  8
FeatureAttribs
 70
0
  1
PNOA-H_AMS_1956-57_33k_ES_PAN_21mic_H50_0551_fot_70A-46709_E.tif
  2
NAME
  10
207337.317
  20
4473242.069
 40
34.98302
  0
SEQEND
  0
POLYLINE
  8
LC_OH_2021_05_O7
  70
1
  66
1
  0
VERTEX
  8
LC_OH_2021_05_O7
  10
208259.999
  20
4471972.731
  0
VERTEX
  8
LC_OH_2021_05_O7
  10
206810.499
  20
4471848.000
  0
VERTEX
  8
LC_OH_2021_05_O7
  10
206379.999
  20
4472111.000
  0
VERTEX
  8
LC_OH_2021_05_O7
  10
206437.999
  20
4474005.000
  0
VERTEX
  8
LC_OH_2021_05_O7
  10
207980.999
  20
4474539.500
  0
VERTEX
  8
LC_OH_2021_05_O7
  10
207982.499
  20
4474540.000
  0
VERTEX
  8
LC_OH_2021_05_O7
  10
208259.999
  20
4474636.137
  0
VERTEX
  8
LC_OH_2021_05_O7
  10
208259.999
  20
4471972.731
  0
SEQEND
  8
LC_OH_2021_05_O7
  0
INSERT
  8
FeatureAttribs
  2
FEATURE
  41
1
  42
1
  43
1
  50
0
  10
213634.430
  20
4484367.499
 66
1
  0
ATTRIB
  8
FeatureAttribs
 70
0
  1
PNOA-H_AMS_1956-57_33k_ES_PAN_21mic_H50_0551_fot_68A-40342_E.tif
  2
NAME
  10
213634.430
  20
4484367.499
 40
34.98302
  0
SEQEND
  0
POLYLINE
  8
LC_OH_2021_05_O7
  70
1
  66
1
  0
VERTEX
  8
LC_OH_2021_05_O7
  10
214988.930
  20
4483930.000
  0
VERTEX
  8
LC_OH_2021_05_O7
  10
212322.448
  20
4483930.000
  0
VERTEX
  8
LC_OH_2021_05_O7
  10
212360.999
  20
4484471.500
  0
VERTEX
  8
LC_OH_2021_05_O7
  10
214022.499
  20
4484805.000
  0
VERTEX
  8
LC_OH_2021_05_O7
  10
214025.999
  20
4484805.000
  0
VERTEX
  8
LC_OH_2021_05_O7
  10
214031.499
  20
4484802.500
  0
VERTEX
  8
LC_OH_2021_05_O7
  10
214125.999
  20
4484755.500
  0
VERTEX
  8
LC_OH_2021_05_O7
  10
214127.499
  20
4484755.000
  0
VERTEX
  8
LC_OH_2021_05_O7
  10
215022.999
  20
4484314.500
  0
VERTEX
  8
LC_OH_2021_05_O7
  10
214988.930
  20
4483930.000
  0
SEQEND
  8
LC_OH_2021_05_O7
  0
INSERT
  8
FeatureAttribs
  2
FEATURE
  41
1
  42
1
  43
1
  50
0
  10
216237.302
  20
4484103.498
 66
1
  0
ATTRIB
  8
FeatureAttribs
 70
0
  1
PNOA-H_AMS_1956-57_33k_ES_PAN_21mic_H50_0551_fot_68A-40343_E.tif
  2
NAME
  10
216237.302
  20
4484103.498
 40
34.98302
  0
SEQEND
  0
POLYLINE
  8
LC_OH_2021_05_O7
  70
1
  66
1
  0
VERTEX
  8
LC_OH_2021_05_O7
  10
217442.154
  20
4483660.000
  0
VERTEX
  8
LC_OH_2021_05_O7
  10
215479.999
  20
4483660.000
  0
VERTEX
  8
LC_OH_2021_05_O7
  10
215479.999
  20
4483930.000
  0
VERTEX
  8
LC_OH_2021_05_O7
  10
214988.930
  20
4483930.000
  0
VERTEX
  8
LC_OH_2021_05_O7
  10
215022.999
  20
4484314.500
  0
VERTEX
  8
LC_OH_2021_05_O7
  10
216948.999
  20
4484546.500
  0
VERTEX
  8
LC_OH_2021_05_O7
  10
216953.499
  20
4484547.000
  0
VERTEX
  8
LC_OH_2021_05_O7
  10
216957.499
  20
4484546.500
  0
VERTEX
  8
LC_OH_2021_05_O7
  10
217479.499
  20
4484249.000
  0
VERTEX
  8
LC_OH_2021_05_O7
  10
217442.154
  20
4483660.000
  0
SEQEND
  8
LC_OH_2021_05_O7
  0
INSERT
  8
FeatureAttribs
  2
FEATURE
  41
1
  42
1
  43
1
  50
0
  10
218768.793
  20
4483958.249
 66
1
  0
ATTRIB
  8
FeatureAttribs
 70
0
  1
PNOA-H_AMS_1956-57_33k_ES_PAN_21mic_H50_0551_fot_68A-40344_E.tif
  2
NAME
  10
218768.793
  20
4483958.249
 40
34.98302
  0
SEQEND
  0
POLYLINE
  8
LC_OH_2021_05_O7
  70
1
  66
1
  0
VERTEX
  8
LC_OH_2021_05_O7
  10
220055.909
  20
4483660.000
  0
VERTEX
  8
LC_OH_2021_05_O7
  10
217442.154
  20
4483660.000
  0
VERTEX
  8
LC_OH_2021_05_O7
  10
217479.499
  20
4484249.000
  0
VERTEX
  8
LC_OH_2021_05_O7
  10
219524.999
  20
4484256.000
  0
VERTEX
  8
LC_OH_2021_05_O7
  10
219674.499
  20
4484256.500
  0
VERTEX
  8
LC_OH_2021_05_O7
  10
219796.999
  20
4484256.500
  0
VERTEX
  8
LC_OH_2021_05_O7
  10
220083.999
  20
4484067.000
  0
VERTEX
  8
LC_OH_2021_05_O7
  10
220055.909
  20
4483660.000
  0
SEQEND
  8
LC_OH_2021_05_O7
  0
INSERT
  8
FeatureAttribs
  2
FEATURE
  41
1
  42
1
  43
1
  50
0
  10
224248.935
  20
4483648.999
 66
1
  0
ATTRIB
  8
FeatureAttribs
 70
0
  1
PNOA-H_AMS_1956-57_33k_ES_PAN_21mic_H50_0551_fot_68A-40346_E.tif
  2
NAME
  10
224248.935
  20
4483648.999
 40
34.98302
  0
SEQEND
  0
POLYLINE
  8
LC_OH_2021_05_O7
  70
1
  66
1
  0
VERTEX
  8
LC_OH_2021_05_O7
  10
225626.940
  20
4483410.000
  0
VERTEX
  8
LC_OH_2021_05_O7
  10
222841.148
  20
4483410.000
  0
VERTEX
  8
LC_OH_2021_05_O7
  10
222872.000
  20
4483888.000
  0
VERTEX
  8
LC_OH_2021_05_O7
  10
224287.000
  20
4483884.000
  0
VERTEX
  8
LC_OH_2021_05_O7
  10
224367.500
  20
4483884.000
  0
VERTEX
  8
LC_OH_2021_05_O7
  10
225369.000
  20
4483881.500
  0
VERTEX
  8
LC_OH_2021_05_O7
  10
225645.000
  20
4483711.000
  0
VERTEX
  8
LC_OH_2021_05_O7
  10
225626.940
  20
4483410.000
  0
SEQEND
  8
LC_OH_2021_05_O7
  0
INSERT
  8
FeatureAttribs
  2
FEATURE
  41
1
  42
1
  43
1
  50
0
  10
202630.159
  20
4483274.999
 66
1
  0
ATTRIB
  8
FeatureAttribs
 70
0
  1
PNOA-H_AMS_1956-57_33k_ES_PAN_21mic_H50_0551_fot_68A-40338_E.tif
  2
NAME
  10
202630.159
  20
4483274.999
 40
34.98302
  0
SEQEND
  0
POLYLINE
  8
LC_OH_2021_05_O7
  70
1
  66
1
  0
VERTEX
  8
LC_OH_2021_05_O7
  10
201470.986
  20
4485068.469
  0
VERTEX
  8
LC_OH_2021_05_O7
  10
201837.499
  20
4485194.000
  0
VERTEX
  8
LC_OH_2021_05_O7
  10
201838.999
  20
4485194.500
  0
VERTEX
  8
LC_OH_2021_05_O7
  10
202523.999
  20
4485428.500
  0
VERTEX
  8
LC_OH_2021_05_O7
  10
204153.499
  20
4484887.500
  0
VERTEX
  8
LC_OH_2021_05_O7
  10
203992.499
  20
4481535.500
  0
VERTEX
  8
LC_OH_2021_05_O7
  10
203285.999
  20
4481121.500
  0
VERTEX
  8
LC_OH_2021_05_O7
  10
201334.002
  20
4481636.666
  0
VERTEX
  8
LC_OH_2021_05_O7
  10
201359.389
  20
4482272.915
  0
VERTEX
  8
LC_OH_2021_05_O7
  10
201451.723
  20
4484586.088
  0
SEQEND
  8
LC_OH_2021_05_O7
  0
INSERT
  8
FeatureAttribs
  2
FEATURE
  41
1
  42
1
  43
1
  50
0
  10
211070.495
  20
4484470.249
 66
1
  0
ATTRIB
  8
FeatureAttribs
 70
0
  1
PNOA-H_AMS_1956-57_33k_ES_PAN_21mic_H50_0551_fot_68A-40341_E.tif
  2
NAME
  10
211070.495
  20
4484470.249
 40
34.98302
  0
SEQEND
  0
POLYLINE
  8
LC_OH_2021_05_O7
  70
1
  66
1
  0
VERTEX
  8
LC_OH_2021_05_O7
  10
212322.509
  20
4483930.000
  0
VERTEX
  8
LC_OH_2021_05_O7
  10
209729.692
  20
4483930.000
  0
VERTEX
  8
LC_OH_2021_05_O7
  10
209796.999
  20
4484652.000
  0
VERTEX
  8
LC_OH_2021_05_O7
  10
210028.499
  20
4484715.500
  0
VERTEX
  8
LC_OH_2021_05_O7
  10
210030.499
  20
4484716.000
  0
VERTEX
  8
LC_OH_2021_05_O7
  10
211110.999
  20
4485010.500
  0
VERTEX
  8
LC_OH_2021_05_O7
  10
212360.999
  20
4484471.500
  0
VERTEX
  8
LC_OH_2021_05_O7
  10
212322.509
  20
4483930.000
  0
SEQEND
  8
LC_OH_2021_05_O7
  0
INSERT
  8
FeatureAttribs
  2
FEATURE
  41
1
  42
1
  43
1
  50
0
  10
221461.907
  20
4483738.500
 66
1
  0
ATTRIB
  8
FeatureAttribs
 70
0
  1
PNOA-H_AMS_1956-57_33k_ES_PAN_21mic_H50_0551_fot_68A-40345_E.tif
  2
NAME
  10
221461.907
  20
4483738.500
 40
34.98302
  0
SEQEND
  0
POLYLINE
  8
LC_OH_2021_05_O7
  70
1
  66
1
  0
VERTEX
  8
LC_OH_2021_05_O7
  10
222841.148
  20
4483410.000
  0
VERTEX
  8
LC_OH_2021_05_O7
  10
222550.000
  20
4483410.000
  0
VERTEX
  8
LC_OH_2021_05_O7
  10
222550.000
  20
4483660.000
  0
VERTEX
  8
LC_OH_2021_05_O7
  10
220056.036
  20
4483660.000
  0
VERTEX
  8
LC_OH_2021_05_O7
  10
220083.999
  20
4484065.000
  0
VERTEX
  8
LC_OH_2021_05_O7
  10
220083.999
  20
4484067.000
  0
VERTEX
  8
LC_OH_2021_05_O7
  10
222607.500
  20
4484066.500
  0
VERTEX
  8
LC_OH_2021_05_O7
  10
222872.000
  20
4483888.000
  0
VERTEX
  8
LC_OH_2021_05_O7
  10
222841.148
  20
4483410.000
  0
SEQEND
  8
LC_OH_2021_05_O7
  0
INSERT
  8
FeatureAttribs
  2
FEATURE
  41
1
  42
1
  43
1
  50
0
  10
229606.747
  20
4483422.249
 66
1
  0
ATTRIB
  8
FeatureAttribs
 70
0
  1
PNOA-H_AMS_1956-57_33k_ES_PAN_21mic_H50_0552_fot_68A-40348_E.tif
  2
NAME
  10
229606.747
  20
4483422.249
 40
34.98302
  0
SEQEND
  0
POLYLINE
  8
LC_OH_2021_05_O7
  70
1
  66
1
  0
VERTEX
  8
LC_OH_2021_05_O7
  10
229708.493
  20
4483150.000
  0
VERTEX
  8
LC_OH_2021_05_O7
  10
229620.000
  20
4483150.000
  0
VERTEX
  8
LC_OH_2021_05_O7
  10
229620.000
  20
4483410.000
  0
VERTEX
  8
LC_OH_2021_05_O7
  10
228318.975
  20
4483410.000
  0
VERTEX
  8
LC_OH_2021_05_O7
  10
228324.500
  20
4483522.500
  0
VERTEX
  8
LC_OH_2021_05_O7
  10
228452.000
  20
4483533.500
  0
VERTEX
  8
LC_OH_2021_05_O7
  10
228458.000
  20
4483534.000
  0
VERTEX
  8
LC_OH_2021_05_O7
  10
229726.269
  20
4483641.959
  0
VERTEX
  8
LC_OH_2021_05_O7
  10
229721.534
  20
4483510.959
  0
SEQEND
  8
LC_OH_2021_05_O7
  0
INSERT
  8
FeatureAttribs
  2
FEATURE
  41
1
  42
1
  43
1
  50
0
  10
220042.596
  20
4488488.836
 66
1
  0
ATTRIB
  8
FeatureAttribs
 70
0
  1
PNOA-H_AMS_1956-57_33k_ES_PAN_21mic_H50_0526_fot_66A-18879_E.tif
  2
NAME
  10
220042.596
  20
4488488.836
 40
34.98302
  0
SEQEND
  0
POLYLINE
  8
LC_OH_2021_05_O7
  70
1
  66
1
  0
VERTEX
  8
LC_OH_2021_05_O7
  10
220132.042
  20
4488496.490
  0
VERTEX
  8
LC_OH_2021_05_O7
  10
220069.499
  20
4488474.500
  0
VERTEX
  8
LC_OH_2021_05_O7
  10
219953.149
  20
4488503.172
  0
SEQEND
  8
LC_OH_2021_05_O7
  0
INSERT
  8
FeatureAttribs
  2
FEATURE
  41
1
  42
1
  43
1
  50
0
  10
222808.016
  20
4488380.632
 66
1
  0
ATTRIB
  8
FeatureAttribs
 70
0
  1
PNOA-H_AMS_1956-57_33k_ES_PAN_21mic_H50_0526_fot_66A-18878_E.tif
  2
NAME
  10
222808.016
  20
4488380.632
 40
34.98302
  0
SEQEND
  0
POLYLINE
  8
LC_OH_2021_05_O7
  70
1
  66
1
  0
VERTEX
  8
LC_OH_2021_05_O7
  10
222961.392
  20
4488390.871
  0
VERTEX
  8
LC_OH_2021_05_O7
  10
222883.500
  20
4488359.000
  0
VERTEX
  8
LC_OH_2021_05_O7
  10
222654.640
  20
4488402.264
  0
VERTEX
  8
LC_OH_2021_05_O7
  10
222825.853
  20
4488395.869
  0
SEQEND
  8
LC_OH_2021_05_O7
  0
INSERT
  8
FeatureAttribs
  2
FEATURE
  41
1
  42
1
  43
1
  50
0
  10
202288.066
  20
4475810.499
 66
1
  0
ATTRIB
  8
FeatureAttribs
 70
0
  1
PNOA-H_AMS_1956-57_33k_ES_PAN_21mic_H50_0551_fot_000-44351_R.tif
  2
NAME
  10
202288.066
  20
4475810.499
 40
34.98302
  0
SEQEND
  0
POLYLINE
  8
LC_OH_2021_05_O7
  70
1
  66
1
  0
VERTEX
  8
LC_OH_2021_05_O7
  10
201155.142
  20
4477152.512
  0
VERTEX
  8
LC_OH_2021_05_O7
  10
201835.499
  20
4477248.500
  0
VERTEX
  8
LC_OH_2021_05_O7
  10
201838.999
  20
4477249.000
  0
VERTEX
  8
LC_OH_2021_05_O7
  10
203044.999
  20
4477418.500
  0
VERTEX
  8
LC_OH_2021_05_O7
  10
203623.499
  20
4477127.500
  0
VERTEX
  8
LC_OH_2021_05_O7
  10
203562.499
  20
4474923.000
  0
VERTEX
  8
LC_OH_2021_05_O7
  10
201138.999
  20
4474202.500
  0
VERTEX
  8
LC_OH_2021_05_O7
  10
201137.499
  20
4474203.000
  0
VERTEX
  8
LC_OH_2021_05_O7
  10
201126.999
  20
4474234.000
  0
VERTEX
  8
LC_OH_2021_05_O7
  10
201048.158
  20
4474468.532
  0
VERTEX
  8
LC_OH_2021_05_O7
  10
201082.623
  20
4475333.428
  0
SEQEND
  8
LC_OH_2021_05_O7
  0
INSERT
  8
FeatureAttribs
  2
FEATURE
  41
1
  42
1
  43
1
  50
0
  10
207304.791
  20
4475623.499
 66
1
  0
ATTRIB
  8
FeatureAttribs
 70
0
  1
PNOA-H_AMS_1956-57_33k_ES_PAN_21mic_H50_0551_fot_000-44349_R.tif
  2
NAME
  10
207304.791
  20
4475623.499
 40
34.98302
  0
SEQEND
  0
POLYLINE
  8
LC_OH_2021_05_O7
  70
1
  66
1
  0
VERTEX
  8
LC_OH_2021_05_O7
  10
208439.999
  20
4477114.499
  0
VERTEX
  8
LC_OH_2021_05_O7
  10
208439.999
  20
4474950.000
  0
VERTEX
  8
LC_OH_2021_05_O7
  10
208259.999
  20
4474950.000
  0
VERTEX
  8
LC_OH_2021_05_O7
  10
208259.999
  20
4474635.645
  0
VERTEX
  8
LC_OH_2021_05_O7
  10
206437.999
  20
4474005.000
  0
VERTEX
  8
LC_OH_2021_05_O7
  10
206123.999
  20
4474834.000
  0
VERTEX
  8
LC_OH_2021_05_O7
  10
206262.999
  20
4477241.000
  0
VERTEX
  8
LC_OH_2021_05_O7
  10
206262.999
  20
4477242.000
  0
VERTEX
  8
LC_OH_2021_05_O7
  10
208439.999
  20
4477114.499
  0
SEQEND
  8
LC_OH_2021_05_O7
  0
INSERT
  8
FeatureAttribs
  2
FEATURE
  41
1
  42
1
  43
1
  50
0
  10
204881.573
  20
4475760.749
 66
1
  0
ATTRIB
  8
FeatureAttribs
 70
0
  1
PNOA-H_AMS_1956-57_33k_ES_PAN_21mic_H50_0551_fot_000-44350_R.tif
  2
NAME
  10
204881.573
  20
4475760.749
 40
34.98302
  0
SEQEND
  0
POLYLINE
  8
LC_OH_2021_05_O7
  70
1
  66
1
  0
VERTEX
  8
LC_OH_2021_05_O7
  10
203623.499
  20
4477127.500
  0
VERTEX
  8
LC_OH_2021_05_O7
  10
206085.499
  20
4477347.000
  0
VERTEX
  8
LC_OH_2021_05_O7
  10
206090.999
  20
4477347.500
  0
VERTEX
  8
LC_OH_2021_05_O7
  10
206096.499
  20
4477347.000
  0
VERTEX
  8
LC_OH_2021_05_O7
  10
206262.999
  20
4477242.000
  0
VERTEX
  8
LC_OH_2021_05_O7
  10
206123.999
  20
4474835.000
  0
VERTEX
  8
LC_OH_2021_05_O7
  10
203864.999
  20
4474174.000
  0
VERTEX
  8
LC_OH_2021_05_O7
  10
203862.499
  20
4474174.500
  0
VERTEX
  8
LC_OH_2021_05_O7
  10
203857.499
  20
4474186.500
  0
VERTEX
  8
LC_OH_2021_05_O7
  10
203562.499
  20
4474922.000
  0
VERTEX
  8
LC_OH_2021_05_O7
  10
203623.499
  20
4477127.500
  0
SEQEND
  8
LC_OH_2021_05_O7
  0
ENDSEC
  0
EOF
