  0
SECTION
  2
HEADER
  9
$ACADVER
  1
AC1009
  9
$LUNITS
  70
2
  9
$LIMMIN
  10
172574.315
  20
4470707.129
  9
$LIMMAX
  10
201636.510
  20
4490395.048
  9
$EXTMIN
  10
172574.315
  20
4470707.129
  9
$EXTMAX
  10
201636.510
  20
4490395.048
  999
Created by Global Mapper
  999
Projection: UTM
  999
Datum: ETRS89
  999
Ground Units: meters
  999
ZONE: 30
  0
ENDSEC
  0
SECTION
  2
TABLES
  0
ENDSEC
  0
SECTION
  2
BLOCKS
  0
BLOCK
  8
FeatureAttribs
  70
0
  2
FEATURE
  3
FEATURE
  10
0.00000000
  20
0.00000000
  0
ATTDEF
  8
FeatureAttribs
  70
0
  1
 
  2
NAME
  3
NAME
  10
0.00000000
  20
0.00000000
  40
1.00000000
  0
ENDBLK
  0
ENDSEC
  0
SECTION
  2
ENTITIES
  0
INSERT
  8
FeatureAttribs
  2
FEATURE
  41
1
  42
1
  43
1
  50
0
  10
199881.530
  20
4471469.719
 66
1
  0
ATTRIB
  8
FeatureAttribs
 70
0
  1
PNOA-H_AMS_1956-57_33k_ES_PAN_21mic_H50_0573_fot_71A-22075_W.tif
  2
NAME
  10
199881.530
  20
4471469.719
 40
35.10307
  0
SEQEND
  0
POLYLINE
  8
LC_OH_2021_05_O7
  70
1
  66
1
  0
VERTEX
  8
LC_OH_2021_05_O7
  10
200959.061
  20
4472232.310
  0
VERTEX
  8
LC_OH_2021_05_O7
  10
200898.311
  20
4470707.129
  0
VERTEX
  8
LC_OH_2021_05_O7
  10
198815.249
  20
4470790.575
  0
VERTEX
  8
LC_OH_2021_05_O7
  10
198803.999
  20
4472019.500
  0
SEQEND
  8
LC_OH_2021_05_O7
  0
INSERT
  8
FeatureAttribs
  2
FEATURE
  41
1
  42
1
  43
1
  50
0
  10
197494.698
  20
4471577.537
 66
1
  0
ATTRIB
  8
FeatureAttribs
 70
0
  1
PNOA-H_AMS_1956-57_33k_ES_PAN_21mic_H50_0573_fot_71A-22076_W.tif
  2
NAME
  10
197494.698
  20
4471577.537
 40
35.10307
  0
SEQEND
  0
POLYLINE
  8
LC_OH_2021_05_O7
  70
1
  66
1
  0
VERTEX
  8
LC_OH_2021_05_O7
  10
198815.249
  20
4470790.575
  0
VERTEX
  8
LC_OH_2021_05_O7
  10
197357.904
  20
4470848.955
  0
VERTEX
  8
LC_OH_2021_05_O7
  10
196174.146
  20
4470896.935
  0
VERTEX
  8
LC_OH_2021_05_O7
  10
196193.999
  20
4471978.500
  0
VERTEX
  8
LC_OH_2021_05_O7
  10
198133.499
  20
4472364.000
  0
VERTEX
  8
LC_OH_2021_05_O7
  10
198135.999
  20
4472364.500
  0
VERTEX
  8
LC_OH_2021_05_O7
  10
198138.499
  20
4472364.500
  0
VERTEX
  8
LC_OH_2021_05_O7
  10
198147.499
  20
4472360.000
  0
VERTEX
  8
LC_OH_2021_05_O7
  10
198803.999
  20
4472019.500
  0
SEQEND
  8
LC_OH_2021_05_O7
  0
INSERT
  8
FeatureAttribs
  2
FEATURE
  41
1
  42
1
  43
1
  50
0
  10
189189.505
  20
4471885.306
 66
1
  0
ATTRIB
  8
FeatureAttribs
 70
0
  1
PNOA-H_AMS_1956-57_33k_ES_PAN_21mic_H50_0573_fot_71A-22079_W.tif
  2
NAME
  10
189189.505
  20
4471885.306
 40
35.10307
  0
SEQEND
  0
POLYLINE
  8
LC_OH_2021_05_O7
  70
1
  66
1
  0
VERTEX
  8
LC_OH_2021_05_O7
  10
190557.914
  20
4471126.111
  0
VERTEX
  8
LC_OH_2021_05_O7
  10
190277.014
  20
4471137.629
  0
VERTEX
  8
LC_OH_2021_05_O7
  10
187805.511
  20
4471240.140
  0
VERTEX
  8
LC_OH_2021_05_O7
  10
187825.499
  20
4472299.500
  0
VERTEX
  8
LC_OH_2021_05_O7
  10
189285.499
  20
4472644.500
  0
VERTEX
  8
LC_OH_2021_05_O7
  10
189549.499
  20
4472549.500
  0
VERTEX
  8
LC_OH_2021_05_O7
  10
189551.499
  20
4472549.000
  0
VERTEX
  8
LC_OH_2021_05_O7
  10
190573.499
  20
4472182.000
  0
SEQEND
  8
LC_OH_2021_05_O7
  0
INSERT
  8
FeatureAttribs
  2
FEATURE
  41
1
  42
1
  43
1
  50
0
  10
183646.944
  20
4472131.313
 66
1
  0
ATTRIB
  8
FeatureAttribs
 70
0
  1
PNOA-H_AMS_1956-57_33k_ES_PAN_21mic_H50_0573_fot_71A-22081_W.tif
  2
NAME
  10
183646.944
  20
4472131.313
 40
35.10307
  0
SEQEND
  0
POLYLINE
  8
LC_OH_2021_05_O7
  70
1
  66
1
  0
VERTEX
  8
LC_OH_2021_05_O7
  10
185016.671
  20
4471356.625
  0
VERTEX
  8
LC_OH_2021_05_O7
  10
183196.016
  20
4471433.001
  0
VERTEX
  8
LC_OH_2021_05_O7
  10
182273.390
  20
4471472.141
  0
VERTEX
  8
LC_OH_2021_05_O7
  10
182310.498
  20
4472575.500
  0
VERTEX
  8
LC_OH_2021_05_O7
  10
183439.498
  20
4472905.500
  0
VERTEX
  8
LC_OH_2021_05_O7
  10
183441.498
  20
4472906.000
  0
VERTEX
  8
LC_OH_2021_05_O7
  10
183444.498
  20
4472906.000
  0
VERTEX
  8
LC_OH_2021_05_O7
  10
185020.499
  20
4472440.500
  0
SEQEND
  8
LC_OH_2021_05_O7
  0
INSERT
  8
FeatureAttribs
  2
FEATURE
  41
1
  42
1
  43
1
  50
0
  10
191956.664
  20
4471781.448
 66
1
  0
ATTRIB
  8
FeatureAttribs
 70
0
  1
PNOA-H_AMS_1956-57_33k_ES_PAN_21mic_H50_0573_fot_71A-22078_W.tif
  2
NAME
  10
191956.664
  20
4471781.448
 40
35.10307
  0
SEQEND
  0
POLYLINE
  8
LC_OH_2021_05_O7
  70
1
  66
1
  0
VERTEX
  8
LC_OH_2021_05_O7
  10
193355.544
  20
4471011.396
  0
VERTEX
  8
LC_OH_2021_05_O7
  10
190557.783
  20
4471126.117
  0
VERTEX
  8
LC_OH_2021_05_O7
  10
190573.499
  20
4472182.000
  0
VERTEX
  8
LC_OH_2021_05_O7
  10
192085.999
  20
4472551.000
  0
VERTEX
  8
LC_OH_2021_05_O7
  10
192087.999
  20
4472551.500
  0
VERTEX
  8
LC_OH_2021_05_O7
  10
193346.999
  20
4472052.000
  0
SEQEND
  8
LC_OH_2021_05_O7
  0
INSERT
  8
FeatureAttribs
  2
FEATURE
  41
1
  42
1
  43
1
  50
0
  10
180939.635
  20
4472233.063
 66
1
  0
ATTRIB
  8
FeatureAttribs
 70
0
  1
PNOA-H_AMS_1956-57_33k_ES_PAN_21mic_H50_0573_fot_71A-22082_W.tif
  2
NAME
  10
180939.635
  20
4472233.063
 40
35.10307
  0
SEQEND
  0
POLYLINE
  8
LC_OH_2021_05_O7
  70
1
  66
1
  0
VERTEX
  8
LC_OH_2021_05_O7
  10
182273.747
  20
4471472.126
  0
VERTEX
  8
LC_OH_2021_05_O7
  10
179655.477
  20
4471583.199
  0
VERTEX
  8
LC_OH_2021_05_O7
  10
179568.272
  20
4471586.940
  0
VERTEX
  8
LC_OH_2021_05_O7
  10
179651.498
  20
4472712.000
  0
VERTEX
  8
LC_OH_2021_05_O7
  10
180586.498
  20
4472994.000
  0
VERTEX
  8
LC_OH_2021_05_O7
  10
180598.498
  20
4472992.000
  0
VERTEX
  8
LC_OH_2021_05_O7
  10
181357.998
  20
4472807.000
  0
VERTEX
  8
LC_OH_2021_05_O7
  10
181359.498
  20
4472807.000
  0
VERTEX
  8
LC_OH_2021_05_O7
  10
182310.998
  20
4472576.000
  0
SEQEND
  8
LC_OH_2021_05_O7
  0
INSERT
  8
FeatureAttribs
  2
FEATURE
  41
1
  42
1
  43
1
  50
0
  10
194770.499
  20
4471687.717
 66
1
  0
ATTRIB
  8
FeatureAttribs
 70
0
  1
PNOA-H_AMS_1956-57_33k_ES_PAN_21mic_H50_0573_fot_71A-22077_W.tif
  2
NAME
  10
194770.499
  20
4471687.717
 40
35.10307
  0
SEQEND
  0
POLYLINE
  8
LC_OH_2021_05_O7
  70
1
  66
1
  0
VERTEX
  8
LC_OH_2021_05_O7
  10
196174.146
  20
4470896.935
  0
VERTEX
  8
LC_OH_2021_05_O7
  10
193817.472
  20
4470992.455
  0
VERTEX
  8
LC_OH_2021_05_O7
  10
193355.543
  20
4471011.396
  0
VERTEX
  8
LC_OH_2021_05_O7
  10
193346.999
  20
4472052.000
  0
VERTEX
  8
LC_OH_2021_05_O7
  10
193644.499
  20
4472125.500
  0
VERTEX
  8
LC_OH_2021_05_O7
  10
193646.499
  20
4472126.000
  0
VERTEX
  8
LC_OH_2021_05_O7
  10
195075.999
  20
4472478.500
  0
VERTEX
  8
LC_OH_2021_05_O7
  10
196193.999
  20
4471978.500
  0
SEQEND
  8
LC_OH_2021_05_O7
  0
INSERT
  8
FeatureAttribs
  2
FEATURE
  41
1
  42
1
  43
1
  50
0
  10
186421.021
  20
4472019.320
 66
1
  0
ATTRIB
  8
FeatureAttribs
 70
0
  1
PNOA-H_AMS_1956-57_33k_ES_PAN_21mic_H50_0573_fot_71A-22080_W.tif
  2
NAME
  10
186421.021
  20
4472019.320
 40
35.10307
  0
SEQEND
  0
POLYLINE
  8
LC_OH_2021_05_O7
  70
1
  66
1
  0
VERTEX
  8
LC_OH_2021_05_O7
  10
187805.511
  20
4471240.140
  0
VERTEX
  8
LC_OH_2021_05_O7
  10
186736.528
  20
4471284.478
  0
VERTEX
  8
LC_OH_2021_05_O7
  10
185016.543
  20
4471356.631
  0
VERTEX
  8
LC_OH_2021_05_O7
  10
185020.499
  20
4472440.500
  0
VERTEX
  8
LC_OH_2021_05_O7
  10
185451.999
  20
4472557.500
  0
VERTEX
  8
LC_OH_2021_05_O7
  10
185453.499
  20
4472558.000
  0
VERTEX
  8
LC_OH_2021_05_O7
  10
186344.499
  20
4472798.500
  0
VERTEX
  8
LC_OH_2021_05_O7
  10
187825.499
  20
4472299.500
  0
SEQEND
  8
LC_OH_2021_05_O7
  0
INSERT
  8
FeatureAttribs
  2
FEATURE
  41
1
  42
1
  43
1
  50
0
  10
178237.709
  20
4472368.970
 66
1
  0
ATTRIB
  8
FeatureAttribs
 70
0
  1
PNOA-H_AMS_1956-57_33k_ES_PAN_21mic_H50_0573_fot_71A-22083_W.tif
  2
NAME
  10
178237.709
  20
4472368.970
 40
35.10307
  0
SEQEND
  0
POLYLINE
  8
LC_OH_2021_05_O7
  70
1
  66
1
  0
VERTEX
  8
LC_OH_2021_05_O7
  10
179568.272
  20
4471586.940
  0
VERTEX
  8
LC_OH_2021_05_O7
  10
176823.920
  20
4471704.659
  0
VERTEX
  8
LC_OH_2021_05_O7
  10
176924.998
  20
4472851.500
  0
VERTEX
  8
LC_OH_2021_05_O7
  10
177260.998
  20
4472963.000
  0
VERTEX
  8
LC_OH_2021_05_O7
  10
177262.498
  20
4472963.500
  0
VERTEX
  8
LC_OH_2021_05_O7
  10
177828.998
  20
4473151.000
  0
VERTEX
  8
LC_OH_2021_05_O7
  10
179651.498
  20
4472712.000
  0
SEQEND
  8
LC_OH_2021_05_O7
  0
INSERT
  8
FeatureAttribs
  2
FEATURE
  41
1
  42
1
  43
1
  50
0
  10
175379.248
  20
4472622.330
 66
1
  0
ATTRIB
  8
FeatureAttribs
 70
0
  1
PNOA-H_AMS_1956-57_33k_ES_PAN_21mic_H50_0573_fot_71A-22084_W.tif
  2
NAME
  10
175379.248
  20
4472622.330
 40
35.10307
  0
SEQEND
  0
POLYLINE
  8
LC_OH_2021_05_O7
  70
1
  66
1
  0
VERTEX
  8
LC_OH_2021_05_O7
  10
176823.891
  20
4471704.660
  0
VERTEX
  8
LC_OH_2021_05_O7
  10
176114.910
  20
4471735.072
  0
VERTEX
  8
LC_OH_2021_05_O7
  10
173922.168
  20
4471830.167
  0
VERTEX
  8
LC_OH_2021_05_O7
  10
173833.498
  20
4473534.500
  0
VERTEX
  8
LC_OH_2021_05_O7
  10
173833.498
  20
4473540.000
  0
VERTEX
  8
LC_OH_2021_05_O7
  10
173835.498
  20
4473540.000
  0
VERTEX
  8
LC_OH_2021_05_O7
  10
176924.998
  20
4472851.500
  0
SEQEND
  8
LC_OH_2021_05_O7
  0
INSERT
  8
FeatureAttribs
  2
FEATURE
  41
1
  42
1
  43
1
  50
0
  10
181215.856
  20
4488276.750
 66
1
  0
ATTRIB
  8
FeatureAttribs
 70
0
  1
PNOA-H_AMS_1956-57_33k_ES_PAN_21mic_H50_0550_fot_67A-44238_E.tif
  2
NAME
  10
181215.856
  20
4488276.750
 40
35.10307
  0
SEQEND
  0
POLYLINE
  8
LC_OH_2021_05_O7
  70
1
  66
1
  0
VERTEX
  8
LC_OH_2021_05_O7
  10
182721.953
  20
4489992.471
  0
VERTEX
  8
LC_OH_2021_05_O7
  10
182402.998
  20
4485976.500
  0
VERTEX
  8
LC_OH_2021_05_O7
  10
182402.498
  20
4485974.500
  0
VERTEX
  8
LC_OH_2021_05_O7
  10
182395.498
  20
4485973.000
  0
VERTEX
  8
LC_OH_2021_05_O7
  10
180719.998
  20
4485622.000
  0
VERTEX
  8
LC_OH_2021_05_O7
  10
180708.998
  20
4485625.500
  0
VERTEX
  8
LC_OH_2021_05_O7
  10
179610.998
  20
4486059.500
  0
VERTEX
  8
LC_OH_2021_05_O7
  10
180039.964
  20
4490106.829
  0
VERTEX
  8
LC_OH_2021_05_O7
  10
180446.276
  20
4490089.341
  0
SEQEND
  8
LC_OH_2021_05_O7
  0
INSERT
  8
FeatureAttribs
  2
FEATURE
  41
1
  42
1
  43
1
  50
0
  10
189685.588
  20
4487985.749
 66
1
  0
ATTRIB
  8
FeatureAttribs
 70
0
  1
PNOA-H_AMS_1956-57_33k_ES_PAN_21mic_H50_0550_fot_67A-44241_E.tif
  2
NAME
  10
189685.588
  20
4487985.749
 40
35.10307
  0
SEQEND
  0
POLYLINE
  8
LC_OH_2021_05_O7
  70
1
  66
1
  0
VERTEX
  8
LC_OH_2021_05_O7
  10
191282.927
  20
4489633.421
  0
VERTEX
  8
LC_OH_2021_05_O7
  10
190981.499
  20
4485730.500
  0
VERTEX
  8
LC_OH_2021_05_O7
  10
189735.999
  20
4485285.000
  0
VERTEX
  8
LC_OH_2021_05_O7
  10
188158.499
  20
4485808.500
  0
VERTEX
  8
LC_OH_2021_05_O7
  10
188261.874
  20
4489759.039
  0
VERTEX
  8
LC_OH_2021_05_O7
  10
191041.508
  20
4489643.354
  0
SEQEND
  8
LC_OH_2021_05_O7
  0
INSERT
  8
FeatureAttribs
  2
FEATURE
  41
1
  42
1
  43
1
  50
0
  10
195430.134
  20
4487727.249
 66
1
  0
ATTRIB
  8
FeatureAttribs
 70
0
  1
PNOA-H_AMS_1956-57_33k_ES_PAN_21mic_H50_0550_fot_67A-44243_E.tif
  2
NAME
  10
195430.134
  20
4487727.249
 40
35.10307
  0
SEQEND
  0
POLYLINE
  8
LC_OH_2021_05_O7
  70
1
  66
1
  0
VERTEX
  8
LC_OH_2021_05_O7
  10
196811.335
  20
4489407.017
  0
VERTEX
  8
LC_OH_2021_05_O7
  10
196876.999
  20
4485579.000
  0
VERTEX
  8
LC_OH_2021_05_O7
  10
195456.499
  20
4485068.500
  0
VERTEX
  8
LC_OH_2021_05_O7
  10
193951.499
  20
4485632.000
  0
VERTEX
  8
LC_OH_2021_05_O7
  10
194078.761
  20
4489518.387
  0
VERTEX
  8
LC_OH_2021_05_O7
  10
194573.201
  20
4489498.043
  0
SEQEND
  8
LC_OH_2021_05_O7
  0
INSERT
  8
FeatureAttribs
  2
FEATURE
  41
1
  42
1
  43
1
  50
0
  10
183976.018
  20
4488097.499
 66
1
  0
ATTRIB
  8
FeatureAttribs
 70
0
  1
PNOA-H_AMS_1956-57_33k_ES_PAN_21mic_H50_0550_fot_67A-44239_E.tif
  2
NAME
  10
183976.018
  20
4488097.499
 40
35.10307
  0
SEQEND
  0
POLYLINE
  8
LC_OH_2021_05_O7
  70
1
  66
1
  0
VERTEX
  8
LC_OH_2021_05_O7
  10
185490.393
  20
4489875.343
  0
VERTEX
  8
LC_OH_2021_05_O7
  10
185244.498
  20
4485888.500
  0
VERTEX
  8
LC_OH_2021_05_O7
  10
183654.498
  20
4485436.500
  0
VERTEX
  8
LC_OH_2021_05_O7
  10
183651.998
  20
4485436.500
  0
VERTEX
  8
LC_OH_2021_05_O7
  10
183642.498
  20
4485440.500
  0
VERTEX
  8
LC_OH_2021_05_O7
  10
182402.498
  20
4485974.500
  0
VERTEX
  8
LC_OH_2021_05_O7
  10
182721.942
  20
4489992.471
  0
VERTEX
  8
LC_OH_2021_05_O7
  10
183978.046
  20
4489939.002
  0
SEQEND
  8
LC_OH_2021_05_O7
  0
INSERT
  8
FeatureAttribs
  2
FEATURE
  41
1
  42
1
  43
1
  50
0
  10
178516.953
  20
4488410.250
 66
1
  0
ATTRIB
  8
FeatureAttribs
 70
0
  1
PNOA-H_AMS_1956-57_33k_ES_PAN_21mic_H50_0550_fot_67A-44237_E.tif
  2
NAME
  10
178516.953
  20
4488410.250
 40
35.10307
  0
SEQEND
  0
POLYLINE
  8
LC_OH_2021_05_O7
  70
1
  66
1
  0
VERTEX
  8
LC_OH_2021_05_O7
  10
180039.964
  20
4490106.829
  0
VERTEX
  8
LC_OH_2021_05_O7
  10
179610.998
  20
4486059.500
  0
VERTEX
  8
LC_OH_2021_05_O7
  10
177789.998
  20
4485741.500
  0
VERTEX
  8
LC_OH_2021_05_O7
  10
176918.998
  20
4486144.500
  0
VERTEX
  8
LC_OH_2021_05_O7
  10
177262.998
  20
4489204.000
  0
VERTEX
  8
LC_OH_2021_05_O7
  10
177262.998
  20
4489208.500
  0
VERTEX
  8
LC_OH_2021_05_O7
  10
177376.875
  20
4490221.454
  0
SEQEND
  8
LC_OH_2021_05_O7
  0
INSERT
  8
FeatureAttribs
  2
FEATURE
  41
1
  42
1
  43
1
  50
0
  10
198271.110
  20
4487655.248
 66
1
  0
ATTRIB
  8
FeatureAttribs
 70
0
  1
PNOA-H_AMS_1956-57_33k_ES_PAN_21mic_H50_0550_fot_67A-44244_E.tif
  2
NAME
  10
198271.110
  20
4487655.248
 40
35.10307
  0
SEQEND
  0
POLYLINE
  8
LC_OH_2021_05_O7
  70
1
  66
1
  0
VERTEX
  8
LC_OH_2021_05_O7
  10
199684.170
  20
4489290.926
  0
VERTEX
  8
LC_OH_2021_05_O7
  10
199722.499
  20
4485527.000
  0
VERTEX
  8
LC_OH_2021_05_O7
  10
198376.999
  20
4485048.000
  0
VERTEX
  8
LC_OH_2021_05_O7
  10
196876.999
  20
4485579.000
  0
VERTEX
  8
LC_OH_2021_05_O7
  10
196811.335
  20
4489407.017
  0
VERTEX
  8
LC_OH_2021_05_O7
  10
198104.868
  20
4489354.409
  0
SEQEND
  8
LC_OH_2021_05_O7
  0
INSERT
  8
FeatureAttribs
  2
FEATURE
  41
1
  42
1
  43
1
  50
0
  10
201146.623
  20
4487565.499
 66
1
  0
ATTRIB
  8
FeatureAttribs
 70
0
  1
PNOA-H_AMS_1956-57_33k_ES_PAN_21mic_H50_0551_fot_67A-44245_E.tif
  2
NAME
  10
201146.623
  20
4487565.499
 40
35.10307
  0
SEQEND
  0
POLYLINE
  8
LC_OH_2021_05_O7
  70
1
  66
1
  0
VERTEX
  8
LC_OH_2021_05_O7
  10
201470.967
  20
4485067.996
  0
VERTEX
  8
LC_OH_2021_05_O7
  10
201273.999
  20
4485000.500
  0
VERTEX
  8
LC_OH_2021_05_O7
  10
201262.499
  20
4485003.500
  0
VERTEX
  8
LC_OH_2021_05_O7
  10
199722.499
  20
4485527.000
  0
VERTEX
  8
LC_OH_2021_05_O7
  10
199684.170
  20
4489290.926
  0
VERTEX
  8
LC_OH_2021_05_O7
  10
201636.510
  20
4489212.449
  0
VERTEX
  8
LC_OH_2021_05_O7
  10
201544.097
  20
4486899.266
  0
SEQEND
  8
LC_OH_2021_05_O7
  0
INSERT
  8
FeatureAttribs
  2
FEATURE
  41
1
  42
1
  43
1
  50
0
  10
192583.885
  20
4487836.250
 66
1
  0
ATTRIB
  8
FeatureAttribs
 70
0
  1
PNOA-H_AMS_1956-57_33k_ES_PAN_21mic_H50_0550_fot_67A-44242_E.tif
  2
NAME
  10
192583.885
  20
4487836.250
 40
35.10307
  0
SEQEND
  0
POLYLINE
  8
LC_OH_2021_05_O7
  70
1
  66
1
  0
VERTEX
  8
LC_OH_2021_05_O7
  10
194078.960
  20
4489518.379
  0
VERTEX
  8
LC_OH_2021_05_O7
  10
193951.499
  20
4485632.500
  0
VERTEX
  8
LC_OH_2021_05_O7
  10
192579.499
  20
4485148.000
  0
VERTEX
  8
LC_OH_2021_05_O7
  10
190981.499
  20
4485730.500
  0
VERTEX
  8
LC_OH_2021_05_O7
  10
191282.603
  20
4489633.434
  0
SEQEND
  8
LC_OH_2021_05_O7
  0
INSERT
  8
FeatureAttribs
  2
FEATURE
  41
1
  42
1
  43
1
  50
0
  10
186794.584
  20
4487983.999
 66
1
  0
ATTRIB
  8
FeatureAttribs
 70
0
  1
PNOA-H_AMS_1956-57_33k_ES_PAN_21mic_H50_0550_fot_67A-44240_E.tif
  2
NAME
  10
186794.584
  20
4487983.999
 40
35.10307
  0
SEQEND
  0
POLYLINE
  8
LC_OH_2021_05_O7
  70
1
  66
1
  0
VERTEX
  8
LC_OH_2021_05_O7
  10
188261.872
  20
4489759.039
  0
VERTEX
  8
LC_OH_2021_05_O7
  10
188158.499
  20
4485809.000
  0
VERTEX
  8
LC_OH_2021_05_O7
  10
186774.999
  20
4485308.000
  0
VERTEX
  8
LC_OH_2021_05_O7
  10
186770.499
  20
4485308.500
  0
VERTEX
  8
LC_OH_2021_05_O7
  10
185244.498
  20
4485888.500
  0
VERTEX
  8
LC_OH_2021_05_O7
  10
185490.393
  20
4489875.343
  0
VERTEX
  8
LC_OH_2021_05_O7
  10
187509.790
  20
4489790.340
  0
SEQEND
  8
LC_OH_2021_05_O7
  0
INSERT
  8
FeatureAttribs
  2
FEATURE
  41
1
  42
1
  43
1
  50
0
  10
175874.819
  20
4488895.500
 66
1
  0
ATTRIB
  8
FeatureAttribs
 70
0
  1
PNOA-H_AMS_1956-57_33k_ES_PAN_21mic_H50_0550_fot_67A-44236_E.tif
  2
NAME
  10
175874.819
  20
4488895.500
 40
35.10307
  0
SEQEND
  0
POLYLINE
  8
LC_OH_2021_05_O7
  70
1
  66
1
  0
VERTEX
  8
LC_OH_2021_05_O7
  10
177376.929
  20
4490221.451
  0
VERTEX
  8
LC_OH_2021_05_O7
  10
176918.998
  20
4486144.500
  0
VERTEX
  8
LC_OH_2021_05_O7
  10
174799.498
  20
4485972.000
  0
VERTEX
  8
LC_OH_2021_05_O7
  10
174386.498
  20
4486180.500
  0
VERTEX
  8
LC_OH_2021_05_O7
  10
174576.498
  20
4489997.500
  0
VERTEX
  8
LC_OH_2021_05_O7
  10
174576.498
  20
4489999.500
  0
VERTEX
  8
LC_OH_2021_05_O7
  10
174587.498
  20
4490222.000
  0
VERTEX
  8
LC_OH_2021_05_O7
  10
174593.452
  20
4490342.358
  0
VERTEX
  8
LC_OH_2021_05_O7
  10
176914.479
  20
4490241.356
  0
SEQEND
  8
LC_OH_2021_05_O7
  0
INSERT
  8
FeatureAttribs
  2
FEATURE
  41
1
  42
1
  43
1
  50
0
  10
173819.729
  20
4489657.068
 66
1
  0
ATTRIB
  8
FeatureAttribs
 70
0
  1
PNOA-H_AMS_1956-57_33k_ES_PAN_21mic_H50_0550_fot_67A-44235_E.tif
  2
NAME
  10
173819.729
  20
4489657.068
 40
35.10307
  0
SEQEND
  0
POLYLINE
  8
LC_OH_2021_05_O7
  70
1
  66
1
  0
VERTEX
  8
LC_OH_2021_05_O7
  10
174593.450
  20
4490342.358
  0
VERTEX
  8
LC_OH_2021_05_O7
  10
174587.498
  20
4490222.000
  0
VERTEX
  8
LC_OH_2021_05_O7
  10
174576.498
  20
4489999.500
  0
VERTEX
  8
LC_OH_2021_05_O7
  10
174386.498
  20
4486180.500
  0
VERTEX
  8
LC_OH_2021_05_O7
  10
173197.477
  20
4486161.015
  0
VERTEX
  8
LC_OH_2021_05_O7
  10
173281.461
  20
4488081.728
  0
VERTEX
  8
LC_OH_2021_05_O7
  10
173382.655
  20
4490395.048
  0
SEQEND
  8
LC_OH_2021_05_O7
  0
INSERT
  8
FeatureAttribs
  2
FEATURE
  41
1
  42
1
  43
1
  50
0
  10
200767.050
  20
4478571.000
 66
1
  0
ATTRIB
  8
FeatureAttribs
 70
0
  1
PNOA-H_AMS_1956-57_33k_ES_PAN_21mic_H50_0550_fot_000-46882_R.tif
  2
NAME
  10
200767.050
  20
4478571.000
 40
35.10307
  0
SEQEND
  0
POLYLINE
  8
LC_OH_2021_05_O7
  70
1
  66
1
  0
VERTEX
  8
LC_OH_2021_05_O7
  10
201258.601
  20
4479746.812
  0
VERTEX
  8
LC_OH_2021_05_O7
  10
201174.839
  20
4477646.585
  0
VERTEX
  8
LC_OH_2021_05_O7
  10
201155.137
  20
4477152.398
  0
VERTEX
  8
LC_OH_2021_05_O7
  10
201070.499
  20
4477140.500
  0
VERTEX
  8
LC_OH_2021_05_O7
  10
200343.499
  20
4477491.000
  0
VERTEX
  8
LC_OH_2021_05_O7
  10
200275.499
  20
4479051.000
  0
VERTEX
  8
LC_OH_2021_05_O7
  10
200275.499
  20
4479060.000
  0
VERTEX
  8
LC_OH_2021_05_O7
  10
200419.499
  20
4480001.500
  0
SEQEND
  8
LC_OH_2021_05_O7
  0
INSERT
  8
FeatureAttribs
  2
FEATURE
  41
1
  42
1
  43
1
  50
0
  10
193229.344
  20
4478631.751
 66
1
  0
ATTRIB
  8
FeatureAttribs
 70
0
  1
PNOA-H_AMS_1956-57_33k_ES_PAN_21mic_H50_0550_fot_000-46885_R.tif
  2
NAME
  10
193229.344
  20
4478631.751
 40
35.10307
  0
SEQEND
  0
POLYLINE
  8
LC_OH_2021_05_O7
  70
1
  66
1
  0
VERTEX
  8
LC_OH_2021_05_O7
  10
194314.499
  20
4477630.500
  0
VERTEX
  8
LC_OH_2021_05_O7
  10
192933.499
  20
4477269.000
  0
VERTEX
  8
LC_OH_2021_05_O7
  10
191855.999
  20
4477732.000
  0
VERTEX
  8
LC_OH_2021_05_O7
  10
191844.499
  20
4479650.500
  0
VERTEX
  8
LC_OH_2021_05_O7
  10
191896.499
  20
4479994.500
  0
VERTEX
  8
LC_OH_2021_05_O7
  10
194616.999
  20
4479317.000
  0
VERTEX
  8
LC_OH_2021_05_O7
  10
194595.999
  20
4477704.000
  0
VERTEX
  8
LC_OH_2021_05_O7
  10
194316.499
  20
4477630.500
  0
VERTEX
  8
LC_OH_2021_05_O7
  10
194314.499
  20
4477630.500
  0
SEQEND
  8
LC_OH_2021_05_O7
  0
INSERT
  8
FeatureAttribs
  2
FEATURE
  41
1
  42
1
  43
1
  50
0
  10
190476.896
  20
4478468.500
 66
1
  0
ATTRIB
  8
FeatureAttribs
 70
0
  1
PNOA-H_AMS_1956-57_33k_ES_PAN_21mic_H50_0550_fot_000-46886_R.tif
  2
NAME
  10
190476.896
  20
4478468.500
 40
35.10307
  0
SEQEND
  0
POLYLINE
  8
LC_OH_2021_05_O7
  70
1
  66
1
  0
VERTEX
  8
LC_OH_2021_05_O7
  10
189530.999
  20
4479596.500
  0
VERTEX
  8
LC_OH_2021_05_O7
  10
191844.499
  20
4479649.000
  0
VERTEX
  8
LC_OH_2021_05_O7
  10
191855.999
  20
4477732.000
  0
VERTEX
  8
LC_OH_2021_05_O7
  10
190323.499
  20
4477288.000
  0
VERTEX
  8
LC_OH_2021_05_O7
  10
189110.999
  20
4477778.000
  0
VERTEX
  8
LC_OH_2021_05_O7
  10
189087.999
  20
4479586.000
  0
VERTEX
  8
LC_OH_2021_05_O7
  10
189508.999
  20
4479596.000
  0
VERTEX
  8
LC_OH_2021_05_O7
  10
189530.999
  20
4479596.500
  0
SEQEND
  8
LC_OH_2021_05_O7
  0
INSERT
  8
FeatureAttribs
  2
FEATURE
  41
1
  42
1
  43
1
  50
0
  10
196018.446
  20
4478708.500
 66
1
  0
ATTRIB
  8
FeatureAttribs
 70
0
  1
PNOA-H_AMS_1956-57_33k_ES_PAN_21mic_H50_0550_fot_000-46884_R.tif
  2
NAME
  10
196018.446
  20
4478708.500
 40
35.10307
  0
SEQEND
  0
POLYLINE
  8
LC_OH_2021_05_O7
  70
1
  66
1
  0
VERTEX
  8
LC_OH_2021_05_O7
  10
195695.499
  20
4479827.000
  0
VERTEX
  8
LC_OH_2021_05_O7
  10
197431.499
  20
4479111.000
  0
VERTEX
  8
LC_OH_2021_05_O7
  10
197433.999
  20
4479109.500
  0
VERTEX
  8
LC_OH_2021_05_O7
  10
197433.999
  20
4479091.000
  0
VERTEX
  8
LC_OH_2021_05_O7
  10
197409.499
  20
4477615.000
  0
VERTEX
  8
LC_OH_2021_05_O7
  10
195656.999
  20
4477214.000
  0
VERTEX
  8
LC_OH_2021_05_O7
  10
194595.999
  20
4477703.500
  0
VERTEX
  8
LC_OH_2021_05_O7
  10
194616.999
  20
4479298.500
  0
VERTEX
  8
LC_OH_2021_05_O7
  10
194618.499
  20
4479323.500
  0
VERTEX
  8
LC_OH_2021_05_O7
  10
194783.499
  20
4480203.000
  0
VERTEX
  8
LC_OH_2021_05_O7
  10
195694.499
  20
4479827.000
  0
VERTEX
  8
LC_OH_2021_05_O7
  10
195695.499
  20
4479827.000
  0
SEQEND
  8
LC_OH_2021_05_O7
  0
INSERT
  8
FeatureAttribs
  2
FEATURE
  41
1
  42
1
  43
1
  50
0
  10
198859.995
  20
4478626.249
 66
1
  0
ATTRIB
  8
FeatureAttribs
 70
0
  1
PNOA-H_AMS_1956-57_33k_ES_PAN_21mic_H50_0550_fot_000-46883_R.tif
  2
NAME
  10
198859.995
  20
4478626.249
 40
35.10307
  0
SEQEND
  0
POLYLINE
  8
LC_OH_2021_05_O7
  70
1
  66
1
  0
VERTEX
  8
LC_OH_2021_05_O7
  10
197660.499
  20
4480124.500
  0
VERTEX
  8
LC_OH_2021_05_O7
  10
200274.999
  20
4479058.500
  0
VERTEX
  8
LC_OH_2021_05_O7
  10
200343.499
  20
4477494.500
  0
VERTEX
  8
LC_OH_2021_05_O7
  10
200343.499
  20
4477491.500
  0
VERTEX
  8
LC_OH_2021_05_O7
  10
200337.499
  20
4477490.000
  0
VERTEX
  8
LC_OH_2021_05_O7
  10
198389.999
  20
4477128.000
  0
VERTEX
  8
LC_OH_2021_05_O7
  10
197409.499
  20
4477615.000
  0
VERTEX
  8
LC_OH_2021_05_O7
  10
197433.999
  20
4479110.500
  0
VERTEX
  8
LC_OH_2021_05_O7
  10
197660.499
  20
4480122.500
  0
VERTEX
  8
LC_OH_2021_05_O7
  10
197660.499
  20
4480124.500
  0
SEQEND
  8
LC_OH_2021_05_O7
  0
INSERT
  8
FeatureAttribs
  2
FEATURE
  41
1
  42
1
  43
1
  50
0
  10
187704.877
  20
4478605.501
 66
1
  0
ATTRIB
  8
FeatureAttribs
 70
0
  1
PNOA-H_AMS_1956-57_33k_ES_PAN_21mic_H50_0550_fot_000-46887_R.tif
  2
NAME
  10
187704.877
  20
4478605.501
 40
35.10307
  0
SEQEND
  0
POLYLINE
  8
LC_OH_2021_05_O7
  70
1
  66
1
  0
VERTEX
  8
LC_OH_2021_05_O7
  10
189025.999
  20
4479938.000
  0
VERTEX
  8
LC_OH_2021_05_O7
  10
189027.999
  20
4479938.000
  0
VERTEX
  8
LC_OH_2021_05_O7
  10
189028.499
  20
4479935.500
  0
VERTEX
  8
LC_OH_2021_05_O7
  10
189087.999
  20
4479587.000
  0
VERTEX
  8
LC_OH_2021_05_O7
  10
189110.999
  20
4477778.000
  0
VERTEX
  8
LC_OH_2021_05_O7
  10
187612.999
  20
4477273.000
  0
VERTEX
  8
LC_OH_2021_05_O7
  10
187610.499
  20
4477273.000
  0
VERTEX
  8
LC_OH_2021_05_O7
  10
187600.499
  20
4477277.000
  0
VERTEX
  8
LC_OH_2021_05_O7
  10
186276.499
  20
4477813.000
  0
VERTEX
  8
LC_OH_2021_05_O7
  10
186337.999
  20
4479300.500
  0
VERTEX
  8
LC_OH_2021_05_O7
  10
189023.499
  20
4479937.500
  0
VERTEX
  8
LC_OH_2021_05_O7
  10
189025.999
  20
4479938.000
  0
SEQEND
  8
LC_OH_2021_05_O7
  0
INSERT
  8
FeatureAttribs
  2
FEATURE
  41
1
  42
1
  43
1
  50
0
  10
196224.592
  20
4480474.750
 66
1
  0
ATTRIB
  8
FeatureAttribs
 70
0
  1
PNOA-H_AMS_1956-57_33k_ES_PAN_21mic_H50_0550_fot_69A-47866_W.tif
  2
NAME
  10
196224.592
  20
4480474.750
 40
35.10307
  0
SEQEND
  0
POLYLINE
  8
LC_OH_2021_05_O7
  70
1
  66
1
  0
VERTEX
  8
LC_OH_2021_05_O7
  10
195377.999
  20
4481840.000
  0
VERTEX
  8
LC_OH_2021_05_O7
  10
197692.999
  20
4481425.500
  0
VERTEX
  8
LC_OH_2021_05_O7
  10
197660.499
  20
4480122.500
  0
VERTEX
  8
LC_OH_2021_05_O7
  10
197433.999
  20
4479109.500
  0
VERTEX
  8
LC_OH_2021_05_O7
  10
194783.499
  20
4480203.000
  0
VERTEX
  8
LC_OH_2021_05_O7
  10
194766.999
  20
4481445.500
  0
VERTEX
  8
LC_OH_2021_05_O7
  10
195376.999
  20
4481839.500
  0
VERTEX
  8
LC_OH_2021_05_O7
  10
195377.999
  20
4481840.000
  0
SEQEND
  8
LC_OH_2021_05_O7
  0
INSERT
  8
FeatureAttribs
  2
FEATURE
  41
1
  42
1
  43
1
  50
0
  10
199050.024
  20
4480408.499
 66
1
  0
ATTRIB
  8
FeatureAttribs
 70
0
  1
PNOA-H_AMS_1956-57_33k_ES_PAN_21mic_H50_0550_fot_69A-47865_W.tif
  2
NAME
  10
199050.024
  20
4480408.499
 40
35.10307
  0
SEQEND
  0
POLYLINE
  8
LC_OH_2021_05_O7
  70
1
  66
1
  0
VERTEX
  8
LC_OH_2021_05_O7
  10
197692.999
  20
4481425.500
  0
VERTEX
  8
LC_OH_2021_05_O7
  10
198215.499
  20
4481758.500
  0
VERTEX
  8
LC_OH_2021_05_O7
  10
198219.499
  20
4481759.000
  0
VERTEX
  8
LC_OH_2021_05_O7
  10
200459.499
  20
4481319.000
  0
VERTEX
  8
LC_OH_2021_05_O7
  10
200419.999
  20
4480008.500
  0
VERTEX
  8
LC_OH_2021_05_O7
  10
200416.499
  20
4479980.000
  0
VERTEX
  8
LC_OH_2021_05_O7
  10
200370.499
  20
4479682.000
  0
VERTEX
  8
LC_OH_2021_05_O7
  10
200369.999
  20
4479678.500
  0
VERTEX
  8
LC_OH_2021_05_O7
  10
200274.999
  20
4479058.000
  0
VERTEX
  8
LC_OH_2021_05_O7
  10
197660.999
  20
4480124.000
  0
SEQEND
  8
LC_OH_2021_05_O7
  0
INSERT
  8
FeatureAttribs
  2
FEATURE
  41
1
  42
1
  43
1
  50
0
  10
184845.790
  20
4478792.501
 66
1
  0
ATTRIB
  8
FeatureAttribs
 70
0
  1
PNOA-H_AMS_1956-57_33k_ES_PAN_21mic_H50_0550_fot_000-46888_R.tif
  2
NAME
  10
184845.790
  20
4478792.501
 40
35.10307
  0
SEQEND
  0
POLYLINE
  8
LC_OH_2021_05_O7
  70
1
  66
1
  0
VERTEX
  8
LC_OH_2021_05_O7
  10
185725.999
  20
4477630.500
  0
VERTEX
  8
LC_OH_2021_05_O7
  10
184816.498
  20
4477328.000
  0
VERTEX
  8
LC_OH_2021_05_O7
  10
183296.498
  20
4477940.500
  0
VERTEX
  8
LC_OH_2021_05_O7
  10
183384.498
  20
4478900.500
  0
VERTEX
  8
LC_OH_2021_05_O7
  10
186198.499
  20
4480257.000
  0
VERTEX
  8
LC_OH_2021_05_O7
  10
186337.999
  20
4479302.000
  0
VERTEX
  8
LC_OH_2021_05_O7
  10
186276.499
  20
4477813.000
  0
VERTEX
  8
LC_OH_2021_05_O7
  10
185727.499
  20
4477630.500
  0
VERTEX
  8
LC_OH_2021_05_O7
  10
185725.999
  20
4477630.500
  0
SEQEND
  8
LC_OH_2021_05_O7
  0
INSERT
  8
FeatureAttribs
  2
FEATURE
  41
1
  42
1
  43
1
  50
0
  10
193332.793
  20
4480582.750
 66
1
  0
ATTRIB
  8
FeatureAttribs
 70
0
  1
PNOA-H_AMS_1956-57_33k_ES_PAN_21mic_H50_0550_fot_69A-47867_W.tif
  2
NAME
  10
193332.793
  20
4480582.750
 40
35.10307
  0
SEQEND
  0
POLYLINE
  8
LC_OH_2021_05_O7
  70
1
  66
1
  0
VERTEX
  8
LC_OH_2021_05_O7
  10
194685.499
  20
4479678.500
  0
VERTEX
  8
LC_OH_2021_05_O7
  10
194616.999
  20
4479316.500
  0
VERTEX
  8
LC_OH_2021_05_O7
  10
191896.999
  20
4479994.000
  0
VERTEX
  8
LC_OH_2021_05_O7
  10
191872.999
  20
4481430.000
  0
VERTEX
  8
LC_OH_2021_05_O7
  10
191873.999
  20
4481433.500
  0
VERTEX
  8
LC_OH_2021_05_O7
  10
191881.999
  20
4481438.500
  0
VERTEX
  8
LC_OH_2021_05_O7
  10
192547.499
  20
4481849.000
  0
VERTEX
  8
LC_OH_2021_05_O7
  10
194766.999
  20
4481445.500
  0
VERTEX
  8
LC_OH_2021_05_O7
  10
194783.499
  20
4480200.500
  0
VERTEX
  8
LC_OH_2021_05_O7
  10
194685.499
  20
4479680.500
  0
VERTEX
  8
LC_OH_2021_05_O7
  10
194685.499
  20
4479678.500
  0
SEQEND
  8
LC_OH_2021_05_O7
  0
INSERT
  8
FeatureAttribs
  2
FEATURE
  41
1
  42
1
  43
1
  50
0
  10
187611.625
  20
4480601.248
 66
1
  0
ATTRIB
  8
FeatureAttribs
 70
0
  1
PNOA-H_AMS_1956-57_33k_ES_PAN_21mic_H50_0550_fot_69A-47869_W.tif
  2
NAME
  10
187611.625
  20
4480601.248
 40
35.10307
  0
SEQEND
  0
POLYLINE
  8
LC_OH_2021_05_O7
  70
1
  66
1
  0
VERTEX
  8
LC_OH_2021_05_O7
  10
187503.499
  20
4481749.500
  0
VERTEX
  8
LC_OH_2021_05_O7
  10
189041.499
  20
4481458.000
  0
VERTEX
  8
LC_OH_2021_05_O7
  10
189027.999
  20
4479938.000
  0
VERTEX
  8
LC_OH_2021_05_O7
  10
186337.999
  20
4479300.500
  0
VERTEX
  8
LC_OH_2021_05_O7
  10
186198.999
  20
4480254.500
  0
VERTEX
  8
LC_OH_2021_05_O7
  10
186162.999
  20
4481551.500
  0
VERTEX
  8
LC_OH_2021_05_O7
  10
186697.999
  20
4481902.000
  0
VERTEX
  8
LC_OH_2021_05_O7
  10
187500.499
  20
4481750.000
  0
VERTEX
  8
LC_OH_2021_05_O7
  10
187503.499
  20
4481749.500
  0
SEQEND
  8
LC_OH_2021_05_O7
  0
INSERT
  8
FeatureAttribs
  2
FEATURE
  41
1
  42
1
  43
1
  50
0
  10
190459.793
  20
4480716.750
 66
1
  0
ATTRIB
  8
FeatureAttribs
 70
0
  1
PNOA-H_AMS_1956-57_33k_ES_PAN_21mic_H50_0550_fot_69A-47868_W.tif
  2
NAME
  10
190459.793
  20
4480716.750
 40
35.10307
  0
SEQEND
  0
POLYLINE
  8
LC_OH_2021_05_O7
  70
1
  66
1
  0
VERTEX
  8
LC_OH_2021_05_O7
  10
189550.999
  20
4481763.000
  0
VERTEX
  8
LC_OH_2021_05_O7
  10
189691.999
  20
4481847.500
  0
VERTEX
  8
LC_OH_2021_05_O7
  10
189693.999
  20
4481847.500
  0
VERTEX
  8
LC_OH_2021_05_O7
  10
191872.999
  20
4481433.000
  0
VERTEX
  8
LC_OH_2021_05_O7
  10
191896.499
  20
4479992.000
  0
VERTEX
  8
LC_OH_2021_05_O7
  10
191844.499
  20
4479649.000
  0
VERTEX
  8
LC_OH_2021_05_O7
  10
189087.999
  20
4479586.000
  0
VERTEX
  8
LC_OH_2021_05_O7
  10
189027.999
  20
4479935.500
  0
VERTEX
  8
LC_OH_2021_05_O7
  10
189041.499
  20
4481458.500
  0
VERTEX
  8
LC_OH_2021_05_O7
  10
189549.999
  20
4481762.500
  0
VERTEX
  8
LC_OH_2021_05_O7
  10
189550.999
  20
4481763.000
  0
SEQEND
  8
LC_OH_2021_05_O7
  0
INSERT
  8
FeatureAttribs
  2
FEATURE
  41
1
  42
1
  43
1
  50
0
  10
184784.587
  20
4480346.999
 66
1
  0
ATTRIB
  8
FeatureAttribs
 70
0
  1
PNOA-H_AMS_1956-57_33k_ES_PAN_21mic_H50_0550_fot_69A-47870_W.tif
  2
NAME
  10
184784.587
  20
4480346.999
 40
35.10307
  0
SEQEND
  0
POLYLINE
  8
LC_OH_2021_05_O7
  70
1
  66
1
  0
VERTEX
  8
LC_OH_2021_05_O7
  10
184997.998
  20
4479678.500
  0
VERTEX
  8
LC_OH_2021_05_O7
  10
183384.498
  20
4478900.500
  0
VERTEX
  8
LC_OH_2021_05_O7
  10
183362.498
  20
4481591.500
  0
VERTEX
  8
LC_OH_2021_05_O7
  10
183642.498
  20
4481793.500
  0
VERTEX
  8
LC_OH_2021_05_O7
  10
186162.999
  20
4481551.500
  0
VERTEX
  8
LC_OH_2021_05_O7
  10
186198.999
  20
4480257.000
  0
VERTEX
  8
LC_OH_2021_05_O7
  10
184998.998
  20
4479678.500
  0
VERTEX
  8
LC_OH_2021_05_O7
  10
184997.998
  20
4479678.500
  0
SEQEND
  8
LC_OH_2021_05_O7
  0
INSERT
  8
FeatureAttribs
  2
FEATURE
  41
1
  42
1
  43
1
  50
0
  10
181951.973
  20
4479603.501
 66
1
  0
ATTRIB
  8
FeatureAttribs
 70
0
  1
PNOA-H_AMS_1956-57_33k_ES_PAN_21mic_H50_0550_fot_69A-47871_W.tif
  2
NAME
  10
181951.973
  20
4479603.501
 40
35.10307
  0
SEQEND
  0
POLYLINE
  8
LC_OH_2021_05_O7
  70
1
  66
1
  0
VERTEX
  8
LC_OH_2021_05_O7
  10
181359.498
  20
4481686.000
  0
VERTEX
  8
LC_OH_2021_05_O7
  10
183362.498
  20
4481591.500
  0
VERTEX
  8
LC_OH_2021_05_O7
  10
183384.498
  20
4478896.000
  0
VERTEX
  8
LC_OH_2021_05_O7
  10
183296.498
  20
4477941.500
  0
VERTEX
  8
LC_OH_2021_05_O7
  10
183274.498
  20
4477932.500
  0
VERTEX
  8
LC_OH_2021_05_O7
  10
182224.498
  20
4477545.000
  0
VERTEX
  8
LC_OH_2021_05_O7
  10
180790.498
  20
4477492.000
  0
VERTEX
  8
LC_OH_2021_05_O7
  10
180786.998
  20
4477492.000
  0
VERTEX
  8
LC_OH_2021_05_O7
  10
180782.498
  20
4477494.500
  0
VERTEX
  8
LC_OH_2021_05_O7
  10
180537.998
  20
4477644.000
  0
VERTEX
  8
LC_OH_2021_05_O7
  10
180512.498
  20
4481552.500
  0
VERTEX
  8
LC_OH_2021_05_O7
  10
180750.998
  20
4481715.000
  0
VERTEX
  8
LC_OH_2021_05_O7
  10
181357.498
  20
4481686.000
  0
VERTEX
  8
LC_OH_2021_05_O7
  10
181359.498
  20
4481686.000
  0
SEQEND
  8
LC_OH_2021_05_O7
  0
INSERT
  8
FeatureAttribs
  2
FEATURE
  41
1
  42
1
  43
1
  50
0
  10
179136.791
  20
4479630.751
 66
1
  0
ATTRIB
  8
FeatureAttribs
 70
0
  1
PNOA-H_AMS_1956-57_33k_ES_PAN_21mic_H50_0550_fot_69A-47872_W.tif
  2
NAME
  10
179136.791
  20
4479630.751
 40
35.10307
  0
SEQEND
  0
POLYLINE
  8
LC_OH_2021_05_O7
  70
1
  66
1
  0
VERTEX
  8
LC_OH_2021_05_O7
  10
179311.498
  20
4481630.000
  0
VERTEX
  8
LC_OH_2021_05_O7
  10
180512.498
  20
4481552.500
  0
VERTEX
  8
LC_OH_2021_05_O7
  10
180537.998
  20
4477644.000
  0
VERTEX
  8
LC_OH_2021_05_O7
  10
177892.998
  20
4477536.500
  0
VERTEX
  8
LC_OH_2021_05_O7
  10
177885.498
  20
4477536.500
  0
VERTEX
  8
LC_OH_2021_05_O7
  10
177881.998
  20
4477538.500
  0
VERTEX
  8
LC_OH_2021_05_O7
  10
177730.998
  20
4477634.000
  0
VERTEX
  8
LC_OH_2021_05_O7
  10
177766.498
  20
4481671.000
  0
VERTEX
  8
LC_OH_2021_05_O7
  10
177837.998
  20
4481725.000
  0
VERTEX
  8
LC_OH_2021_05_O7
  10
179305.498
  20
4481630.000
  0
VERTEX
  8
LC_OH_2021_05_O7
  10
179311.498
  20
4481630.000
  0
SEQEND
  8
LC_OH_2021_05_O7
  0
INSERT
  8
FeatureAttribs
  2
FEATURE
  41
1
  42
1
  43
1
  50
0
  10
200876.749
  20
4480722.101
 66
1
  0
ATTRIB
  8
FeatureAttribs
 70
0
  1
PNOA-H_AMS_1956-57_33k_ES_PAN_21mic_H50_0551_fot_69A-47864_W.tif
  2
NAME
  10
200876.749
  20
4480722.101
 40
35.10307
  0
SEQEND
  0
POLYLINE
  8
LC_OH_2021_05_O7
  70
1
  66
1
  0
VERTEX
  8
LC_OH_2021_05_O7
  10
201333.999
  20
4481636.588
  0
VERTEX
  8
LC_OH_2021_05_O7
  10
201267.094
  20
4479959.747
  0
VERTEX
  8
LC_OH_2021_05_O7
  10
201258.597
  20
4479746.703
  0
VERTEX
  8
LC_OH_2021_05_O7
  10
200419.499
  20
4480001.500
  0
VERTEX
  8
LC_OH_2021_05_O7
  10
200459.499
  20
4481319.000
  0
VERTEX
  8
LC_OH_2021_05_O7
  10
201101.999
  20
4481697.000
  0
VERTEX
  8
LC_OH_2021_05_O7
  10
201102.999
  20
4481697.500
  0
SEQEND
  8
LC_OH_2021_05_O7
  0
INSERT
  8
FeatureAttribs
  2
FEATURE
  41
1
  42
1
  43
1
  50
0
  10
176338.818
  20
4479638.250
 66
1
  0
ATTRIB
  8
FeatureAttribs
 70
0
  1
PNOA-H_AMS_1956-57_33k_ES_PAN_21mic_H50_0550_fot_69A-47873_W.tif
  2
NAME
  10
176338.818
  20
4479638.250
 40
35.10307
  0
SEQEND
  0
POLYLINE
  8
LC_OH_2021_05_O7
  70
1
  66
1
  0
VERTEX
  8
LC_OH_2021_05_O7
  10
175009.998
  20
4481586.000
  0
VERTEX
  8
LC_OH_2021_05_O7
  10
175010.498
  20
4481590.000
  0
VERTEX
  8
LC_OH_2021_05_O7
  10
175196.498
  20
4481595.500
  0
VERTEX
  8
LC_OH_2021_05_O7
  10
175213.498
  20
4481596.000
  0
VERTEX
  8
LC_OH_2021_05_O7
  10
177766.498
  20
4481671.000
  0
VERTEX
  8
LC_OH_2021_05_O7
  10
177730.998
  20
4477634.000
  0
VERTEX
  8
LC_OH_2021_05_O7
  10
174844.498
  20
4477605.500
  0
VERTEX
  8
LC_OH_2021_05_O7
  10
175009.998
  20
4481586.000
  0
SEQEND
  8
LC_OH_2021_05_O7
  0
INSERT
  8
FeatureAttribs
  2
FEATURE
  41
1
  42
1
  43
1
  50
0
  10
173786.558
  20
4479012.468
 66
1
  0
ATTRIB
  8
FeatureAttribs
 70
0
  1
PNOA-H_AMS_1956-57_33k_ES_PAN_21mic_H50_0550_fot_69A-47874_W.tif
  2
NAME
  10
173786.558
  20
4479012.468
 40
35.10307
  0
SEQEND
  0
POLYLINE
  8
LC_OH_2021_05_O7
  70
1
  66
1
  0
VERTEX
  8
LC_OH_2021_05_O7
  10
173015.500
  20
4481997.000
  0
VERTEX
  8
LC_OH_2021_05_O7
  10
173986.998
  20
4481997.000
  0
VERTEX
  8
LC_OH_2021_05_O7
  10
173996.998
  20
4481987.000
  0
VERTEX
  8
LC_OH_2021_05_O7
  10
173996.998
  20
4481748.000
  0
VERTEX
  8
LC_OH_2021_05_O7
  10
174743.998
  20
4481795.000
  0
VERTEX
  8
LC_OH_2021_05_O7
  10
175010.498
  20
4481590.000
  0
VERTEX
  8
LC_OH_2021_05_O7
  10
174844.498
  20
4477605.000
  0
VERTEX
  8
LC_OH_2021_05_O7
  10
172763.355
  20
4476222.194
  0
VERTEX
  8
LC_OH_2021_05_O7
  10
172776.140
  20
4476515.199
  0
VERTEX
  8
LC_OH_2021_05_O7
  10
172877.117
  20
4478828.496
  0
VERTEX
  8
LC_OH_2021_05_O7
  10
172978.138
  20
4481141.797
  0
SEQEND
  8
LC_OH_2021_05_O7
  0
INSERT
  8
FeatureAttribs
  2
FEATURE
  41
1
  42
1
  43
1
  50
0
  10
185193.420
  20
4483720.000
 66
1
  0
ATTRIB
  8
FeatureAttribs
 70
0
  1
PNOA-H_AMS_1956-57_33k_ES_PAN_21mic_H50_0550_fot_68A-40332_E.tif
  2
NAME
  10
185193.420
  20
4483720.000
 40
35.10307
  0
SEQEND
  0
POLYLINE
  8
LC_OH_2021_05_O7
  70
1
  66
1
  0
VERTEX
  8
LC_OH_2021_05_O7
  10
186429.999
  20
4481726.500
  0
VERTEX
  8
LC_OH_2021_05_O7
  10
186163.499
  20
4481551.500
  0
VERTEX
  8
LC_OH_2021_05_O7
  10
186160.499
  20
4481551.500
  0
VERTEX
  8
LC_OH_2021_05_O7
  10
183642.498
  20
4481793.500
  0
VERTEX
  8
LC_OH_2021_05_O7
  10
183652.998
  20
4485436.500
  0
VERTEX
  8
LC_OH_2021_05_O7
  10
185244.998
  20
4485888.500
  0
VERTEX
  8
LC_OH_2021_05_O7
  10
186773.499
  20
4485308.000
  0
VERTEX
  8
LC_OH_2021_05_O7
  10
186698.999
  20
4481902.000
  0
VERTEX
  8
LC_OH_2021_05_O7
  10
186431.499
  20
4481727.000
  0
VERTEX
  8
LC_OH_2021_05_O7
  10
186429.999
  20
4481726.500
  0
SEQEND
  8
LC_OH_2021_05_O7
  0
INSERT
  8
FeatureAttribs
  2
FEATURE
  41
1
  42
1
  43
1
  50
0
  10
193991.586
  20
4483538.999
 66
1
  0
ATTRIB
  8
FeatureAttribs
 70
0
  1
PNOA-H_AMS_1956-57_33k_ES_PAN_21mic_H50_0550_fot_68A-40335_E.tif
  2
NAME
  10
193991.586
  20
4483538.999
 40
35.10307
  0
SEQEND
  0
POLYLINE
  8
LC_OH_2021_05_O7
  70
1
  66
1
  0
VERTEX
  8
LC_OH_2021_05_O7
  10
193950.999
  20
4485632.500
  0
VERTEX
  8
LC_OH_2021_05_O7
  10
195455.999
  20
4485068.500
  0
VERTEX
  8
LC_OH_2021_05_O7
  10
195378.499
  20
4481840.000
  0
VERTEX
  8
LC_OH_2021_05_O7
  10
194767.499
  20
4481445.500
  0
VERTEX
  8
LC_OH_2021_05_O7
  10
192547.999
  20
4481849.000
  0
VERTEX
  8
LC_OH_2021_05_O7
  10
192578.999
  20
4485148.000
  0
VERTEX
  8
LC_OH_2021_05_O7
  10
193949.499
  20
4485632.000
  0
VERTEX
  8
LC_OH_2021_05_O7
  10
193950.999
  20
4485632.500
  0
SEQEND
  8
LC_OH_2021_05_O7
  0
INSERT
  8
FeatureAttribs
  2
FEATURE
  41
1
  42
1
  43
1
  50
0
  10
179273.500
  20
4483805.999
 66
1
  0
ATTRIB
  8
FeatureAttribs
 70
0
  1
PNOA-H_AMS_1956-57_33k_ES_PAN_21mic_H50_0550_fot_68A-40330_E.tif
  2
NAME
  10
179273.500
  20
4483805.999
 40
35.10307
  0
SEQEND
  0
POLYLINE
  8
LC_OH_2021_05_O7
  70
1
  66
1
  0
VERTEX
  8
LC_OH_2021_05_O7
  10
179308.998
  20
4486007.000
  0
VERTEX
  8
LC_OH_2021_05_O7
  10
179611.498
  20
4486059.500
  0
VERTEX
  8
LC_OH_2021_05_O7
  10
180718.498
  20
4485622.000
  0
VERTEX
  8
LC_OH_2021_05_O7
  10
180750.998
  20
4481714.500
  0
VERTEX
  8
LC_OH_2021_05_O7
  10
180512.998
  20
4481552.500
  0
VERTEX
  8
LC_OH_2021_05_O7
  10
177837.498
  20
4481725.000
  0
VERTEX
  8
LC_OH_2021_05_O7
  10
177790.998
  20
4485741.500
  0
VERTEX
  8
LC_OH_2021_05_O7
  10
179306.498
  20
4486006.500
  0
VERTEX
  8
LC_OH_2021_05_O7
  10
179308.998
  20
4486007.000
  0
SEQEND
  8
LC_OH_2021_05_O7
  0
INSERT
  8
FeatureAttribs
  2
FEATURE
  41
1
  42
1
  43
1
  50
0
  10
191139.073
  20
4483581.499
 66
1
  0
ATTRIB
  8
FeatureAttribs
 70
0
  1
PNOA-H_AMS_1956-57_33k_ES_PAN_21mic_H50_0550_fot_68A-40334_E.tif
  2
NAME
  10
191139.073
  20
4483581.499
 40
35.10307
  0
SEQEND
  0
POLYLINE
  8
LC_OH_2021_05_O7
  70
1
  66
1
  0
VERTEX
  8
LC_OH_2021_05_O7
  10
191599.499
  20
4485505.000
  0
VERTEX
  8
LC_OH_2021_05_O7
  10
192578.999
  20
4485148.000
  0
VERTEX
  8
LC_OH_2021_05_O7
  10
192547.999
  20
4481849.000
  0
VERTEX
  8
LC_OH_2021_05_O7
  10
191873.499
  20
4481432.500
  0
VERTEX
  8
LC_OH_2021_05_O7
  10
189693.999
  20
4481847.000
  0
VERTEX
  8
LC_OH_2021_05_O7
  10
189692.499
  20
4481847.500
  0
VERTEX
  8
LC_OH_2021_05_O7
  10
189692.499
  20
4481859.500
  0
VERTEX
  8
LC_OH_2021_05_O7
  10
189734.999
  20
4485285.000
  0
VERTEX
  8
LC_OH_2021_05_O7
  10
190980.499
  20
4485730.500
  0
VERTEX
  8
LC_OH_2021_05_O7
  10
191016.999
  20
4485718.000
  0
VERTEX
  8
LC_OH_2021_05_O7
  10
191597.999
  20
4485505.500
  0
VERTEX
  8
LC_OH_2021_05_O7
  10
191599.499
  20
4485505.000
  0
SEQEND
  8
LC_OH_2021_05_O7
  0
INSERT
  8
FeatureAttribs
  2
FEATURE
  41
1
  42
1
  43
1
  50
0
  10
199744.885
  20
4483423.000
 66
1
  0
ATTRIB
  8
FeatureAttribs
 70
0
  1
PNOA-H_AMS_1956-57_33k_ES_PAN_21mic_H50_0550_fot_68A-40337_E.tif
  2
NAME
  10
199744.885
  20
4483423.000
 40
35.10307
  0
SEQEND
  0
POLYLINE
  8
LC_OH_2021_05_O7
  70
1
  66
1
  0
VERTEX
  8
LC_OH_2021_05_O7
  10
198376.499
  20
4485048.000
  0
VERTEX
  8
LC_OH_2021_05_O7
  10
199720.999
  20
4485527.000
  0
VERTEX
  8
LC_OH_2021_05_O7
  10
199723.999
  20
4485527.000
  0
VERTEX
  8
LC_OH_2021_05_O7
  10
199789.999
  20
4485504.000
  0
VERTEX
  8
LC_OH_2021_05_O7
  10
199791.499
  20
4485503.500
  0
VERTEX
  8
LC_OH_2021_05_O7
  10
201272.999
  20
4485000.500
  0
VERTEX
  8
LC_OH_2021_05_O7
  10
201103.499
  20
4481697.500
  0
VERTEX
  8
LC_OH_2021_05_O7
  10
200464.999
  20
4481321.500
  0
VERTEX
  8
LC_OH_2021_05_O7
  10
200460.499
  20
4481319.000
  0
VERTEX
  8
LC_OH_2021_05_O7
  10
200456.999
  20
4481319.000
  0
VERTEX
  8
LC_OH_2021_05_O7
  10
198216.999
  20
4481759.000
  0
SEQEND
  8
LC_OH_2021_05_O7
  0
INSERT
  8
FeatureAttribs
  2
FEATURE
  41
1
  42
1
  43
1
  50
0
  10
176292.108
  20
4483867.250
 66
1
  0
ATTRIB
  8
FeatureAttribs
 70
0
  1
PNOA-H_AMS_1956-57_33k_ES_PAN_21mic_H50_0550_fot_68A-40329_E.tif
  2
NAME
  10
176292.108
  20
4483867.250
 40
35.10307
  0
SEQEND
  0
POLYLINE
  8
LC_OH_2021_05_O7
  70
1
  66
1
  0
VERTEX
  8
LC_OH_2021_05_O7
  10
177263.498
  20
4485985.000
  0
VERTEX
  8
LC_OH_2021_05_O7
  10
177790.998
  20
4485741.500
  0
VERTEX
  8
LC_OH_2021_05_O7
  10
177837.498
  20
4481724.500
  0
VERTEX
  8
LC_OH_2021_05_O7
  10
177766.998
  20
4481671.000
  0
VERTEX
  8
LC_OH_2021_05_O7
  10
177758.498
  20
4481670.500
  0
VERTEX
  8
LC_OH_2021_05_O7
  10
175009.998
  20
4481590.000
  0
VERTEX
  8
LC_OH_2021_05_O7
  10
174743.498
  20
4481795.000
  0
VERTEX
  8
LC_OH_2021_05_O7
  10
174799.998
  20
4485972.000
  0
VERTEX
  8
LC_OH_2021_05_O7
  10
176915.998
  20
4486144.500
  0
VERTEX
  8
LC_OH_2021_05_O7
  10
176921.998
  20
4486143.500
  0
VERTEX
  8
LC_OH_2021_05_O7
  10
177262.498
  20
4485985.500
  0
VERTEX
  8
LC_OH_2021_05_O7
  10
177263.498
  20
4485985.000
  0
SEQEND
  8
LC_OH_2021_05_O7
  0
INSERT
  8
FeatureAttribs
  2
FEATURE
  41
1
  42
1
  43
1
  50
0
  10
188225.677
  20
4483633.500
 66
1
  0
ATTRIB
  8
FeatureAttribs
 70
0
  1
PNOA-H_AMS_1956-57_33k_ES_PAN_21mic_H50_0550_fot_68A-40333_E.tif
  2
NAME
  10
188225.677
  20
4483633.500
 40
35.10307
  0
SEQEND
  0
POLYLINE
  8
LC_OH_2021_05_O7
  70
1
  66
1
  0
VERTEX
  8
LC_OH_2021_05_O7
  10
189551.499
  20
4485346.000
  0
VERTEX
  8
LC_OH_2021_05_O7
  10
189734.999
  20
4485285.000
  0
VERTEX
  8
LC_OH_2021_05_O7
  10
189692.499
  20
4481847.500
  0
VERTEX
  8
LC_OH_2021_05_O7
  10
189054.499
  20
4481465.500
  0
VERTEX
  8
LC_OH_2021_05_O7
  10
189039.999
  20
4481458.000
  0
VERTEX
  8
LC_OH_2021_05_O7
  10
186701.499
  20
4481901.500
  0
VERTEX
  8
LC_OH_2021_05_O7
  10
186698.999
  20
4481902.000
  0
VERTEX
  8
LC_OH_2021_05_O7
  10
186698.999
  20
4481913.000
  0
VERTEX
  8
LC_OH_2021_05_O7
  10
186773.499
  20
4485308.000
  0
VERTEX
  8
LC_OH_2021_05_O7
  10
188157.999
  20
4485809.000
  0
VERTEX
  8
LC_OH_2021_05_O7
  10
189548.999
  20
4485346.500
  0
VERTEX
  8
LC_OH_2021_05_O7
  10
189551.499
  20
4485346.000
  0
SEQEND
  8
LC_OH_2021_05_O7
  0
INSERT
  8
FeatureAttribs
  2
FEATURE
  41
1
  42
1
  43
1
  50
0
  10
185005.813
  20
4474783.002
 66
1
  0
ATTRIB
  8
FeatureAttribs
 70
0
  1
PNOA-H_AMS_1956-57_33k_ES_PAN_21mic_H50_0550_fot_70A-46701_E.tif
  2
NAME
  10
185005.813
  20
4474783.002
 40
35.10307
  0
SEQEND
  0
POLYLINE
  8
LC_OH_2021_05_O7
  70
1
  66
1
  0
VERTEX
  8
LC_OH_2021_05_O7
  10
185455.499
  20
4475817.500
  0
VERTEX
  8
LC_OH_2021_05_O7
  10
186435.499
  20
4473805.500
  0
VERTEX
  8
LC_OH_2021_05_O7
  10
186343.499
  20
4472798.500
  0
VERTEX
  8
LC_OH_2021_05_O7
  10
185019.999
  20
4472440.500
  0
VERTEX
  8
LC_OH_2021_05_O7
  10
183442.998
  20
4472906.000
  0
VERTEX
  8
LC_OH_2021_05_O7
  10
183443.498
  20
4472922.000
  0
VERTEX
  8
LC_OH_2021_05_O7
  10
184818.498
  20
4477125.500
  0
VERTEX
  8
LC_OH_2021_05_O7
  10
184819.498
  20
4477125.500
  0
VERTEX
  8
LC_OH_2021_05_O7
  10
185455.499
  20
4475818.500
  0
VERTEX
  8
LC_OH_2021_05_O7
  10
185455.499
  20
4475817.500
  0
SEQEND
  8
LC_OH_2021_05_O7
  0
INSERT
  8
FeatureAttribs
  2
FEATURE
  41
1
  42
1
  43
1
  50
0
  10
196860.079
  20
4483502.249
 66
1
  0
ATTRIB
  8
FeatureAttribs
 70
0
  1
PNOA-H_AMS_1956-57_33k_ES_PAN_21mic_H50_0550_fot_68A-40336_E.tif
  2
NAME
  10
196860.079
  20
4483502.249
 40
35.10307
  0
SEQEND
  0
POLYLINE
  8
LC_OH_2021_05_O7
  70
1
  66
1
  0
VERTEX
  8
LC_OH_2021_05_O7
  10
195694.499
  20
4485154.500
  0
VERTEX
  8
LC_OH_2021_05_O7
  10
196877.499
  20
4485579.000
  0
VERTEX
  8
LC_OH_2021_05_O7
  10
198376.499
  20
4485048.000
  0
VERTEX
  8
LC_OH_2021_05_O7
  10
198217.499
  20
4481761.000
  0
VERTEX
  8
LC_OH_2021_05_O7
  10
198216.999
  20
4481759.000
  0
VERTEX
  8
LC_OH_2021_05_O7
  10
198211.999
  20
4481755.500
  0
VERTEX
  8
LC_OH_2021_05_O7
  10
197693.499
  20
4481425.500
  0
VERTEX
  8
LC_OH_2021_05_O7
  10
195378.499
  20
4481840.000
  0
VERTEX
  8
LC_OH_2021_05_O7
  10
195455.999
  20
4485068.500
  0
VERTEX
  8
LC_OH_2021_05_O7
  10
195692.999
  20
4485154.000
  0
VERTEX
  8
LC_OH_2021_05_O7
  10
195694.499
  20
4485154.500
  0
SEQEND
  8
LC_OH_2021_05_O7
  0
INSERT
  8
FeatureAttribs
  2
FEATURE
  41
1
  42
1
  43
1
  50
0
  10
181779.727
  20
4475060.500
 66
1
  0
ATTRIB
  8
FeatureAttribs
 70
0
  1
PNOA-H_AMS_1956-57_33k_ES_PAN_21mic_H50_0550_fot_70A-46700_E.tif
  2
NAME
  10
181779.727
  20
4475060.500
 40
35.10307
  0
SEQEND
  0
POLYLINE
  8
LC_OH_2021_05_O7
  70
1
  66
1
  0
VERTEX
  8
LC_OH_2021_05_O7
  10
183407.498
  20
4473058.000
  0
VERTEX
  8
LC_OH_2021_05_O7
  10
183443.498
  20
4472923.500
  0
VERTEX
  8
LC_OH_2021_05_O7
  10
183442.998
  20
4472906.000
  0
VERTEX
  8
LC_OH_2021_05_O7
  10
182311.998
  20
4472576.000
  0
VERTEX
  8
LC_OH_2021_05_O7
  10
180587.998
  20
4472994.000
  0
VERTEX
  8
LC_OH_2021_05_O7
  10
180786.998
  20
4477492.000
  0
VERTEX
  8
LC_OH_2021_05_O7
  10
182211.998
  20
4477545.000
  0
VERTEX
  8
LC_OH_2021_05_O7
  10
182224.498
  20
4477545.000
  0
VERTEX
  8
LC_OH_2021_05_O7
  10
182225.498
  20
4477543.000
  0
VERTEX
  8
LC_OH_2021_05_O7
  10
183407.498
  20
4473060.000
  0
VERTEX
  8
LC_OH_2021_05_O7
  10
183407.498
  20
4473058.000
  0
SEQEND
  8
LC_OH_2021_05_O7
  0
INSERT
  8
FeatureAttribs
  2
FEATURE
  41
1
  42
1
  43
1
  50
0
  10
179269.699
  20
4475178.001
 66
1
  0
ATTRIB
  8
FeatureAttribs
 70
0
  1
PNOA-H_AMS_1956-57_33k_ES_PAN_21mic_H50_0550_fot_70A-46699_E.tif
  2
NAME
  10
179269.699
  20
4475178.001
 40
35.10307
  0
SEQEND
  0
POLYLINE
  8
LC_OH_2021_05_O7
  70
1
  66
1
  0
VERTEX
  8
LC_OH_2021_05_O7
  10
180530.998
  20
4477644.000
  0
VERTEX
  8
LC_OH_2021_05_O7
  10
180538.498
  20
4477644.000
  0
VERTEX
  8
LC_OH_2021_05_O7
  10
180786.998
  20
4477492.500
  0
VERTEX
  8
LC_OH_2021_05_O7
  10
180587.998
  20
4472994.000
  0
VERTEX
  8
LC_OH_2021_05_O7
  10
179652.498
  20
4472712.000
  0
VERTEX
  8
LC_OH_2021_05_O7
  10
177827.998
  20
4473151.000
  0
VERTEX
  8
LC_OH_2021_05_O7
  10
177885.998
  20
4477536.500
  0
VERTEX
  8
LC_OH_2021_05_O7
  10
180518.998
  20
4477643.500
  0
VERTEX
  8
LC_OH_2021_05_O7
  10
180530.998
  20
4477644.000
  0
SEQEND
  8
LC_OH_2021_05_O7
  0
INSERT
  8
FeatureAttribs
  2
FEATURE
  41
1
  42
1
  43
1
  50
0
  10
199635.682
  20
4473421.251
 66
1
  0
ATTRIB
  8
FeatureAttribs
 70
0
  1
PNOA-H_AMS_1956-57_33k_ES_PAN_21mic_H50_0550_fot_70A-46706_E.tif
  2
NAME
  10
199635.682
  20
4473421.251
 40
35.10307
  0
SEQEND
  0
POLYLINE
  8
LC_OH_2021_05_O7
  70
1
  66
1
  0
VERTEX
  8
LC_OH_2021_05_O7
  10
201048.216
  20
4474469.981
  0
VERTEX
  8
LC_OH_2021_05_O7
  10
200990.447
  20
4473020.276
  0
VERTEX
  8
LC_OH_2021_05_O7
  10
200959.042
  20
4472231.833
  0
VERTEX
  8
LC_OH_2021_05_O7
  10
198805.999
  20
4472019.500
  0
VERTEX
  8
LC_OH_2021_05_O7
  10
198803.499
  20
4472019.500
  0
VERTEX
  8
LC_OH_2021_05_O7
  10
198797.499
  20
4472022.500
  0
VERTEX
  8
LC_OH_2021_05_O7
  10
198137.999
  20
4472364.500
  0
VERTEX
  8
LC_OH_2021_05_O7
  10
198199.499
  20
4474559.000
  0
VERTEX
  8
LC_OH_2021_05_O7
  10
198224.499
  20
4474617.000
  0
VERTEX
  8
LC_OH_2021_05_O7
  10
198224.999
  20
4474618.000
  0
VERTEX
  8
LC_OH_2021_05_O7
  10
198228.999
  20
4474618.500
  0
VERTEX
  8
LC_OH_2021_05_O7
  10
199781.499
  20
4474736.500
  0
VERTEX
  8
LC_OH_2021_05_O7
  10
199787.999
  20
4474737.000
  0
VERTEX
  8
LC_OH_2021_05_O7
  10
200919.499
  20
4474823.000
  0
VERTEX
  8
LC_OH_2021_05_O7
  10
200929.499
  20
4474823.000
  0
SEQEND
  8
LC_OH_2021_05_O7
  0
INSERT
  8
FeatureAttribs
  2
FEATURE
  41
1
  42
1
  43
1
  50
0
  10
196655.054
  20
4473551.501
 66
1
  0
ATTRIB
  8
FeatureAttribs
 70
0
  1
PNOA-H_AMS_1956-57_33k_ES_PAN_21mic_H50_0550_fot_70A-46705_E.tif
  2
NAME
  10
196655.054
  20
4473551.501
 40
35.10307
  0
SEQEND
  0
POLYLINE
  8
LC_OH_2021_05_O7
  70
1
  66
1
  0
VERTEX
  8
LC_OH_2021_05_O7
  10
197743.499
  20
4474656.500
  0
VERTEX
  8
LC_OH_2021_05_O7
  10
198199.499
  20
4474558.500
  0
VERTEX
  8
LC_OH_2021_05_O7
  10
198137.999
  20
4472364.500
  0
VERTEX
  8
LC_OH_2021_05_O7
  10
196196.499
  20
4471978.500
  0
VERTEX
  8
LC_OH_2021_05_O7
  10
196192.999
  20
4471978.500
  0
VERTEX
  8
LC_OH_2021_05_O7
  10
196186.999
  20
4471981.000
  0
VERTEX
  8
LC_OH_2021_05_O7
  10
195074.999
  20
4472478.500
  0
VERTEX
  8
LC_OH_2021_05_O7
  10
195188.499
  20
4474386.500
  0
VERTEX
  8
LC_OH_2021_05_O7
  10
195562.999
  20
4475124.500
  0
VERTEX
  8
LC_OH_2021_05_O7
  10
197741.499
  20
4474656.500
  0
VERTEX
  8
LC_OH_2021_05_O7
  10
197743.499
  20
4474656.500
  0
SEQEND
  8
LC_OH_2021_05_O7
  0
INSERT
  8
FeatureAttribs
  2
FEATURE
  41
1
  42
1
  43
1
  50
0
  10
193670.771
  20
4473800.251
 66
1
  0
ATTRIB
  8
FeatureAttribs
 70
0
  1
PNOA-H_AMS_1956-57_33k_ES_PAN_21mic_H50_0550_fot_70A-46704_E.tif
  2
NAME
  10
193670.771
  20
4473800.251
 40
35.10307
  0
SEQEND
  0
POLYLINE
  8
LC_OH_2021_05_O7
  70
1
  66
1
  0
VERTEX
  8
LC_OH_2021_05_O7
  10
192906.499
  20
4475548.500
  0
VERTEX
  8
LC_OH_2021_05_O7
  10
195188.499
  20
4474386.000
  0
VERTEX
  8
LC_OH_2021_05_O7
  10
195074.999
  20
4472478.500
  0
VERTEX
  8
LC_OH_2021_05_O7
  10
193357.499
  20
4472054.000
  0
VERTEX
  8
LC_OH_2021_05_O7
  10
193345.999
  20
4472052.000
  0
VERTEX
  8
LC_OH_2021_05_O7
  10
192088.999
  20
4472551.000
  0
VERTEX
  8
LC_OH_2021_05_O7
  10
192221.999
  20
4474231.000
  0
VERTEX
  8
LC_OH_2021_05_O7
  10
192906.499
  20
4475547.500
  0
VERTEX
  8
LC_OH_2021_05_O7
  10
192906.499
  20
4475548.500
  0
SEQEND
  8
LC_OH_2021_05_O7
  0
INSERT
  8
FeatureAttribs
  2
FEATURE
  41
1
  42
1
  43
1
  50
0
  10
182191.122
  20
4483782.999
 66
1
  0
ATTRIB
  8
FeatureAttribs
 70
0
  1
PNOA-H_AMS_1956-57_33k_ES_PAN_21mic_H50_0550_fot_68A-40331_E.tif
  2
NAME
  10
182191.122
  20
4483782.999
 40
35.10307
  0
SEQEND
  0
POLYLINE
  8
LC_OH_2021_05_O7
  70
1
  66
1
  0
VERTEX
  8
LC_OH_2021_05_O7
  10
183549.998
  20
4481726.500
  0
VERTEX
  8
LC_OH_2021_05_O7
  10
183363.498
  20
4481591.500
  0
VERTEX
  8
LC_OH_2021_05_O7
  10
180750.998
  20
4481715.000
  0
VERTEX
  8
LC_OH_2021_05_O7
  10
180718.498
  20
4485622.000
  0
VERTEX
  8
LC_OH_2021_05_O7
  10
182397.498
  20
4485974.000
  0
VERTEX
  8
LC_OH_2021_05_O7
  10
182403.998
  20
4485974.500
  0
VERTEX
  8
LC_OH_2021_05_O7
  10
183652.998
  20
4485436.500
  0
VERTEX
  8
LC_OH_2021_05_O7
  10
183642.998
  20
4481806.500
  0
VERTEX
  8
LC_OH_2021_05_O7
  10
183642.498
  20
4481793.000
  0
VERTEX
  8
LC_OH_2021_05_O7
  10
183641.498
  20
4481792.000
  0
VERTEX
  8
LC_OH_2021_05_O7
  10
183550.998
  20
4481727.000
  0
VERTEX
  8
LC_OH_2021_05_O7
  10
183549.998
  20
4481726.500
  0
SEQEND
  8
LC_OH_2021_05_O7
  0
INSERT
  8
FeatureAttribs
  2
FEATURE
  41
1
  42
1
  43
1
  50
0
  10
187986.344
  20
4474306.002
 66
1
  0
ATTRIB
  8
FeatureAttribs
 70
0
  1
PNOA-H_AMS_1956-57_33k_ES_PAN_21mic_H50_0550_fot_70A-46702_E.tif
  2
NAME
  10
187986.344
  20
4474306.002
 40
35.10307
  0
SEQEND
  0
POLYLINE
  8
LC_OH_2021_05_O7
  70
1
  66
1
  0
VERTEX
  8
LC_OH_2021_05_O7
  10
186435.499
  20
4473806.500
  0
VERTEX
  8
LC_OH_2021_05_O7
  10
187600.499
  20
4476311.000
  0
VERTEX
  8
LC_OH_2021_05_O7
  10
187600.999
  20
4476312.500
  0
VERTEX
  8
LC_OH_2021_05_O7
  10
189376.999
  20
4474221.000
  0
VERTEX
  8
LC_OH_2021_05_O7
  10
189286.499
  20
4472644.500
  0
VERTEX
  8
LC_OH_2021_05_O7
  10
187824.999
  20
4472299.500
  0
VERTEX
  8
LC_OH_2021_05_O7
  10
186343.499
  20
4472798.500
  0
SEQEND
  8
LC_OH_2021_05_O7
  0
INSERT
  8
FeatureAttribs
  2
FEATURE
  41
1
  42
1
  43
1
  50
0
  10
190788.671
  20
4474065.000
 66
1
  0
ATTRIB
  8
FeatureAttribs
 70
0
  1
PNOA-H_AMS_1956-57_33k_ES_PAN_21mic_H50_0550_fot_70A-46703_E.tif
  2
NAME
  10
190788.671
  20
4474065.000
 40
35.10307
  0
SEQEND
  0
POLYLINE
  8
LC_OH_2021_05_O7
  70
1
  66
1
  0
VERTEX
  8
LC_OH_2021_05_O7
  10
191599.499
  20
4474781.000
  0
VERTEX
  8
LC_OH_2021_05_O7
  10
192222.499
  20
4474231.500
  0
VERTEX
  8
LC_OH_2021_05_O7
  10
192088.999
  20
4472552.500
  0
VERTEX
  8
LC_OH_2021_05_O7
  10
192087.999
  20
4472551.000
  0
VERTEX
  8
LC_OH_2021_05_O7
  10
190572.999
  20
4472182.000
  0
VERTEX
  8
LC_OH_2021_05_O7
  10
189286.499
  20
4472644.000
  0
VERTEX
  8
LC_OH_2021_05_O7
  10
189376.999
  20
4474220.500
  0
VERTEX
  8
LC_OH_2021_05_O7
  10
190277.499
  20
4475948.000
  0
VERTEX
  8
LC_OH_2021_05_O7
  10
190281.499
  20
4475945.500
  0
VERTEX
  8
LC_OH_2021_05_O7
  10
191598.999
  20
4474782.000
  0
VERTEX
  8
LC_OH_2021_05_O7
  10
191599.499
  20
4474781.000
  0
SEQEND
  8
LC_OH_2021_05_O7
  0
INSERT
  8
FeatureAttribs
  2
FEATURE
  41
1
  42
1
  43
1
  50
0
  10
201287.243
  20
4483352.567
 66
1
  0
ATTRIB
  8
FeatureAttribs
 70
0
  1
PNOA-H_AMS_1956-57_33k_ES_PAN_21mic_H50_0551_fot_68A-40338_E.tif
  2
NAME
  10
201287.243
  20
4483352.567
 40
35.10307
  0
SEQEND
  0
POLYLINE
  8
LC_OH_2021_05_O7
  70
1
  66
1
  0
VERTEX
  8
LC_OH_2021_05_O7
  10
201334.002
  20
4481636.666
  0
VERTEX
  8
LC_OH_2021_05_O7
  10
201103.499
  20
4481697.500
  0
VERTEX
  8
LC_OH_2021_05_O7
  10
201272.499
  20
4484998.500
  0
VERTEX
  8
LC_OH_2021_05_O7
  10
201273.999
  20
4485001.000
  0
VERTEX
  8
LC_OH_2021_05_O7
  10
201470.986
  20
4485068.469
  0
VERTEX
  8
LC_OH_2021_05_O7
  10
201451.723
  20
4484586.088
  0
VERTEX
  8
LC_OH_2021_05_O7
  10
201359.389
  20
4482272.915
  0
SEQEND
  8
LC_OH_2021_05_O7
  0
INSERT
  8
FeatureAttribs
  2
FEATURE
  41
1
  42
1
  43
1
  50
0
  10
175283.848
  20
4475242.751
 66
1
  0
ATTRIB
  8
FeatureAttribs
 70
0
  1
PNOA-H_AMS_1956-57_33k_ES_PAN_21mic_H50_0550_fot_70A-46698_E.tif
  2
NAME
  10
175283.848
  20
4475242.751
 40
35.10307
  0
SEQEND
  0
POLYLINE
  8
LC_OH_2021_05_O7
  70
1
  66
1
  0
VERTEX
  8
LC_OH_2021_05_O7
  10
172763.384
  20
4476222.861
  0
VERTEX
  8
LC_OH_2021_05_O7
  10
174844.498
  20
4477605.500
  0
VERTEX
  8
LC_OH_2021_05_O7
  10
177633.498
  20
4477633.500
  0
VERTEX
  8
LC_OH_2021_05_O7
  10
177683.498
  20
4477634.000
  0
VERTEX
  8
LC_OH_2021_05_O7
  10
177731.998
  20
4477634.000
  0
VERTEX
  8
LC_OH_2021_05_O7
  10
177885.998
  20
4477536.500
  0
VERTEX
  8
LC_OH_2021_05_O7
  10
177827.998
  20
4473151.000
  0
VERTEX
  8
LC_OH_2021_05_O7
  10
176925.998
  20
4472851.500
  0
VERTEX
  8
LC_OH_2021_05_O7
  10
173833.498
  20
4473540.000
  0
VERTEX
  8
LC_OH_2021_05_O7
  10
172874.998
  20
4474280.500
  0
VERTEX
  8
LC_OH_2021_05_O7
  10
172681.998
  20
4474299.500
  0
VERTEX
  8
LC_OH_2021_05_O7
  10
172686.721
  20
4474465.831
  0
SEQEND
  8
LC_OH_2021_05_O7
  0
INSERT
  8
FeatureAttribs
  2
FEATURE
  41
1
  42
1
  43
1
  50
0
  10
173848.602
  20
4483964.251
 66
1
  0
ATTRIB
  8
FeatureAttribs
 70
0
  1
PNOA-H_AMS_1956-57_33k_ES_PAN_21mic_H50_0550_fot_68A-40328_E.tif
  2
NAME
  10
173848.602
  20
4483964.251
 40
35.10307
  0
SEQEND
  0
POLYLINE
  8
LC_OH_2021_05_O7
  70
1
  66
1
  0
VERTEX
  8
LC_OH_2021_05_O7
  10
173197.479
  20
4486161.077
  0
VERTEX
  8
LC_OH_2021_05_O7
  10
174336.498
  20
4486180.000
  0
VERTEX
  8
LC_OH_2021_05_O7
  10
174366.498
  20
4486180.500
  0
VERTEX
  8
LC_OH_2021_05_O7
  10
174387.498
  20
4486180.500
  0
VERTEX
  8
LC_OH_2021_05_O7
  10
174799.998
  20
4485972.000
  0
VERTEX
  8
LC_OH_2021_05_O7
  10
174743.498
  20
4481795.000
  0
VERTEX
  8
LC_OH_2021_05_O7
  10
173999.998
  20
4481748.000
  0
VERTEX
  8
LC_OH_2021_05_O7
  10
173996.998
  20
4481748.000
  0
VERTEX
  8
LC_OH_2021_05_O7
  10
173996.998
  20
4481987.000
  0
VERTEX
  8
LC_OH_2021_05_O7
  10
173986.998
  20
4481997.000
  0
VERTEX
  8
LC_OH_2021_05_O7
  10
173015.500
  20
4481997.000
  0
VERTEX
  8
LC_OH_2021_05_O7
  10
173079.202
  20
4483455.103
  0
VERTEX
  8
LC_OH_2021_05_O7
  10
173180.310
  20
4485768.413
  0
SEQEND
  8
LC_OH_2021_05_O7
  0
INSERT
  8
FeatureAttribs
  2
FEATURE
  41
1
  42
1
  43
1
  50
0
  10
199661.973
  20
4476054.749
 66
1
  0
ATTRIB
  8
FeatureAttribs
 70
0
  1
PNOA-H_AMS_1956-57_33k_ES_PAN_21mic_H50_0550_fot_000-44352_R.tif
  2
NAME
  10
199661.973
  20
4476054.749
 40
35.10307
  0
SEQEND
  0
POLYLINE
  8
LC_OH_2021_05_O7
  70
1
  66
1
  0
VERTEX
  8
LC_OH_2021_05_O7
  10
198390.999
  20
4477128.000
  0
VERTEX
  8
LC_OH_2021_05_O7
  10
199786.999
  20
4477388.000
  0
VERTEX
  8
LC_OH_2021_05_O7
  10
199789.499
  20
4477388.500
  0
VERTEX
  8
LC_OH_2021_05_O7
  10
200343.499
  20
4477491.500
  0
VERTEX
  8
LC_OH_2021_05_O7
  10
201069.999
  20
4477141.000
  0
VERTEX
  8
LC_OH_2021_05_O7
  10
200928.999
  20
4474823.500
  0
VERTEX
  8
LC_OH_2021_05_O7
  10
198224.999
  20
4474618.000
  0
SEQEND
  8
LC_OH_2021_05_O7
  0
INSERT
  8
FeatureAttribs
  2
FEATURE
  41
1
  42
1
  43
1
  50
0
  10
196964.097
  20
4476086.749
 66
1
  0
ATTRIB
  8
FeatureAttribs
 70
0
  1
PNOA-H_AMS_1956-57_33k_ES_PAN_21mic_H50_0550_fot_000-44353_R.tif
  2
NAME
  10
196964.097
  20
4476086.749
 40
35.10307
  0
SEQEND
  0
POLYLINE
  8
LC_OH_2021_05_O7
  70
1
  66
1
  0
VERTEX
  8
LC_OH_2021_05_O7
  10
197743.499
  20
4477449.000
  0
VERTEX
  8
LC_OH_2021_05_O7
  10
198390.999
  20
4477128.000
  0
VERTEX
  8
LC_OH_2021_05_O7
  10
198225.499
  20
4474618.500
  0
VERTEX
  8
LC_OH_2021_05_O7
  10
198199.999
  20
4474559.000
  0
VERTEX
  8
LC_OH_2021_05_O7
  10
198197.999
  20
4474558.500
  0
VERTEX
  8
LC_OH_2021_05_O7
  10
198127.999
  20
4474573.500
  0
VERTEX
  8
LC_OH_2021_05_O7
  10
195564.499
  20
4475124.000
  0
VERTEX
  8
LC_OH_2021_05_O7
  10
195563.499
  20
4475124.500
  0
VERTEX
  8
LC_OH_2021_05_O7
  10
195563.499
  20
4475134.500
  0
VERTEX
  8
LC_OH_2021_05_O7
  10
195655.999
  20
4477214.000
  0
VERTEX
  8
LC_OH_2021_05_O7
  10
197407.999
  20
4477615.000
  0
VERTEX
  8
LC_OH_2021_05_O7
  10
197410.499
  20
4477615.000
  0
VERTEX
  8
LC_OH_2021_05_O7
  10
197742.499
  20
4477449.500
  0
VERTEX
  8
LC_OH_2021_05_O7
  10
197743.499
  20
4477449.000
  0
SEQEND
  8
LC_OH_2021_05_O7
  0
INSERT
  8
FeatureAttribs
  2
FEATURE
  41
1
  42
1
  43
1
  50
0
  10
194259.331
  20
4476044.999
 66
1
  0
ATTRIB
  8
FeatureAttribs
 70
0
  1
PNOA-H_AMS_1956-57_33k_ES_PAN_21mic_H50_0550_fot_000-44354_R.tif
  2
NAME
  10
194259.331
  20
4476044.999
 40
35.10307
  0
SEQEND
  0
POLYLINE
  8
LC_OH_2021_05_O7
  70
1
  66
1
  0
VERTEX
  8
LC_OH_2021_05_O7
  10
194595.499
  20
4477704.000
  0
VERTEX
  8
LC_OH_2021_05_O7
  10
195655.999
  20
4477214.500
  0
VERTEX
  8
LC_OH_2021_05_O7
  10
195563.499
  20
4475124.500
  0
VERTEX
  8
LC_OH_2021_05_O7
  10
195188.499
  20
4474386.000
  0
VERTEX
  8
LC_OH_2021_05_O7
  10
192906.499
  20
4475548.500
  0
VERTEX
  8
LC_OH_2021_05_O7
  10
192933.999
  20
4477269.000
  0
VERTEX
  8
LC_OH_2021_05_O7
  10
194593.499
  20
4477703.500
  0
VERTEX
  8
LC_OH_2021_05_O7
  10
194595.499
  20
4477704.000
  0
SEQEND
  8
LC_OH_2021_05_O7
  0
INSERT
  8
FeatureAttribs
  2
FEATURE
  41
1
  42
1
  43
1
  50
0
  10
189073.321
  20
4475999.249
 66
1
  0
ATTRIB
  8
FeatureAttribs
 70
0
  1
PNOA-H_AMS_1956-57_33k_ES_PAN_21mic_H50_0550_fot_000-44356_R.tif
  2
NAME
  10
189073.321
  20
4475999.249
 40
35.10307
  0
SEQEND
  0
POLYLINE
  8
LC_OH_2021_05_O7
  70
1
  66
1
  0
VERTEX
  8
LC_OH_2021_05_O7
  10
190086.999
  20
4475582.500
  0
VERTEX
  8
LC_OH_2021_05_O7
  10
189376.999
  20
4474220.500
  0
VERTEX
  8
LC_OH_2021_05_O7
  10
187600.999
  20
4476312.500
  0
VERTEX
  8
LC_OH_2021_05_O7
  10
187611.999
  20
4477273.000
  0
VERTEX
  8
LC_OH_2021_05_O7
  10
189109.499
  20
4477778.000
  0
VERTEX
  8
LC_OH_2021_05_O7
  10
189113.499
  20
4477777.500
  0
VERTEX
  8
LC_OH_2021_05_O7
  10
189130.999
  20
4477770.500
  0
VERTEX
  8
LC_OH_2021_05_O7
  10
190322.999
  20
4477288.500
  0
VERTEX
  8
LC_OH_2021_05_O7
  10
190277.999
  20
4475948.000
  0
VERTEX
  8
LC_OH_2021_05_O7
  10
190087.499
  20
4475583.500
  0
VERTEX
  8
LC_OH_2021_05_O7
  10
190086.999
  20
4475582.500
  0
SEQEND
  8
LC_OH_2021_05_O7
  0
INSERT
  8
FeatureAttribs
  2
FEATURE
  41
1
  42
1
  43
1
  50
0
  10
191596.288
  20
4475981.750
 66
1
  0
ATTRIB
  8
FeatureAttribs
 70
0
  1
PNOA-H_AMS_1956-57_33k_ES_PAN_21mic_H50_0550_fot_000-44355_R.tif
  2
NAME
  10
191596.288
  20
4475981.750
 40
35.10307
  0
SEQEND
  0
POLYLINE
  8
LC_OH_2021_05_O7
  70
1
  66
1
  0
VERTEX
  8
LC_OH_2021_05_O7
  10
191854.499
  20
4477732.000
  0
VERTEX
  8
LC_OH_2021_05_O7
  10
191857.499
  20
4477732.000
  0
VERTEX
  8
LC_OH_2021_05_O7
  10
191902.999
  20
4477712.500
  0
VERTEX
  8
LC_OH_2021_05_O7
  10
192933.999
  20
4477269.000
  0
VERTEX
  8
LC_OH_2021_05_O7
  10
192906.499
  20
4475547.500
  0
VERTEX
  8
LC_OH_2021_05_O7
  10
192222.499
  20
4474231.500
  0
VERTEX
  8
LC_OH_2021_05_O7
  10
190277.999
  20
4475948.000
  0
VERTEX
  8
LC_OH_2021_05_O7
  10
190323.499
  20
4477288.500
  0
VERTEX
  8
LC_OH_2021_05_O7
  10
191852.999
  20
4477731.500
  0
VERTEX
  8
LC_OH_2021_05_O7
  10
191854.499
  20
4477732.000
  0
SEQEND
  8
LC_OH_2021_05_O7
  0
INSERT
  8
FeatureAttribs
  2
FEATURE
  41
1
  42
1
  43
1
  50
0
  10
186413.328
  20
4475809.248
 66
1
  0
ATTRIB
  8
FeatureAttribs
 70
0
  1
PNOA-H_AMS_1956-57_33k_ES_PAN_21mic_H50_0550_fot_000-44357_R.tif
  2
NAME
  10
186413.328
  20
4475809.248
 40
35.10307
  0
SEQEND
  0
POLYLINE
  8
LC_OH_2021_05_O7
  70
1
  66
1
  0
VERTEX
  8
LC_OH_2021_05_O7
  10
187503.499
  20
4477316.500
  0
VERTEX
  8
LC_OH_2021_05_O7
  10
187611.999
  20
4477273.000
  0
VERTEX
  8
LC_OH_2021_05_O7
  10
187600.999
  20
4476312.000
  0
VERTEX
  8
LC_OH_2021_05_O7
  10
186434.999
  20
4473805.500
  0
VERTEX
  8
LC_OH_2021_05_O7
  10
184819.498
  20
4477124.000
  0
VERTEX
  8
LC_OH_2021_05_O7
  10
184818.498
  20
4477144.000
  0
VERTEX
  8
LC_OH_2021_05_O7
  10
184816.998
  20
4477328.500
  0
VERTEX
  8
LC_OH_2021_05_O7
  10
186209.999
  20
4477791.500
  0
VERTEX
  8
LC_OH_2021_05_O7
  10
186274.999
  20
4477813.000
  0
VERTEX
  8
LC_OH_2021_05_O7
  10
186277.499
  20
4477813.000
  0
VERTEX
  8
LC_OH_2021_05_O7
  10
187501.999
  20
4477317.000
  0
VERTEX
  8
LC_OH_2021_05_O7
  10
187503.499
  20
4477316.500
  0
SEQEND
  8
LC_OH_2021_05_O7
  0
INSERT
  8
FeatureAttribs
  2
FEATURE
  41
1
  42
1
  43
1
  50
0
  10
183523.445
  20
4475431.500
 66
1
  0
ATTRIB
  8
FeatureAttribs
 70
0
  1
PNOA-H_AMS_1956-57_33k_ES_PAN_21mic_H50_0550_fot_000-44358_R.tif
  2
NAME
  10
183523.445
  20
4475431.500
 40
35.10307
  0
SEQEND
  0
POLYLINE
  8
LC_OH_2021_05_O7
  70
1
  66
1
  0
VERTEX
  8
LC_OH_2021_05_O7
  10
183295.998
  20
4477941.000
  0
VERTEX
  8
LC_OH_2021_05_O7
  10
184816.998
  20
4477328.000
  0
VERTEX
  8
LC_OH_2021_05_O7
  10
184818.998
  20
4477144.000
  0
VERTEX
  8
LC_OH_2021_05_O7
  10
184818.998
  20
4477125.500
  0
VERTEX
  8
LC_OH_2021_05_O7
  10
184816.998
  20
4477119.000
  0
VERTEX
  8
LC_OH_2021_05_O7
  10
183443.998
  20
4472922.000
  0
VERTEX
  8
LC_OH_2021_05_O7
  10
182224.498
  20
4477544.500
  0
VERTEX
  8
LC_OH_2021_05_O7
  10
182224.498
  20
4477545.500
  0
VERTEX
  8
LC_OH_2021_05_O7
  10
183294.498
  20
4477940.500
  0
VERTEX
  8
LC_OH_2021_05_O7
  10
183295.998
  20
4477941.000
  0
SEQEND
  8
LC_OH_2021_05_O7
  0
INSERT
  8
FeatureAttribs
  2
FEATURE
  41
1
  42
1
  43
1
  50
0
  10
201042.071
  20
4475810.522
 66
1
  0
ATTRIB
  8
FeatureAttribs
 70
0
  1
PNOA-H_AMS_1956-57_33k_ES_PAN_21mic_H50_0551_fot_000-44351_R.tif
  2
NAME
  10
201042.071
  20
4475810.522
 40
35.10307
  0
SEQEND
  0
POLYLINE
  8
LC_OH_2021_05_O7
  70
1
  66
1
  0
VERTEX
  8
LC_OH_2021_05_O7
  10
201155.142
  20
4477152.512
  0
VERTEX
  8
LC_OH_2021_05_O7
  10
201082.623
  20
4475333.428
  0
VERTEX
  8
LC_OH_2021_05_O7
  10
201048.158
  20
4474468.532
  0
VERTEX
  8
LC_OH_2021_05_O7
  10
200928.999
  20
4474823.000
  0
VERTEX
  8
LC_OH_2021_05_O7
  10
201069.999
  20
4477140.500
  0
SEQEND
  8
LC_OH_2021_05_O7
  0
INSERT
  8
FeatureAttribs
  2
FEATURE
  41
1
  42
1
  43
1
  50
0
  10
173248.344
  20
4473147.995
 66
1
  0
ATTRIB
  8
FeatureAttribs
 70
0
  1
PNOA-H_AMS_1956-57_33k_ES_PAN_21mic_H50_0573_fot_71A-22085_W.tif
  2
NAME
  10
173248.344
  20
4473147.995
 40
35.10307
  0
SEQEND
  0
POLYLINE
  8
LC_OH_2021_05_O7
  70
1
  66
1
  0
VERTEX
  8
LC_OH_2021_05_O7
  10
173922.374
  20
4471830.158
  0
VERTEX
  8
LC_OH_2021_05_O7
  10
172574.315
  20
4471888.620
  0
VERTEX
  8
LC_OH_2021_05_O7
  10
172675.205
  20
4474201.907
  0
VERTEX
  8
LC_OH_2021_05_O7
  10
172686.721
  20
4474465.831
  0
VERTEX
  8
LC_OH_2021_05_O7
  10
172681.998
  20
4474299.500
  0
VERTEX
  8
LC_OH_2021_05_O7
  10
172874.998
  20
4474280.500
  0
VERTEX
  8
LC_OH_2021_05_O7
  10
173166.998
  20
4474055.000
  0
VERTEX
  8
LC_OH_2021_05_O7
  10
173167.498
  20
4474054.000
  0
VERTEX
  8
LC_OH_2021_05_O7
  10
173833.498
  20
4473540.500
  0
SEQEND
  8
LC_OH_2021_05_O7
  0
ENDSEC
  0
EOF
