  0
SECTION
  2
HEADER
  9
$ACADVER
  1
AC1009
  9
$LUNITS
  70
2
  9
$LIMMIN
  10
371131.527
  20
4483931.991
  9
$LIMMAX
  10
399626.890
  20
4502866.888
  9
$EXTMIN
  10
371131.527
  20
4483931.991
  9
$EXTMAX
  10
399626.890
  20
4502866.888
  999
Created by Global Mapper
  999
Projection: UTM
  999
Datum: ETRS89
  999
Ground Units: meters
  999
ZONE: 30
  0
ENDSEC
  0
SECTION
  2
TABLES
  0
ENDSEC
  0
SECTION
  2
BLOCKS
  0
BLOCK
  8
FeatureAttribs
  70
0
  2
FEATURE
  3
FEATURE
  10
0.00000000
  20
0.00000000
  0
ATTDEF
  8
FeatureAttribs
  70
0
  1
 
  2
NAME
  3
NAME
  10
0.00000000
  20
0.00000000
  40
1.00000000
  0
ENDBLK
  0
ENDSEC
  0
SECTION
  2
ENTITIES
  0
INSERT
  8
FeatureAttribs
  2
FEATURE
  41
1
  42
1
  43
1
  50
0
  10
371987.957
  20
4492443.750
 66
1
  0
ATTRIB
  8
FeatureAttribs
 70
0
  1
PNOA-H_AMS_1956-57_33k_ES_PAN_21mic_H50_0532_fot_000-44306_R.tif
  2
NAME
  10
371987.957
  20
4492443.750
 40
34.21281
  0
SEQEND
  0
POLYLINE
  8
LC_OH_2021_05_O7
  70
1
  66
1
  0
VERTEX
  8
LC_OH_2021_05_O7
  10
371286.579
  20
4493350.492
  0
VERTEX
  8
LC_OH_2021_05_O7
  10
371815.506
  20
4493409.000
  0
VERTEX
  8
LC_OH_2021_05_O7
  10
371820.006
  20
4493409.500
  0
VERTEX
  8
LC_OH_2021_05_O7
  10
372956.006
  20
4493534.500
  0
VERTEX
  8
LC_OH_2021_05_O7
  10
373240.006
  20
4493352.500
  0
VERTEX
  8
LC_OH_2021_05_O7
  10
373222.506
  20
4491353.000
  0
VERTEX
  8
LC_OH_2021_05_O7
  10
371256.329
  20
4491598.721
  0
SEQEND
  8
LC_OH_2021_05_O7
  0
INSERT
  8
FeatureAttribs
  2
FEATURE
  41
1
  42
1
  43
1
  50
0
  10
379275.092
  20
4491496.248
 66
1
  0
ATTRIB
  8
FeatureAttribs
 70
0
  1
PNOA-H_AMS_1956-57_33k_ES_PAN_21mic_H50_0532_fot_000-44309_R.tif
  2
NAME
  10
379275.092
  20
4491496.248
 40
34.21281
  0
SEQEND
  0
POLYLINE
  8
LC_OH_2021_05_O7
  70
1
  66
1
  0
VERTEX
  8
LC_OH_2021_05_O7
  10
378887.507
  20
4489918.500
  0
VERTEX
  8
LC_OH_2021_05_O7
  10
378731.507
  20
4489719.000
  0
VERTEX
  8
LC_OH_2021_05_O7
  10
378156.007
  20
4493103.000
  0
VERTEX
  8
LC_OH_2021_05_O7
  10
378160.507
  20
4493251.500
  0
VERTEX
  8
LC_OH_2021_05_O7
  10
378191.007
  20
4493273.500
  0
VERTEX
  8
LC_OH_2021_05_O7
  10
378205.507
  20
4493273.500
  0
VERTEX
  8
LC_OH_2021_05_O7
  10
380722.507
  20
4493189.000
  0
VERTEX
  8
LC_OH_2021_05_O7
  10
380679.007
  20
4492210.000
  0
VERTEX
  8
LC_OH_2021_05_O7
  10
378888.007
  20
4489919.500
  0
VERTEX
  8
LC_OH_2021_05_O7
  10
378887.507
  20
4489918.500
  0
SEQEND
  8
LC_OH_2021_05_O7
  0
INSERT
  8
FeatureAttribs
  2
FEATURE
  41
1
  42
1
  43
1
  50
0
  10
381884.573
  20
4491488.999
 66
1
  0
ATTRIB
  8
FeatureAttribs
 70
0
  1
PNOA-H_AMS_1956-57_33k_ES_PAN_21mic_H50_0532_fot_000-44310_R.tif
  2
NAME
  10
381884.573
  20
4491488.999
 40
34.21281
  0
SEQEND
  0
POLYLINE
  8
LC_OH_2021_05_O7
  70
1
  66
1
  0
VERTEX
  8
LC_OH_2021_05_O7
  10
381727.507
  20
4489918.500
  0
VERTEX
  8
LC_OH_2021_05_O7
  10
381610.507
  20
4489749.000
  0
VERTEX
  8
LC_OH_2021_05_O7
  10
381608.007
  20
4489746.000
  0
VERTEX
  8
LC_OH_2021_05_O7
  10
381607.007
  20
4489747.000
  0
VERTEX
  8
LC_OH_2021_05_O7
  10
380679.007
  20
4492210.500
  0
VERTEX
  8
LC_OH_2021_05_O7
  10
380722.507
  20
4493189.000
  0
VERTEX
  8
LC_OH_2021_05_O7
  10
380786.507
  20
4493232.000
  0
VERTEX
  8
LC_OH_2021_05_O7
  10
383265.507
  20
4493116.500
  0
VERTEX
  8
LC_OH_2021_05_O7
  10
383226.507
  20
4492077.000
  0
VERTEX
  8
LC_OH_2021_05_O7
  10
381728.507
  20
4489919.000
  0
VERTEX
  8
LC_OH_2021_05_O7
  10
381727.507
  20
4489918.500
  0
SEQEND
  8
LC_OH_2021_05_O7
  0
INSERT
  8
FeatureAttribs
  2
FEATURE
  41
1
  42
1
  43
1
  50
0
  10
384504.929
  20
4491479.749
 66
1
  0
ATTRIB
  8
FeatureAttribs
 70
0
  1
PNOA-H_AMS_1956-57_33k_ES_PAN_21mic_H50_0532_fot_000-44311_R.tif
  2
NAME
  10
384504.929
  20
4491479.749
 40
34.21281
  0
SEQEND
  0
POLYLINE
  8
LC_OH_2021_05_O7
  70
1
  66
1
  0
VERTEX
  8
LC_OH_2021_05_O7
  10
385500.008
  20
4493082.833
  0
VERTEX
  8
LC_OH_2021_05_O7
  10
385500.008
  20
4491355.781
  0
VERTEX
  8
LC_OH_2021_05_O7
  10
384428.007
  20
4489756.000
  0
VERTEX
  8
LC_OH_2021_05_O7
  10
384426.007
  20
4489755.000
  0
VERTEX
  8
LC_OH_2021_05_O7
  10
384324.507
  20
4489762.500
  0
VERTEX
  8
LC_OH_2021_05_O7
  10
383226.507
  20
4492077.000
  0
VERTEX
  8
LC_OH_2021_05_O7
  10
383265.507
  20
4493117.000
  0
VERTEX
  8
LC_OH_2021_05_O7
  10
383398.507
  20
4493203.500
  0
VERTEX
  8
LC_OH_2021_05_O7
  10
383399.007
  20
4493204.500
  0
VERTEX
  8
LC_OH_2021_05_O7
  10
385500.008
  20
4493082.833
  0
SEQEND
  8
LC_OH_2021_05_O7
  0
INSERT
  8
FeatureAttribs
  2
FEATURE
  41
1
  42
1
  43
1
  50
0
  10
373908.031
  20
4491588.249
 66
1
  0
ATTRIB
  8
FeatureAttribs
 70
0
  1
PNOA-H_AMS_1956-57_33k_ES_PAN_21mic_H50_0532_fot_000-44307_R.tif
  2
NAME
  10
373908.031
  20
4491588.249
 40
34.21281
  0
SEQEND
  0
POLYLINE
  8
LC_OH_2021_05_O7
  70
1
  66
1
  0
VERTEX
  8
LC_OH_2021_05_O7
  10
373460.506
  20
4489918.500
  0
VERTEX
  8
LC_OH_2021_05_O7
  10
373376.506
  20
4489793.500
  0
VERTEX
  8
LC_OH_2021_05_O7
  10
373374.506
  20
4489792.500
  0
VERTEX
  8
LC_OH_2021_05_O7
  10
373222.506
  20
4491350.000
  0
VERTEX
  8
LC_OH_2021_05_O7
  10
373240.006
  20
4493352.500
  0
VERTEX
  8
LC_OH_2021_05_O7
  10
375518.506
  20
4493384.000
  0
VERTEX
  8
LC_OH_2021_05_O7
  10
375623.506
  20
4493305.500
  0
VERTEX
  8
LC_OH_2021_05_O7
  10
375621.006
  20
4493108.000
  0
VERTEX
  8
LC_OH_2021_05_O7
  10
373461.006
  20
4489919.500
  0
VERTEX
  8
LC_OH_2021_05_O7
  10
373460.506
  20
4489918.500
  0
SEQEND
  8
LC_OH_2021_05_O7
  0
INSERT
  8
FeatureAttribs
  2
FEATURE
  41
1
  42
1
  43
1
  50
0
  10
376504.490
  20
4491499.499
 66
1
  0
ATTRIB
  8
FeatureAttribs
 70
0
  1
PNOA-H_AMS_1956-57_33k_ES_PAN_21mic_H50_0532_fot_000-44308_R.tif
  2
NAME
  10
376504.490
  20
4491499.499
 40
34.21281
  0
SEQEND
  0
POLYLINE
  8
LC_OH_2021_05_O7
  70
1
  66
1
  0
VERTEX
  8
LC_OH_2021_05_O7
  10
377967.507
  20
4493255.500
  0
VERTEX
  8
LC_OH_2021_05_O7
  10
378160.507
  20
4493251.500
  0
VERTEX
  8
LC_OH_2021_05_O7
  10
378156.007
  20
4493104.500
  0
VERTEX
  8
LC_OH_2021_05_O7
  10
376232.506
  20
4489694.000
  0
VERTEX
  8
LC_OH_2021_05_O7
  10
375908.006
  20
4489737.500
  0
VERTEX
  8
LC_OH_2021_05_O7
  10
375621.506
  20
4493106.500
  0
VERTEX
  8
LC_OH_2021_05_O7
  10
375623.506
  20
4493305.000
  0
VERTEX
  8
LC_OH_2021_05_O7
  10
377954.007
  20
4493255.500
  0
VERTEX
  8
LC_OH_2021_05_O7
  10
377967.507
  20
4493255.500
  0
SEQEND
  8
LC_OH_2021_05_O7
  0
INSERT
  8
FeatureAttribs
  2
FEATURE
  41
1
  42
1
  43
1
  50
0
  10
371665.815
  20
4499541.308
 66
1
  0
ATTRIB
  8
FeatureAttribs
 70
0
  1
PNOA-H_AMS_1956-57_33k_ES_PAN_21mic_H50_0531_fot_63B-34862_W.tif
  2
NAME
  10
371665.815
  20
4499541.308
 40
34.21281
  0
SEQEND
  0
POLYLINE
  8
LC_OH_2021_05_O7
  70
1
  66
1
  0
VERTEX
  8
LC_OH_2021_05_O7
  10
371431.311
  20
4501723.932
  0
VERTEX
  8
LC_OH_2021_05_O7
  10
371576.006
  20
4501736.000
  0
VERTEX
  8
LC_OH_2021_05_O7
  10
371976.006
  20
4501516.500
  0
VERTEX
  8
LC_OH_2021_05_O7
  10
371760.506
  20
4497452.500
  0
VERTEX
  8
LC_OH_2021_05_O7
  10
371355.624
  20
4497346.616
  0
VERTEX
  8
LC_OH_2021_05_O7
  10
371371.091
  20
4498241.528
  0
VERTEX
  8
LC_OH_2021_05_O7
  10
371411.078
  20
4500554.204
  0
SEQEND
  8
LC_OH_2021_05_O7
  0
INSERT
  8
FeatureAttribs
  2
FEATURE
  41
1
  42
1
  43
1
  50
0
  10
385036.021
  20
4499066.787
 66
1
  0
ATTRIB
  8
FeatureAttribs
 70
0
  1
PNOA-H_AMS_1956-57_33k_ES_PAN_21mic_H50_0532_fot_63B-34856_W.tif
  2
NAME
  10
385036.021
  20
4499066.787
 40
34.21281
  0
SEQEND
  0
POLYLINE
  8
LC_OH_2021_05_O7
  70
1
  66
1
  0
VERTEX
  8
LC_OH_2021_05_O7
  10
385640.008
  20
4501372.944
  0
VERTEX
  8
LC_OH_2021_05_O7
  10
385640.008
  20
4497910.000
  0
VERTEX
  8
LC_OH_2021_05_O7
  10
385570.008
  20
4497910.000
  0
VERTEX
  8
LC_OH_2021_05_O7
  10
385570.008
  20
4496731.577
  0
VERTEX
  8
LC_OH_2021_05_O7
  10
384373.007
  20
4497039.500
  0
VERTEX
  8
LC_OH_2021_05_O7
  10
384491.007
  20
4501093.000
  0
VERTEX
  8
LC_OH_2021_05_O7
  10
384491.507
  20
4501100.500
  0
VERTEX
  8
LC_OH_2021_05_O7
  10
384492.507
  20
4501101.000
  0
VERTEX
  8
LC_OH_2021_05_O7
  10
385523.508
  20
4501402.000
  0
VERTEX
  8
LC_OH_2021_05_O7
  10
385640.008
  20
4501372.944
  0
SEQEND
  8
LC_OH_2021_05_O7
  0
INSERT
  8
FeatureAttribs
  2
FEATURE
  41
1
  42
1
  43
1
  50
0
  10
380710.880
  20
4499091.499
 66
1
  0
ATTRIB
  8
FeatureAttribs
 70
0
  1
PNOA-H_AMS_1956-57_33k_ES_PAN_21mic_H50_0532_fot_63B-34858_W.tif
  2
NAME
  10
380710.880
  20
4499091.499
 40
34.21281
  0
SEQEND
  0
POLYLINE
  8
LC_OH_2021_05_O7
  70
1
  66
1
  0
VERTEX
  8
LC_OH_2021_05_O7
  10
380067.007
  20
4501480.000
  0
VERTEX
  8
LC_OH_2021_05_O7
  10
382045.007
  20
4501169.500
  0
VERTEX
  8
LC_OH_2021_05_O7
  10
381866.507
  20
4497085.500
  0
VERTEX
  8
LC_OH_2021_05_O7
  10
380785.507
  20
4496703.000
  0
VERTEX
  8
LC_OH_2021_05_O7
  10
379359.507
  20
4497141.500
  0
VERTEX
  8
LC_OH_2021_05_O7
  10
379589.007
  20
4501283.500
  0
VERTEX
  8
LC_OH_2021_05_O7
  10
380066.007
  20
4501479.500
  0
VERTEX
  8
LC_OH_2021_05_O7
  10
380067.007
  20
4501480.000
  0
SEQEND
  8
LC_OH_2021_05_O7
  0
INSERT
  8
FeatureAttribs
  2
FEATURE
  41
1
  42
1
  43
1
  50
0
  10
383191.610
  20
4499035.749
 66
1
  0
ATTRIB
  8
FeatureAttribs
 70
0
  1
PNOA-H_AMS_1956-57_33k_ES_PAN_21mic_H50_0532_fot_63B-34857_W.tif
  2
NAME
  10
383191.610
  20
4499035.749
 40
34.21281
  0
SEQEND
  0
POLYLINE
  8
LC_OH_2021_05_O7
  70
1
  66
1
  0
VERTEX
  8
LC_OH_2021_05_O7
  10
382044.507
  20
4501160.500
  0
VERTEX
  8
LC_OH_2021_05_O7
  10
382045.007
  20
4501169.500
  0
VERTEX
  8
LC_OH_2021_05_O7
  10
382061.007
  20
4501175.000
  0
VERTEX
  8
LC_OH_2021_05_O7
  10
382062.007
  20
4501175.500
  0
VERTEX
  8
LC_OH_2021_05_O7
  10
382808.007
  20
4501430.500
  0
VERTEX
  8
LC_OH_2021_05_O7
  10
384491.507
  20
4501100.500
  0
VERTEX
  8
LC_OH_2021_05_O7
  10
384373.007
  20
4497039.500
  0
VERTEX
  8
LC_OH_2021_05_O7
  10
383379.007
  20
4496641.000
  0
VERTEX
  8
LC_OH_2021_05_O7
  10
381867.007
  20
4497086.000
  0
VERTEX
  8
LC_OH_2021_05_O7
  10
382044.507
  20
4501160.500
  0
SEQEND
  8
LC_OH_2021_05_O7
  0
INSERT
  8
FeatureAttribs
  2
FEATURE
  41
1
  42
1
  43
1
  50
0
  10
385102.792
  20
4490170.736
 66
1
  0
ATTRIB
  8
FeatureAttribs
 70
0
  1
PNOA-H_AMS_1956-57_33k_ES_PAN_21mic_H50_0532_fot_65B-42112_W.tif
  2
NAME
  10
385102.792
  20
4490170.736
 40
34.21281
  0
SEQEND
  0
POLYLINE
  8
LC_OH_2021_05_O7
  70
1
  66
1
  0
VERTEX
  8
LC_OH_2021_05_O7
  10
385500.008
  20
4491356.455
  0
VERTEX
  8
LC_OH_2021_05_O7
  10
385500.008
  20
4488985.021
  0
VERTEX
  8
LC_OH_2021_05_O7
  10
384427.007
  20
4489755.000
  0
VERTEX
  8
LC_OH_2021_05_O7
  10
385500.008
  20
4491356.455
  0
SEQEND
  8
LC_OH_2021_05_O7
  0
INSERT
  8
FeatureAttribs
  2
FEATURE
  41
1
  42
1
  43
1
  50
0
  10
383058.777
  20
4490552.249
 66
1
  0
ATTRIB
  8
FeatureAttribs
 70
0
  1
PNOA-H_AMS_1956-57_33k_ES_PAN_21mic_H50_0532_fot_65B-42113_W.tif
  2
NAME
  10
383058.777
  20
4490552.249
 40
34.21281
  0
SEQEND
  0
POLYLINE
  8
LC_OH_2021_05_O7
  70
1
  66
1
  0
VERTEX
  8
LC_OH_2021_05_O7
  10
381607.507
  20
4489745.000
  0
VERTEX
  8
LC_OH_2021_05_O7
  10
381609.007
  20
4489748.000
  0
VERTEX
  8
LC_OH_2021_05_O7
  10
383226.007
  20
4492077.000
  0
VERTEX
  8
LC_OH_2021_05_O7
  10
383227.007
  20
4492077.000
  0
VERTEX
  8
LC_OH_2021_05_O7
  10
383229.007
  20
4492073.000
  0
VERTEX
  8
LC_OH_2021_05_O7
  10
384111.507
  20
4490212.000
  0
VERTEX
  8
LC_OH_2021_05_O7
  10
384111.507
  20
4490211.000
  0
VERTEX
  8
LC_OH_2021_05_O7
  10
384324.507
  20
4489762.500
  0
VERTEX
  8
LC_OH_2021_05_O7
  10
382905.007
  20
4489027.500
  0
VERTEX
  8
LC_OH_2021_05_O7
  10
381607.007
  20
4489734.500
  0
VERTEX
  8
LC_OH_2021_05_O7
  10
381607.507
  20
4489745.000
  0
SEQEND
  8
LC_OH_2021_05_O7
  0
INSERT
  8
FeatureAttribs
  2
FEATURE
  41
1
  42
1
  43
1
  50
0
  10
378198.624
  20
4499141.249
 66
1
  0
ATTRIB
  8
FeatureAttribs
 70
0
  1
PNOA-H_AMS_1956-57_33k_ES_PAN_21mic_H50_0532_fot_63B-34859_W.tif
  2
NAME
  10
378198.624
  20
4499141.249
 40
34.21281
  0
SEQEND
  0
POLYLINE
  8
LC_OH_2021_05_O7
  70
1
  66
1
  0
VERTEX
  8
LC_OH_2021_05_O7
  10
377967.507
  20
4501436.000
  0
VERTEX
  8
LC_OH_2021_05_O7
  10
379589.007
  20
4501283.000
  0
VERTEX
  8
LC_OH_2021_05_O7
  10
379359.507
  20
4497141.500
  0
VERTEX
  8
LC_OH_2021_05_O7
  10
378212.507
  20
4496779.000
  0
VERTEX
  8
LC_OH_2021_05_O7
  10
376834.506
  20
4497230.500
  0
VERTEX
  8
LC_OH_2021_05_O7
  10
377036.006
  20
4501397.000
  0
VERTEX
  8
LC_OH_2021_05_O7
  10
377256.006
  20
4501503.500
  0
VERTEX
  8
LC_OH_2021_05_O7
  10
377962.507
  20
4501436.500
  0
VERTEX
  8
LC_OH_2021_05_O7
  10
377967.507
  20
4501436.000
  0
SEQEND
  8
LC_OH_2021_05_O7
  0
INSERT
  8
FeatureAttribs
  2
FEATURE
  41
1
  42
1
  43
1
  50
0
  10
375653.748
  20
4499214.749
 66
1
  0
ATTRIB
  8
FeatureAttribs
 70
0
  1
PNOA-H_AMS_1956-57_33k_ES_PAN_21mic_H50_0532_fot_63B-34860_W.tif
  2
NAME
  10
375653.748
  20
4499214.749
 40
34.21281
  0
SEQEND
  0
POLYLINE
  8
LC_OH_2021_05_O7
  70
1
  66
1
  0
VERTEX
  8
LC_OH_2021_05_O7
  10
375919.506
  20
4501460.500
  0
VERTEX
  8
LC_OH_2021_05_O7
  10
377036.006
  20
4501397.000
  0
VERTEX
  8
LC_OH_2021_05_O7
  10
377036.006
  20
4501392.500
  0
VERTEX
  8
LC_OH_2021_05_O7
  10
376835.006
  20
4497231.500
  0
VERTEX
  8
LC_OH_2021_05_O7
  10
376834.506
  20
4497230.000
  0
VERTEX
  8
LC_OH_2021_05_O7
  10
376830.006
  20
4497228.500
  0
VERTEX
  8
LC_OH_2021_05_O7
  10
375724.506
  20
4496886.500
  0
VERTEX
  8
LC_OH_2021_05_O7
  10
375703.506
  20
4496892.500
  0
VERTEX
  8
LC_OH_2021_05_O7
  10
374303.006
  20
4497348.000
  0
VERTEX
  8
LC_OH_2021_05_O7
  10
374296.006
  20
4497350.500
  0
VERTEX
  8
LC_OH_2021_05_O7
  10
374296.006
  20
4497361.500
  0
VERTEX
  8
LC_OH_2021_05_O7
  10
374478.006
  20
4501543.000
  0
VERTEX
  8
LC_OH_2021_05_O7
  10
375916.506
  20
4501460.500
  0
VERTEX
  8
LC_OH_2021_05_O7
  10
375919.506
  20
4501460.500
  0
SEQEND
  8
LC_OH_2021_05_O7
  0
INSERT
  8
FeatureAttribs
  2
FEATURE
  41
1
  42
1
  43
1
  50
0
  10
375058.385
  20
4491207.499
 66
1
  0
ATTRIB
  8
FeatureAttribs
 70
0
  1
PNOA-H_AMS_1956-57_33k_ES_PAN_21mic_H50_0532_fot_65B-42116_W.tif
  2
NAME
  10
375058.385
  20
4491207.499
 40
34.21281
  0
SEQEND
  0
POLYLINE
  8
LC_OH_2021_05_O7
  70
1
  66
1
  0
VERTEX
  8
LC_OH_2021_05_O7
  10
375621.006
  20
4493109.000
  0
VERTEX
  8
LC_OH_2021_05_O7
  10
375623.506
  20
4493089.000
  0
VERTEX
  8
LC_OH_2021_05_O7
  10
375908.006
  20
4489737.000
  0
VERTEX
  8
LC_OH_2021_05_O7
  10
374938.006
  20
4489306.000
  0
VERTEX
  8
LC_OH_2021_05_O7
  10
373375.006
  20
4489749.000
  0
VERTEX
  8
LC_OH_2021_05_O7
  10
373375.006
  20
4489792.500
  0
VERTEX
  8
LC_OH_2021_05_O7
  10
375621.006
  20
4493108.000
  0
VERTEX
  8
LC_OH_2021_05_O7
  10
375621.006
  20
4493109.000
  0
SEQEND
  8
LC_OH_2021_05_O7
  0
INSERT
  8
FeatureAttribs
  2
FEATURE
  41
1
  42
1
  43
1
  50
0
  10
372026.317
  20
4490476.500
 66
1
  0
ATTRIB
  8
FeatureAttribs
 70
0
  1
PNOA-H_AMS_1956-57_33k_ES_PAN_21mic_H50_0532_fot_65B-42117_W.tif
  2
NAME
  10
372026.317
  20
4490476.500
 40
34.21281
  0
SEQEND
  0
POLYLINE
  8
LC_OH_2021_05_O7
  70
1
  66
1
  0
VERTEX
  8
LC_OH_2021_05_O7
  10
371256.329
  20
4491598.721
  0
VERTEX
  8
LC_OH_2021_05_O7
  10
373222.506
  20
4491353.000
  0
VERTEX
  8
LC_OH_2021_05_O7
  10
373375.006
  20
4489792.500
  0
VERTEX
  8
LC_OH_2021_05_O7
  10
373374.506
  20
4489748.500
  0
VERTEX
  8
LC_OH_2021_05_O7
  10
372314.506
  20
4489296.000
  0
VERTEX
  8
LC_OH_2021_05_O7
  10
371221.865
  20
4489602.226
  0
VERTEX
  8
LC_OH_2021_05_O7
  10
371251.232
  20
4491303.546
  0
SEQEND
  8
LC_OH_2021_05_O7
  0
INSERT
  8
FeatureAttribs
  2
FEATURE
  41
1
  42
1
  43
1
  50
0
  10
373118.280
  20
4499274.999
 66
1
  0
ATTRIB
  8
FeatureAttribs
 70
0
  1
PNOA-H_AMS_1956-57_33k_ES_PAN_21mic_H50_0532_fot_63B-34861_W.tif
  2
NAME
  10
373118.280
  20
4499274.999
 40
34.21281
  0
SEQEND
  0
POLYLINE
  8
LC_OH_2021_05_O7
  70
1
  66
1
  0
VERTEX
  8
LC_OH_2021_05_O7
  10
371823.006
  20
4498625.500
  0
VERTEX
  8
LC_OH_2021_05_O7
  10
371823.006
  20
4498635.000
  0
VERTEX
  8
LC_OH_2021_05_O7
  10
371976.006
  20
4501516.500
  0
VERTEX
  8
LC_OH_2021_05_O7
  10
374432.506
  20
4501562.500
  0
VERTEX
  8
LC_OH_2021_05_O7
  10
374446.506
  20
4501562.500
  0
VERTEX
  8
LC_OH_2021_05_O7
  10
374478.006
  20
4501543.000
  0
VERTEX
  8
LC_OH_2021_05_O7
  10
374296.006
  20
4497350.500
  0
VERTEX
  8
LC_OH_2021_05_O7
  10
373053.506
  20
4496987.500
  0
VERTEX
  8
LC_OH_2021_05_O7
  10
371760.506
  20
4497452.500
  0
SEQEND
  8
LC_OH_2021_05_O7
  0
INSERT
  8
FeatureAttribs
  2
FEATURE
  41
1
  42
1
  43
1
  50
0
  10
380360.847
  20
4490638.250
 66
1
  0
ATTRIB
  8
FeatureAttribs
 70
0
  1
PNOA-H_AMS_1956-57_33k_ES_PAN_21mic_H50_0532_fot_65B-42114_W.tif
  2
NAME
  10
380360.847
  20
4490638.250
 40
34.21281
  0
SEQEND
  0
POLYLINE
  8
LC_OH_2021_05_O7
  70
1
  66
1
  0
VERTEX
  8
LC_OH_2021_05_O7
  10
380679.007
  20
4492210.500
  0
VERTEX
  8
LC_OH_2021_05_O7
  10
381608.007
  20
4489746.000
  0
VERTEX
  8
LC_OH_2021_05_O7
  10
381607.007
  20
4489734.500
  0
VERTEX
  8
LC_OH_2021_05_O7
  10
380267.507
  20
4489066.000
  0
VERTEX
  8
LC_OH_2021_05_O7
  10
380252.007
  20
4489071.500
  0
VERTEX
  8
LC_OH_2021_05_O7
  10
378730.507
  20
4489709.000
  0
VERTEX
  8
LC_OH_2021_05_O7
  10
378731.507
  20
4489719.000
  0
VERTEX
  8
LC_OH_2021_05_O7
  10
378743.007
  20
4489734.000
  0
VERTEX
  8
LC_OH_2021_05_O7
  10
380678.507
  20
4492209.500
  0
VERTEX
  8
LC_OH_2021_05_O7
  10
380679.007
  20
4492210.500
  0
SEQEND
  8
LC_OH_2021_05_O7
  0
INSERT
  8
FeatureAttribs
  2
FEATURE
  41
1
  42
1
  43
1
  50
0
  10
377771.813
  20
4491153.998
 66
1
  0
ATTRIB
  8
FeatureAttribs
 70
0
  1
PNOA-H_AMS_1956-57_33k_ES_PAN_21mic_H50_0532_fot_65B-42115_W.tif
  2
NAME
  10
377771.813
  20
4491153.998
 40
34.21281
  0
SEQEND
  0
POLYLINE
  8
LC_OH_2021_05_O7
  70
1
  66
1
  0
VERTEX
  8
LC_OH_2021_05_O7
  10
378155.507
  20
4493104.500
  0
VERTEX
  8
LC_OH_2021_05_O7
  10
378729.007
  20
4489736.500
  0
VERTEX
  8
LC_OH_2021_05_O7
  10
378731.507
  20
4489721.500
  0
VERTEX
  8
LC_OH_2021_05_O7
  10
378730.507
  20
4489709.000
  0
VERTEX
  8
LC_OH_2021_05_O7
  10
377632.507
  20
4489203.500
  0
VERTEX
  8
LC_OH_2021_05_O7
  10
376232.506
  20
4489694.000
  0
VERTEX
  8
LC_OH_2021_05_O7
  10
378155.507
  20
4493103.500
  0
VERTEX
  8
LC_OH_2021_05_O7
  10
378155.507
  20
4493104.500
  0
SEQEND
  8
LC_OH_2021_05_O7
  0
INSERT
  8
FeatureAttribs
  2
FEATURE
  41
1
  42
1
  43
1
  50
0
  10
379494.907
  20
4495165.249
 66
1
  0
ATTRIB
  8
FeatureAttribs
 70
0
  1
PNOA-H_AMS_1956-57_33k_ES_PAN_21mic_H50_0532_fot_64B-11933_E.tif
  2
NAME
  10
379494.907
  20
4495165.249
 40
34.21281
  0
SEQEND
  0
POLYLINE
  8
LC_OH_2021_05_O7
  70
1
  66
1
  0
VERTEX
  8
LC_OH_2021_05_O7
  10
380015.507
  20
4496939.500
  0
VERTEX
  8
LC_OH_2021_05_O7
  10
380786.007
  20
4496703.000
  0
VERTEX
  8
LC_OH_2021_05_O7
  10
380787.007
  20
4493232.000
  0
VERTEX
  8
LC_OH_2021_05_O7
  10
380723.507
  20
4493189.000
  0
VERTEX
  8
LC_OH_2021_05_O7
  10
380709.507
  20
4493189.000
  0
VERTEX
  8
LC_OH_2021_05_O7
  10
378192.007
  20
4493273.500
  0
VERTEX
  8
LC_OH_2021_05_O7
  10
378213.007
  20
4496779.000
  0
VERTEX
  8
LC_OH_2021_05_O7
  10
379359.007
  20
4497141.500
  0
VERTEX
  8
LC_OH_2021_05_O7
  10
380014.007
  20
4496940.000
  0
VERTEX
  8
LC_OH_2021_05_O7
  10
380015.507
  20
4496939.500
  0
SEQEND
  8
LC_OH_2021_05_O7
  0
INSERT
  8
FeatureAttribs
  2
FEATURE
  41
1
  42
1
  43
1
  50
0
  10
374320.394
  20
4495351.499
 66
1
  0
ATTRIB
  8
FeatureAttribs
 70
0
  1
PNOA-H_AMS_1956-57_33k_ES_PAN_21mic_H50_0532_fot_64B-11931_E.tif
  2
NAME
  10
374320.394
  20
4495351.499
 40
34.21281
  0
SEQEND
  0
POLYLINE
  8
LC_OH_2021_05_O7
  70
1
  66
1
  0
VERTEX
  8
LC_OH_2021_05_O7
  10
374294.506
  20
4497350.500
  0
VERTEX
  8
LC_OH_2021_05_O7
  10
374305.006
  20
4497348.000
  0
VERTEX
  8
LC_OH_2021_05_O7
  10
375723.506
  20
4496886.500
  0
VERTEX
  8
LC_OH_2021_05_O7
  10
375518.006
  20
4493384.000
  0
VERTEX
  8
LC_OH_2021_05_O7
  10
373239.006
  20
4493352.500
  0
VERTEX
  8
LC_OH_2021_05_O7
  10
372955.506
  20
4493534.500
  0
VERTEX
  8
LC_OH_2021_05_O7
  10
373054.006
  20
4496987.500
  0
VERTEX
  8
LC_OH_2021_05_O7
  10
374292.506
  20
4497350.000
  0
VERTEX
  8
LC_OH_2021_05_O7
  10
374294.506
  20
4497350.500
  0
SEQEND
  8
LC_OH_2021_05_O7
  0
INSERT
  8
FeatureAttribs
  2
FEATURE
  41
1
  42
1
  43
1
  50
0
  10
376915.296
  20
4495240.999
 66
1
  0
ATTRIB
  8
FeatureAttribs
 70
0
  1
PNOA-H_AMS_1956-57_33k_ES_PAN_21mic_H50_0532_fot_64B-11932_E.tif
  2
NAME
  10
376915.296
  20
4495240.999
 40
34.21281
  0
SEQEND
  0
POLYLINE
  8
LC_OH_2021_05_O7
  70
1
  66
1
  0
VERTEX
  8
LC_OH_2021_05_O7
  10
375918.506
  20
4496947.000
  0
VERTEX
  8
LC_OH_2021_05_O7
  10
376835.006
  20
4497230.500
  0
VERTEX
  8
LC_OH_2021_05_O7
  10
378213.007
  20
4496779.000
  0
VERTEX
  8
LC_OH_2021_05_O7
  10
378192.007
  20
4493273.500
  0
VERTEX
  8
LC_OH_2021_05_O7
  10
378161.007
  20
4493251.500
  0
VERTEX
  8
LC_OH_2021_05_O7
  10
375623.506
  20
4493305.000
  0
VERTEX
  8
LC_OH_2021_05_O7
  10
375518.006
  20
4493384.000
  0
VERTEX
  8
LC_OH_2021_05_O7
  10
375723.006
  20
4496884.000
  0
VERTEX
  8
LC_OH_2021_05_O7
  10
375724.506
  20
4496887.000
  0
VERTEX
  8
LC_OH_2021_05_O7
  10
375917.006
  20
4496946.500
  0
VERTEX
  8
LC_OH_2021_05_O7
  10
375918.506
  20
4496947.000
  0
SEQEND
  8
LC_OH_2021_05_O7
  0
INSERT
  8
FeatureAttribs
  2
FEATURE
  41
1
  42
1
  43
1
  50
0
  10
384479.364
  20
4495061.396
 66
1
  0
ATTRIB
  8
FeatureAttribs
 70
0
  1
PNOA-H_AMS_1956-57_33k_ES_PAN_21mic_H50_0532_fot_64B-11935_E.tif
  2
NAME
  10
384479.364
  20
4495061.396
 40
34.21281
  0
SEQEND
  0
POLYLINE
  8
LC_OH_2021_05_O7
  70
1
  66
1
  0
VERTEX
  8
LC_OH_2021_05_O7
  10
385500.008
  20
4493083.293
  0
VERTEX
  8
LC_OH_2021_05_O7
  10
383399.507
  20
4493204.500
  0
VERTEX
  8
LC_OH_2021_05_O7
  10
383379.507
  20
4496641.000
  0
VERTEX
  8
LC_OH_2021_05_O7
  10
384371.007
  20
4497039.000
  0
VERTEX
  8
LC_OH_2021_05_O7
  10
384372.007
  20
4497039.500
  0
VERTEX
  8
LC_OH_2021_05_O7
  10
385570.008
  20
4496731.621
  0
VERTEX
  8
LC_OH_2021_05_O7
  10
385570.008
  20
4493280.000
  0
VERTEX
  8
LC_OH_2021_05_O7
  10
385500.008
  20
4493280.000
  0
VERTEX
  8
LC_OH_2021_05_O7
  10
385500.008
  20
4493083.293
  0
SEQEND
  8
LC_OH_2021_05_O7
  0
INSERT
  8
FeatureAttribs
  2
FEATURE
  41
1
  42
1
  43
1
  50
0
  10
371653.157
  20
4495368.748
 66
1
  0
ATTRIB
  8
FeatureAttribs
 70
0
  1
PNOA-H_AMS_1956-57_33k_ES_PAN_21mic_H50_0532_fot_64B-11930_E.tif
  2
NAME
  10
371653.157
  20
4495368.748
 40
34.21281
  0
SEQEND
  0
POLYLINE
  8
LC_OH_2021_05_O7
  70
1
  66
1
  0
VERTEX
  8
LC_OH_2021_05_O7
  10
371355.629
  20
4497346.934
  0
VERTEX
  8
LC_OH_2021_05_O7
  10
371759.006
  20
4497452.500
  0
VERTEX
  8
LC_OH_2021_05_O7
  10
371763.506
  20
4497452.000
  0
VERTEX
  8
LC_OH_2021_05_O7
  10
371821.506
  20
4497430.500
  0
VERTEX
  8
LC_OH_2021_05_O7
  10
371823.506
  20
4497430.000
  0
VERTEX
  8
LC_OH_2021_05_O7
  10
373054.006
  20
4496987.500
  0
VERTEX
  8
LC_OH_2021_05_O7
  10
372955.506
  20
4493534.500
  0
VERTEX
  8
LC_OH_2021_05_O7
  10
371286.577
  20
4493350.375
  0
VERTEX
  8
LC_OH_2021_05_O7
  10
371291.168
  20
4493616.199
  0
VERTEX
  8
LC_OH_2021_05_O7
  10
371331.120
  20
4495928.859
  0
SEQEND
  8
LC_OH_2021_05_O7
  0
INSERT
  8
FeatureAttribs
  2
FEATURE
  41
1
  42
1
  43
1
  50
0
  10
382087.472
  20
4495101.249
 66
1
  0
ATTRIB
  8
FeatureAttribs
 70
0
  1
PNOA-H_AMS_1956-57_33k_ES_PAN_21mic_H50_0532_fot_64B-11934_E.tif
  2
NAME
  10
382087.472
  20
4495101.249
 40
34.21281
  0
SEQEND
  0
POLYLINE
  8
LC_OH_2021_05_O7
  70
1
  66
1
  0
VERTEX
  8
LC_OH_2021_05_O7
  10
382063.507
  20
4497028.000
  0
VERTEX
  8
LC_OH_2021_05_O7
  10
383379.507
  20
4496641.000
  0
VERTEX
  8
LC_OH_2021_05_O7
  10
383399.507
  20
4493204.500
  0
VERTEX
  8
LC_OH_2021_05_O7
  10
383269.007
  20
4493118.500
  0
VERTEX
  8
LC_OH_2021_05_O7
  10
383265.507
  20
4493116.500
  0
VERTEX
  8
LC_OH_2021_05_O7
  10
383260.507
  20
4493116.500
  0
VERTEX
  8
LC_OH_2021_05_O7
  10
380787.007
  20
4493232.000
  0
VERTEX
  8
LC_OH_2021_05_O7
  10
380786.007
  20
4496703.000
  0
VERTEX
  8
LC_OH_2021_05_O7
  10
381866.507
  20
4497086.000
  0
VERTEX
  8
LC_OH_2021_05_O7
  10
382061.007
  20
4497028.500
  0
VERTEX
  8
LC_OH_2021_05_O7
  10
382063.507
  20
4497028.000
  0
SEQEND
  8
LC_OH_2021_05_O7
  0
INSERT
  8
FeatureAttribs
  2
FEATURE
  41
1
  42
1
  43
1
  50
0
  10
373642.998
  20
4487789.999
 66
1
  0
ATTRIB
  8
FeatureAttribs
 70
0
  1
PNOA-H_AMS_1956-57_33k_ES_PAN_21mic_H50_0532_fot_66A-18819_E.tif
  2
NAME
  10
373642.998
  20
4487789.999
 40
34.21281
  0
SEQEND
  0
POLYLINE
  8
LC_OH_2021_05_O7
  70
1
  66
1
  0
VERTEX
  8
LC_OH_2021_05_O7
  10
373373.006
  20
4489748.500
  0
VERTEX
  8
LC_OH_2021_05_O7
  10
373374.506
  20
4489749.000
  0
VERTEX
  8
LC_OH_2021_05_O7
  10
374938.506
  20
4489306.000
  0
VERTEX
  8
LC_OH_2021_05_O7
  10
375004.006
  20
4486229.000
  0
VERTEX
  8
LC_OH_2021_05_O7
  10
372837.506
  20
4485831.000
  0
VERTEX
  8
LC_OH_2021_05_O7
  10
372834.006
  20
4485831.000
  0
VERTEX
  8
LC_OH_2021_05_O7
  10
372819.506
  20
4485840.500
  0
VERTEX
  8
LC_OH_2021_05_O7
  10
372316.506
  20
4486173.000
  0
VERTEX
  8
LC_OH_2021_05_O7
  10
372314.006
  20
4489296.000
  0
SEQEND
  8
LC_OH_2021_05_O7
  0
INSERT
  8
FeatureAttribs
  2
FEATURE
  41
1
  42
1
  43
1
  50
0
  10
381705.914
  20
4487445.998
 66
1
  0
ATTRIB
  8
FeatureAttribs
 70
0
  1
PNOA-H_AMS_1956-57_33k_ES_PAN_21mic_H50_0532_fot_66A-18816_E.tif
  2
NAME
  10
381705.914
  20
4487445.998
 40
34.21281
  0
SEQEND
  0
POLYLINE
  8
LC_OH_2021_05_O7
  70
1
  66
1
  0
VERTEX
  8
LC_OH_2021_05_O7
  10
381606.007
  20
4489734.500
  0
VERTEX
  8
LC_OH_2021_05_O7
  10
381609.007
  20
4489734.000
  0
VERTEX
  8
LC_OH_2021_05_O7
  10
382062.007
  20
4489486.500
  0
VERTEX
  8
LC_OH_2021_05_O7
  10
382063.507
  20
4489486.000
  0
VERTEX
  8
LC_OH_2021_05_O7
  10
382905.007
  20
4489027.500
  0
VERTEX
  8
LC_OH_2021_05_O7
  10
383125.507
  20
4485562.000
  0
VERTEX
  8
LC_OH_2021_05_O7
  10
382020.007
  20
4485157.500
  0
VERTEX
  8
LC_OH_2021_05_O7
  10
380578.507
  20
4485465.000
  0
VERTEX
  8
LC_OH_2021_05_O7
  10
380577.007
  20
4485465.500
  0
VERTEX
  8
LC_OH_2021_05_O7
  10
380575.007
  20
4485488.000
  0
VERTEX
  8
LC_OH_2021_05_O7
  10
380266.507
  20
4489066.000
  0
VERTEX
  8
LC_OH_2021_05_O7
  10
381606.007
  20
4489734.500
  0
SEQEND
  8
LC_OH_2021_05_O7
  0
INSERT
  8
FeatureAttribs
  2
FEATURE
  41
1
  42
1
  43
1
  50
0
  10
371738.212
  20
4487806.898
 66
1
  0
ATTRIB
  8
FeatureAttribs
 70
0
  1
PNOA-H_AMS_1956-57_33k_ES_PAN_21mic_H50_0532_fot_66A-18820_E.tif
  2
NAME
  10
371738.212
  20
4487806.898
 40
34.21281
  0
SEQEND
  0
POLYLINE
  8
LC_OH_2021_05_O7
  70
1
  66
1
  0
VERTEX
  8
LC_OH_2021_05_O7
  10
371221.861
  20
4489601.973
  0
VERTEX
  8
LC_OH_2021_05_O7
  10
371822.506
  20
4489433.500
  0
VERTEX
  8
LC_OH_2021_05_O7
  10
371823.506
  20
4489433.500
  0
VERTEX
  8
LC_OH_2021_05_O7
  10
372314.006
  20
4489296.000
  0
VERTEX
  8
LC_OH_2021_05_O7
  10
372316.506
  20
4486173.500
  0
VERTEX
  8
LC_OH_2021_05_O7
  10
371159.918
  20
4486011.823
  0
VERTEX
  8
LC_OH_2021_05_O7
  10
371171.411
  20
4486678.263
  0
VERTEX
  8
LC_OH_2021_05_O7
  10
371211.313
  20
4488990.900
  0
SEQEND
  8
LC_OH_2021_05_O7
  0
INSERT
  8
FeatureAttribs
  2
FEATURE
  41
1
  42
1
  43
1
  50
0
  10
376344.002
  20
4487423.999
 66
1
  0
ATTRIB
  8
FeatureAttribs
 70
0
  1
PNOA-H_AMS_1956-57_33k_ES_PAN_21mic_H50_0532_fot_66A-18818_E.tif
  2
NAME
  10
376344.002
  20
4487423.999
 40
34.21281
  0
SEQEND
  0
POLYLINE
  8
LC_OH_2021_05_O7
  70
1
  66
1
  0
VERTEX
  8
LC_OH_2021_05_O7
  10
375906.506
  20
4489737.000
  0
VERTEX
  8
LC_OH_2021_05_O7
  10
375916.506
  20
4489736.000
  0
VERTEX
  8
LC_OH_2021_05_O7
  10
375919.506
  20
4489736.000
  0
VERTEX
  8
LC_OH_2021_05_O7
  10
376233.006
  20
4489694.000
  0
VERTEX
  8
LC_OH_2021_05_O7
  10
377632.507
  20
4489203.500
  0
VERTEX
  8
LC_OH_2021_05_O7
  10
377799.007
  20
4485349.500
  0
VERTEX
  8
LC_OH_2021_05_O7
  10
376783.006
  20
4485111.000
  0
VERTEX
  8
LC_OH_2021_05_O7
  10
376780.006
  20
4485111.000
  0
VERTEX
  8
LC_OH_2021_05_O7
  10
376700.506
  20
4485161.000
  0
VERTEX
  8
LC_OH_2021_05_O7
  10
375014.506
  20
4486222.500
  0
VERTEX
  8
LC_OH_2021_05_O7
  10
375005.006
  20
4486228.500
  0
VERTEX
  8
LC_OH_2021_05_O7
  10
375004.006
  20
4486231.000
  0
VERTEX
  8
LC_OH_2021_05_O7
  10
374938.506
  20
4489306.000
  0
VERTEX
  8
LC_OH_2021_05_O7
  10
375906.506
  20
4489737.000
  0
SEQEND
  8
LC_OH_2021_05_O7
  0
INSERT
  8
FeatureAttribs
  2
FEATURE
  41
1
  42
1
  43
1
  50
0
  10
384214.763
  20
4487542.999
 66
1
  0
ATTRIB
  8
FeatureAttribs
 70
0
  1
PNOA-H_AMS_1956-57_33k_ES_PAN_21mic_H50_0532_fot_66A-18815_E.tif
  2
NAME
  10
384214.763
  20
4487542.999
 40
34.21281
  0
SEQEND
  0
POLYLINE
  8
LC_OH_2021_05_O7
  70
1
  66
1
  0
VERTEX
  8
LC_OH_2021_05_O7
  10
385430.008
  20
4485440.303
  0
VERTEX
  8
LC_OH_2021_05_O7
  10
385155.507
  20
4485323.500
  0
VERTEX
  8
LC_OH_2021_05_O7
  10
383125.507
  20
4485562.500
  0
VERTEX
  8
LC_OH_2021_05_O7
  10
382905.007
  20
4489028.000
  0
VERTEX
  8
LC_OH_2021_05_O7
  10
384322.507
  20
4489762.000
  0
VERTEX
  8
LC_OH_2021_05_O7
  10
384323.507
  20
4489762.500
  0
VERTEX
  8
LC_OH_2021_05_O7
  10
384426.007
  20
4489755.500
  0
VERTEX
  8
LC_OH_2021_05_O7
  10
384428.507
  20
4489754.500
  0
VERTEX
  8
LC_OH_2021_05_O7
  10
385500.008
  20
4488985.046
  0
VERTEX
  8
LC_OH_2021_05_O7
  10
385500.008
  20
4488660.000
  0
VERTEX
  8
LC_OH_2021_05_O7
  10
385430.008
  20
4488660.000
  0
VERTEX
  8
LC_OH_2021_05_O7
  10
385430.008
  20
4485440.303
  0
SEQEND
  8
LC_OH_2021_05_O7
  0
INSERT
  8
FeatureAttribs
  2
FEATURE
  41
1
  42
1
  43
1
  50
0
  10
379062.794
  20
4487361.749
 66
1
  0
ATTRIB
  8
FeatureAttribs
 70
0
  1
PNOA-H_AMS_1956-57_33k_ES_PAN_21mic_H50_0532_fot_66A-18817_E.tif
  2
NAME
  10
379062.794
  20
4487361.749
 40
34.21281
  0
SEQEND
  0
POLYLINE
  8
LC_OH_2021_05_O7
  70
1
  66
1
  0
VERTEX
  8
LC_OH_2021_05_O7
  10
377966.007
  20
4489357.500
  0
VERTEX
  8
LC_OH_2021_05_O7
  10
377967.007
  20
4489358.000
  0
VERTEX
  8
LC_OH_2021_05_O7
  10
378731.007
  20
4489709.000
  0
VERTEX
  8
LC_OH_2021_05_O7
  10
380266.507
  20
4489066.000
  0
VERTEX
  8
LC_OH_2021_05_O7
  10
380577.007
  20
4485465.500
  0
VERTEX
  8
LC_OH_2021_05_O7
  10
378945.007
  20
4485014.500
  0
VERTEX
  8
LC_OH_2021_05_O7
  10
377799.007
  20
4485349.500
  0
VERTEX
  8
LC_OH_2021_05_O7
  10
377632.507
  20
4489204.000
  0
VERTEX
  8
LC_OH_2021_05_O7
  10
377966.007
  20
4489357.500
  0
SEQEND
  8
LC_OH_2021_05_O7
  0
INSERT
  8
FeatureAttribs
  2
FEATURE
  41
1
  42
1
  43
1
  50
0
  10
371516.626
  20
4502295.326
 66
1
  0
ATTRIB
  8
FeatureAttribs
 70
0
  1
PNOA-H_AMS_1956-57_33k_ES_PAN_21mic_H50_0506_fot_62C-05377_E.tif
  2
NAME
  10
371516.626
  20
4502295.326
 40
34.21281
  0
SEQEND
  0
POLYLINE
  8
LC_OH_2021_05_O7
  70
1
  66
1
  0
VERTEX
  8
LC_OH_2021_05_O7
  10
371601.944
  20
4502864.314
  0
VERTEX
  8
LC_OH_2021_05_O7
  10
371586.506
  20
4502215.500
  0
VERTEX
  8
LC_OH_2021_05_O7
  10
371586.506
  20
4502206.500
  0
VERTEX
  8
LC_OH_2021_05_O7
  10
371576.006
  20
4501751.500
  0
VERTEX
  8
LC_OH_2021_05_O7
  10
371575.506
  20
4501736.000
  0
VERTEX
  8
LC_OH_2021_05_O7
  10
371572.006
  20
4501735.500
  0
VERTEX
  8
LC_OH_2021_05_O7
  10
371431.308
  20
4501723.764
  0
VERTEX
  8
LC_OH_2021_05_O7
  10
371451.082
  20
4502866.888
  0
SEQEND
  8
LC_OH_2021_05_O7
  0
INSERT
  8
FeatureAttribs
  2
FEATURE
  41
1
  42
1
  43
1
  50
0
  10
375858.561
  20
4502106.294
 66
1
  0
ATTRIB
  8
FeatureAttribs
 70
0
  1
PNOA-H_AMS_1956-57_33k_ES_PAN_21mic_H50_0507_fot_62C-05379_E.tif
  2
NAME
  10
375858.561
  20
4502106.294
 40
34.21281
  0
SEQEND
  0
POLYLINE
  8
LC_OH_2021_05_O7
  70
1
  66
1
  0
VERTEX
  8
LC_OH_2021_05_O7
  10
377271.115
  20
4502768.664
  0
VERTEX
  8
LC_OH_2021_05_O7
  10
377256.506
  20
4501506.000
  0
VERTEX
  8
LC_OH_2021_05_O7
  10
377256.006
  20
4501503.000
  0
VERTEX
  8
LC_OH_2021_05_O7
  10
377252.006
  20
4501501.000
  0
VERTEX
  8
LC_OH_2021_05_O7
  10
377037.006
  20
4501397.000
  0
VERTEX
  8
LC_OH_2021_05_O7
  10
374481.506
  20
4501542.500
  0
VERTEX
  8
LC_OH_2021_05_O7
  10
374477.506
  20
4501543.000
  0
VERTEX
  8
LC_OH_2021_05_O7
  10
374446.006
  20
4501562.500
  0
VERTEX
  8
LC_OH_2021_05_O7
  10
374457.376
  20
4502815.588
  0
VERTEX
  8
LC_OH_2021_05_O7
  10
374973.091
  20
4502806.788
  0
SEQEND
  8
LC_OH_2021_05_O7
  0
INSERT
  8
FeatureAttribs
  2
FEATURE
  41
1
  42
1
  43
1
  50
0
  10
381440.473
  20
4501946.247
 66
1
  0
ATTRIB
  8
FeatureAttribs
 70
0
  1
PNOA-H_AMS_1956-57_33k_ES_PAN_21mic_H50_0507_fot_62C-05381_E.tif
  2
NAME
  10
381440.473
  20
4501946.247
 40
34.21281
  0
SEQEND
  0
POLYLINE
  8
LC_OH_2021_05_O7
  70
1
  66
1
  0
VERTEX
  8
LC_OH_2021_05_O7
  10
382813.439
  20
4502679.141
  0
VERTEX
  8
LC_OH_2021_05_O7
  10
382807.007
  20
4501430.500
  0
VERTEX
  8
LC_OH_2021_05_O7
  10
382046.007
  20
4501169.500
  0
VERTEX
  8
LC_OH_2021_05_O7
  10
380067.507
  20
4501480.000
  0
VERTEX
  8
LC_OH_2021_05_O7
  10
380068.874
  20
4502722.995
  0
VERTEX
  8
LC_OH_2021_05_O7
  10
382017.080
  20
4502691.598
  0
SEQEND
  8
LC_OH_2021_05_O7
  0
INSERT
  8
FeatureAttribs
  2
FEATURE
  41
1
  42
1
  43
1
  50
0
  10
384171.159
  20
4501889.821
 66
1
  0
ATTRIB
  8
FeatureAttribs
 70
0
  1
PNOA-H_AMS_1956-57_33k_ES_PAN_21mic_H50_0507_fot_62C-05382_E.tif
  2
NAME
  10
384171.159
  20
4501889.821
 40
34.21281
  0
SEQEND
  0
POLYLINE
  8
LC_OH_2021_05_O7
  70
1
  66
1
  0
VERTEX
  8
LC_OH_2021_05_O7
  10
385535.311
  20
4502636.567
  0
VERTEX
  8
LC_OH_2021_05_O7
  10
385525.008
  20
4501402.000
  0
VERTEX
  8
LC_OH_2021_05_O7
  10
384492.507
  20
4501100.500
  0
VERTEX
  8
LC_OH_2021_05_O7
  10
382807.007
  20
4501430.500
  0
VERTEX
  8
LC_OH_2021_05_O7
  10
382813.439
  20
4502679.141
  0
SEQEND
  8
LC_OH_2021_05_O7
  0
INSERT
  8
FeatureAttribs
  2
FEATURE
  41
1
  42
1
  43
1
  50
0
  10
392240.626
  20
4502442.881
 66
1
  0
ATTRIB
  8
FeatureAttribs
 70
0
  1
PNOA-H_AMS_1956-57_33k_ES_PAN_21mic_H50_0507_fot_62C-05385_E.tif
  2
NAME
  10
392240.626
  20
4502442.881
 40
34.21281
  0
SEQEND
  0
POLYLINE
  8
LC_OH_2021_05_O7
  70
1
  66
1
  0
VERTEX
  8
LC_OH_2021_05_O7
  10
393565.392
  20
4502517.370
  0
VERTEX
  8
LC_OH_2021_05_O7
  10
393560.009
  20
4502330.000
  0
VERTEX
  8
LC_OH_2021_05_O7
  10
392480.008
  20
4502330.000
  0
VERTEX
  8
LC_OH_2021_05_O7
  10
392480.008
  20
4502430.000
  0
VERTEX
  8
LC_OH_2021_05_O7
  10
390915.860
  20
4502430.000
  0
VERTEX
  8
LC_OH_2021_05_O7
  10
390920.730
  20
4502555.763
  0
VERTEX
  8
LC_OH_2021_05_O7
  10
392582.992
  20
4502531.339
  0
SEQEND
  8
LC_OH_2021_05_O7
  0
INSERT
  8
FeatureAttribs
  2
FEATURE
  41
1
  42
1
  43
1
  50
0
  10
378662.440
  20
4502025.834
 66
1
  0
ATTRIB
  8
FeatureAttribs
 70
0
  1
PNOA-H_AMS_1956-57_33k_ES_PAN_21mic_H50_0507_fot_62C-05380_E.tif
  2
NAME
  10
378662.440
  20
4502025.834
 40
34.21281
  0
SEQEND
  0
POLYLINE
  8
LC_OH_2021_05_O7
  70
1
  66
1
  0
VERTEX
  8
LC_OH_2021_05_O7
  10
380068.874
  20
4502722.995
  0
VERTEX
  8
LC_OH_2021_05_O7
  10
380067.507
  20
4501480.000
  0
VERTEX
  8
LC_OH_2021_05_O7
  10
379588.507
  20
4501283.000
  0
VERTEX
  8
LC_OH_2021_05_O7
  10
377256.006
  20
4501503.500
  0
VERTEX
  8
LC_OH_2021_05_O7
  10
377270.775
  20
4502768.669
  0
VERTEX
  8
LC_OH_2021_05_O7
  10
378495.090
  20
4502748.358
  0
SEQEND
  8
LC_OH_2021_05_O7
  0
INSERT
  8
FeatureAttribs
  2
FEATURE
  41
1
  42
1
  43
1
  50
0
  10
394840.445
  20
4502423.685
 66
1
  0
ATTRIB
  8
FeatureAttribs
 70
0
  1
PNOA-H_AMS_1956-57_33k_ES_PAN_21mic_H50_0507_fot_62C-05386_E.tif
  2
NAME
  10
394840.445
  20
4502423.685
 40
34.21281
  0
SEQEND
  0
POLYLINE
  8
LC_OH_2021_05_O7
  70
1
  66
1
  0
VERTEX
  8
LC_OH_2021_05_O7
  10
396120.956
  20
4502481.040
  0
VERTEX
  8
LC_OH_2021_05_O7
  10
396119.773
  20
4502330.000
  0
VERTEX
  8
LC_OH_2021_05_O7
  10
393559.933
  20
4502330.000
  0
VERTEX
  8
LC_OH_2021_05_O7
  10
393565.303
  20
4502517.371
  0
VERTEX
  8
LC_OH_2021_05_O7
  10
396104.945
  20
4502481.260
  0
SEQEND
  8
LC_OH_2021_05_O7
  0
INSERT
  8
FeatureAttribs
  2
FEATURE
  41
1
  42
1
  43
1
  50
0
  10
386878.495
  20
4502004.937
 66
1
  0
ATTRIB
  8
FeatureAttribs
 70
0
  1
PNOA-H_AMS_1956-57_33k_ES_PAN_21mic_H50_0507_fot_62C-05383_E.tif
  2
NAME
  10
386878.495
  20
4502004.937
 40
34.21281
  0
SEQEND
  0
POLYLINE
  8
LC_OH_2021_05_O7
  70
1
  66
1
  0
VERTEX
  8
LC_OH_2021_05_O7
  10
388231.982
  20
4502595.663
  0
VERTEX
  8
LC_OH_2021_05_O7
  10
388227.806
  20
4502430.000
  0
VERTEX
  8
LC_OH_2021_05_O7
  10
385640.008
  20
4502430.000
  0
VERTEX
  8
LC_OH_2021_05_O7
  10
385640.008
  20
4501373.308
  0
VERTEX
  8
LC_OH_2021_05_O7
  10
385525.008
  20
4501402.000
  0
VERTEX
  8
LC_OH_2021_05_O7
  10
385535.311
  20
4502636.567
  0
VERTEX
  8
LC_OH_2021_05_O7
  10
385539.060
  20
4502636.508
  0
SEQEND
  8
LC_OH_2021_05_O7
  0
INSERT
  8
FeatureAttribs
  2
FEATURE
  41
1
  42
1
  43
1
  50
0
  10
399149.902
  20
4502387.980
 66
1
  0
ATTRIB
  8
FeatureAttribs
 70
0
  1
PNOA-H_AMS_1956-57_33k_ES_PAN_21mic_H50_0508_fot_62C-05388_E.tif
  2
NAME
  10
399149.902
  20
4502387.980
 40
34.21281
  0
SEQEND
  0
POLYLINE
  8
LC_OH_2021_05_O7
  70
1
  66
1
  0
VERTEX
  8
LC_OH_2021_05_O7
  10
399625.501
  20
4502329.999
  0
VERTEX
  8
LC_OH_2021_05_O7
  10
398672.914
  20
4502329.999
  0
VERTEX
  8
LC_OH_2021_05_O7
  10
398673.113
  20
4502445.960
  0
VERTEX
  8
LC_OH_2021_05_O7
  10
399626.890
  20
4502432.850
  0
SEQEND
  8
LC_OH_2021_05_O7
  0
INSERT
  8
FeatureAttribs
  2
FEATURE
  41
1
  42
1
  43
1
  50
0
  10
389574.195
  20
4502512.831
 66
1
  0
ATTRIB
  8
FeatureAttribs
 70
0
  1
PNOA-H_AMS_1956-57_33k_ES_PAN_21mic_H50_0507_fot_62C-05384_E.tif
  2
NAME
  10
389574.195
  20
4502512.831
 40
34.21281
  0
SEQEND
  0
POLYLINE
  8
LC_OH_2021_05_O7
  70
1
  66
1
  0
VERTEX
  8
LC_OH_2021_05_O7
  10
390920.583
  20
4502555.766
  0
VERTEX
  8
LC_OH_2021_05_O7
  10
390915.707
  20
4502430.000
  0
VERTEX
  8
LC_OH_2021_05_O7
  10
388227.807
  20
4502430.000
  0
VERTEX
  8
LC_OH_2021_05_O7
  10
388231.983
  20
4502595.663
  0
VERTEX
  8
LC_OH_2021_05_O7
  10
389061.030
  20
4502583.089
  0
SEQEND
  8
LC_OH_2021_05_O7
  0
INSERT
  8
FeatureAttribs
  2
FEATURE
  41
1
  42
1
  43
1
  50
0
  10
397396.443
  20
4502405.520
 66
1
  0
ATTRIB
  8
FeatureAttribs
 70
0
  1
PNOA-H_AMS_1956-57_33k_ES_PAN_21mic_H50_0507_fot_62C-05387_E.tif
  2
NAME
  10
397396.443
  20
4502405.520
 40
34.21281
  0
SEQEND
  0
POLYLINE
  8
LC_OH_2021_05_O7
  70
1
  66
1
  0
VERTEX
  8
LC_OH_2021_05_O7
  10
398673.113
  20
4502445.960
  0
VERTEX
  8
LC_OH_2021_05_O7
  10
398672.914
  20
4502329.999
  0
VERTEX
  8
LC_OH_2021_05_O7
  10
396119.773
  20
4502330.000
  0
VERTEX
  8
LC_OH_2021_05_O7
  10
396120.956
  20
4502481.040
  0
SEQEND
  8
LC_OH_2021_05_O7
  0
INSERT
  8
FeatureAttribs
  2
FEATURE
  41
1
  42
1
  43
1
  50
0
  10
373016.286
  20
4502190.404
 66
1
  0
ATTRIB
  8
FeatureAttribs
 70
0
  1
PNOA-H_AMS_1956-57_33k_ES_PAN_21mic_H50_0507_fot_62C-05378_E.tif
  2
NAME
  10
373016.286
  20
4502190.404
 40
34.21281
  0
SEQEND
  0
POLYLINE
  8
LC_OH_2021_05_O7
  70
1
  66
1
  0
VERTEX
  8
LC_OH_2021_05_O7
  10
374457.066
  20
4502815.593
  0
VERTEX
  8
LC_OH_2021_05_O7
  10
374451.506
  20
4502209.500
  0
VERTEX
  8
LC_OH_2021_05_O7
  10
374451.506
  20
4502206.500
  0
VERTEX
  8
LC_OH_2021_05_O7
  10
374446.006
  20
4501562.500
  0
VERTEX
  8
LC_OH_2021_05_O7
  10
371975.506
  20
4501516.500
  0
VERTEX
  8
LC_OH_2021_05_O7
  10
371575.506
  20
4501736.000
  0
VERTEX
  8
LC_OH_2021_05_O7
  10
371602.245
  20
4502864.309
  0
SEQEND
  8
LC_OH_2021_05_O7
  0
INSERT
  8
FeatureAttribs
  2
FEATURE
  41
1
  42
1
  43
1
  50
0
  10
377643.083
  20
4484792.135
 66
1
  0
ATTRIB
  8
FeatureAttribs
 70
0
  1
PNOA-H_AMS_1956-57_33k_ES_PAN_21mic_H50_0557_fot_000-10998_R.tif
  2
NAME
  10
377643.083
  20
4484792.135
 40
34.21281
  0
SEQEND
  0
POLYLINE
  8
LC_OH_2021_05_O7
  70
1
  66
1
  0
VERTEX
  8
LC_OH_2021_05_O7
  10
378967.642
  20
4484234.770
  0
VERTEX
  8
LC_OH_2021_05_O7
  10
378193.055
  20
4484247.211
  0
VERTEX
  8
LC_OH_2021_05_O7
  10
376318.525
  20
4484278.204
  0
VERTEX
  8
LC_OH_2021_05_O7
  10
376781.006
  20
4485111.000
  0
VERTEX
  8
LC_OH_2021_05_O7
  10
377796.507
  20
4485349.500
  0
VERTEX
  8
LC_OH_2021_05_O7
  10
377804.507
  20
4485348.500
  0
VERTEX
  8
LC_OH_2021_05_O7
  10
377966.507
  20
4485300.500
  0
VERTEX
  8
LC_OH_2021_05_O7
  10
377967.507
  20
4485300.500
  0
VERTEX
  8
LC_OH_2021_05_O7
  10
378938.007
  20
4485017.000
  0
VERTEX
  8
LC_OH_2021_05_O7
  10
378945.007
  20
4485014.000
  0
SEQEND
  8
LC_OH_2021_05_O7
  0
INSERT
  8
FeatureAttribs
  2
FEATURE
  41
1
  42
1
  43
1
  50
0
  10
385285.815
  20
4484786.789
 66
1
  0
ATTRIB
  8
FeatureAttribs
 70
0
  1
PNOA-H_AMS_1956-57_33k_ES_PAN_21mic_H50_0557_fot_000-10995_R.tif
  2
NAME
  10
385285.815
  20
4484786.789
 40
34.21281
  0
SEQEND
  0
POLYLINE
  8
LC_OH_2021_05_O7
  70
1
  66
1
  0
VERTEX
  8
LC_OH_2021_05_O7
  10
385430.008
  20
4484132.811
  0
VERTEX
  8
LC_OH_2021_05_O7
  10
385254.542
  20
4484135.463
  0
VERTEX
  8
LC_OH_2021_05_O7
  10
385141.622
  20
4484137.223
  0
VERTEX
  8
LC_OH_2021_05_O7
  10
385155.507
  20
4485324.000
  0
VERTEX
  8
LC_OH_2021_05_O7
  10
385430.008
  20
4485440.768
  0
SEQEND
  8
LC_OH_2021_05_O7
  0
INSERT
  8
FeatureAttribs
  2
FEATURE
  41
1
  42
1
  43
1
  50
0
  10
380489.747
  20
4484825.576
 66
1
  0
ATTRIB
  8
FeatureAttribs
 70
0
  1
PNOA-H_AMS_1956-57_33k_ES_PAN_21mic_H50_0557_fot_000-10997_R.tif
  2
NAME
  10
380489.747
  20
4484825.576
 40
34.21281
  0
SEQEND
  0
POLYLINE
  8
LC_OH_2021_05_O7
  70
1
  66
1
  0
VERTEX
  8
LC_OH_2021_05_O7
  10
382034.988
  20
4484185.651
  0
VERTEX
  8
LC_OH_2021_05_O7
  10
381723.803
  20
4484190.502
  0
VERTEX
  8
LC_OH_2021_05_O7
  10
378967.233
  20
4484234.776
  0
VERTEX
  8
LC_OH_2021_05_O7
  10
378944.507
  20
4485014.500
  0
VERTEX
  8
LC_OH_2021_05_O7
  10
380013.007
  20
4485310.000
  0
VERTEX
  8
LC_OH_2021_05_O7
  10
380015.007
  20
4485310.500
  0
VERTEX
  8
LC_OH_2021_05_O7
  10
380578.507
  20
4485465.500
  0
VERTEX
  8
LC_OH_2021_05_O7
  10
382019.507
  20
4485158.000
  0
SEQEND
  8
LC_OH_2021_05_O7
  0
INSERT
  8
FeatureAttribs
  2
FEATURE
  41
1
  42
1
  43
1
  50
0
  10
383587.507
  20
4484849.861
 66
1
  0
ATTRIB
  8
FeatureAttribs
 70
0
  1
PNOA-H_AMS_1956-57_33k_ES_PAN_21mic_H50_0557_fot_000-10996_R.tif
  2
NAME
  10
383587.507
  20
4484849.861
 40
34.21281
  0
SEQEND
  0
POLYLINE
  8
LC_OH_2021_05_O7
  70
1
  66
1
  0
VERTEX
  8
LC_OH_2021_05_O7
  10
385141.626
  20
4484137.223
  0
VERTEX
  8
LC_OH_2021_05_O7
  10
382034.956
  20
4484185.652
  0
VERTEX
  8
LC_OH_2021_05_O7
  10
382019.507
  20
4485155.500
  0
VERTEX
  8
LC_OH_2021_05_O7
  10
382020.007
  20
4485158.000
  0
VERTEX
  8
LC_OH_2021_05_O7
  10
382061.007
  20
4485173.000
  0
VERTEX
  8
LC_OH_2021_05_O7
  10
382062.507
  20
4485173.500
  0
VERTEX
  8
LC_OH_2021_05_O7
  10
383125.507
  20
4485562.500
  0
VERTEX
  8
LC_OH_2021_05_O7
  10
385155.507
  20
4485323.500
  0
SEQEND
  8
LC_OH_2021_05_O7
  0
INSERT
  8
FeatureAttribs
  2
FEATURE
  41
1
  42
1
  43
1
  50
0
  10
371452.048
  20
4484755.250
 66
1
  0
ATTRIB
  8
FeatureAttribs
 70
0
  1
PNOA-H_AMS_1956-57_33k_ES_PAN_21mic_H50_0531_fot_000-51058_R.tif
  2
NAME
  10
371452.048
  20
4484755.250
 40
34.21281
  0
SEQEND
  0
POLYLINE
  8
LC_OH_2021_05_O7
  70
1
  66
1
  0
VERTEX
  8
LC_OH_2021_05_O7
  10
372844.099
  20
4484336.508
  0
VERTEX
  8
LC_OH_2021_05_O7
  10
371131.527
  20
4484365.633
  0
VERTEX
  8
LC_OH_2021_05_O7
  10
371159.921
  20
4486011.991
  0
VERTEX
  8
LC_OH_2021_05_O7
  10
372311.006
  20
4486173.000
  0
VERTEX
  8
LC_OH_2021_05_O7
  10
372314.506
  20
4486173.500
  0
VERTEX
  8
LC_OH_2021_05_O7
  10
372316.506
  20
4486173.500
  0
VERTEX
  8
LC_OH_2021_05_O7
  10
372324.506
  20
4486168.500
  0
VERTEX
  8
LC_OH_2021_05_O7
  10
372835.006
  20
4485831.000
  0
SEQEND
  8
LC_OH_2021_05_O7
  0
INSERT
  8
FeatureAttribs
  2
FEATURE
  41
1
  42
1
  43
1
  50
0
  10
374728.076
  20
4484811.750
 66
1
  0
ATTRIB
  8
FeatureAttribs
 70
0
  1
PNOA-H_AMS_1956-57_33k_ES_PAN_21mic_H50_0531_fot_000-51059_R.tif
  2
NAME
  10
374728.076
  20
4484811.750
 40
34.21281
  0
SEQEND
  0
POLYLINE
  8
LC_OH_2021_05_O7
  70
1
  66
1
  0
VERTEX
  8
LC_OH_2021_05_O7
  10
376318.859
  20
4484278.198
  0
VERTEX
  8
LC_OH_2021_05_O7
  10
374662.296
  20
4484305.587
  0
VERTEX
  8
LC_OH_2021_05_O7
  10
372844.101
  20
4484336.508
  0
VERTEX
  8
LC_OH_2021_05_O7
  10
372835.006
  20
4485831.000
  0
VERTEX
  8
LC_OH_2021_05_O7
  10
373866.006
  20
4486020.500
  0
VERTEX
  8
LC_OH_2021_05_O7
  10
373869.006
  20
4486021.000
  0
VERTEX
  8
LC_OH_2021_05_O7
  10
375004.506
  20
4486229.500
  0
VERTEX
  8
LC_OH_2021_05_O7
  10
376781.006
  20
4485111.000
  0
SEQEND
  8
LC_OH_2021_05_O7
  0
ENDSEC
  0
EOF
