  0
SECTION
  2
HEADER
  9
$ACADVER
  1
AC1009
  9
$LUNITS
  70
2
  9
$LIMMIN
  10
342884.960
  20
4484365.633
  9
$LIMMAX
  10
371451.082
  20
4503407.836
  9
$EXTMIN
  10
342884.960
  20
4484365.633
  9
$EXTMAX
  10
371451.082
  20
4503407.836
  999
Created by Global Mapper
  999
Projection: UTM
  999
Datum: ETRS89
  999
Ground Units: meters
  999
ZONE: 30
  0
ENDSEC
  0
SECTION
  2
TABLES
  0
ENDSEC
  0
SECTION
  2
BLOCKS
  0
BLOCK
  8
FeatureAttribs
  70
0
  2
FEATURE
  3
FEATURE
  10
0.00000000
  20
0.00000000
  0
ATTDEF
  8
FeatureAttribs
  70
0
  1
 
  2
NAME
  3
NAME
  10
0.00000000
  20
0.00000000
  40
1.00000000
  0
ENDBLK
  0
ENDSEC
  0
SECTION
  2
ENTITIES
  0
INSERT
  8
FeatureAttribs
  2
FEATURE
  41
1
  42
1
  43
1
  50
0
  10
370990.542
  20
4492474.607
 66
1
  0
ATTRIB
  8
FeatureAttribs
 70
0
  1
PNOA-H_AMS_1956-57_33k_ES_PAN_21mic_H50_0532_fot_000-44306_R.tif
  2
NAME
  10
370990.542
  20
4492474.607
 40
34.33116
  0
SEQEND
  0
POLYLINE
  8
LC_OH_2021_05_O7
  70
1
  66
1
  0
VERTEX
  8
LC_OH_2021_05_O7
  10
371256.329
  20
4491598.721
  0
VERTEX
  8
LC_OH_2021_05_O7
  10
370790.006
  20
4491657.000
  0
VERTEX
  8
LC_OH_2021_05_O7
  10
370694.506
  20
4493285.000
  0
VERTEX
  8
LC_OH_2021_05_O7
  10
371286.579
  20
4493350.492
  0
SEQEND
  8
LC_OH_2021_05_O7
  0
INSERT
  8
FeatureAttribs
  2
FEATURE
  41
1
  42
1
  43
1
  50
0
  10
343763.051
  20
4500761.093
 66
1
  0
ATTRIB
  8
FeatureAttribs
 70
0
  1
PNOA-H_AMS_1956-57_33k_ES_PAN_21mic_H50_0530_fot_63B-34872_W.tif
  2
NAME
  10
343763.051
  20
4500761.093
 40
34.33116
  0
SEQEND
  0
POLYLINE
  8
LC_OH_2021_05_O7
  70
1
  66
1
  0
VERTEX
  8
LC_OH_2021_05_O7
  10
343262.335
  20
4502825.842
  0
VERTEX
  8
LC_OH_2021_05_O7
  10
344126.003
  20
4502833.000
  0
VERTEX
  8
LC_OH_2021_05_O7
  10
344186.503
  20
4502833.500
  0
VERTEX
  8
LC_OH_2021_05_O7
  10
344239.003
  20
4502833.500
  0
VERTEX
  8
LC_OH_2021_05_O7
  10
344349.003
  20
4502744.500
  0
VERTEX
  8
LC_OH_2021_05_O7
  10
344351.003
  20
4502742.500
  0
VERTEX
  8
LC_OH_2021_05_O7
  10
344351.003
  20
4502738.500
  0
VERTEX
  8
LC_OH_2021_05_O7
  10
344152.503
  20
4498975.000
  0
VERTEX
  8
LC_OH_2021_05_O7
  10
343778.503
  20
4498799.000
  0
VERTEX
  8
LC_OH_2021_05_O7
  10
343175.098
  20
4498688.685
  0
VERTEX
  8
LC_OH_2021_05_O7
  10
343177.072
  20
4498782.354
  0
VERTEX
  8
LC_OH_2021_05_O7
  10
343225.831
  20
4501095.091
  0
SEQEND
  8
LC_OH_2021_05_O7
  0
INSERT
  8
FeatureAttribs
  2
FEATURE
  41
1
  42
1
  43
1
  50
0
  10
343432.471
  20
4492088.497
 66
1
  0
ATTRIB
  8
FeatureAttribs
 70
0
  1
PNOA-H_AMS_1956-57_33k_ES_PAN_21mic_H50_0530_fot_65B-42128_W.tif
  2
NAME
  10
343432.471
  20
4492088.497
 40
34.33116
  0
SEQEND
  0
POLYLINE
  8
LC_OH_2021_05_O7
  70
1
  66
1
  0
VERTEX
  8
LC_OH_2021_05_O7
  10
343078.209
  20
4494089.981
  0
VERTEX
  8
LC_OH_2021_05_O7
  10
343846.503
  20
4493869.000
  0
VERTEX
  8
LC_OH_2021_05_O7
  10
343871.003
  20
4490449.000
  0
VERTEX
  8
LC_OH_2021_05_O7
  10
342993.940
  20
4490087.012
  0
VERTEX
  8
LC_OH_2021_05_O7
  10
343030.922
  20
4491844.187
  0
SEQEND
  8
LC_OH_2021_05_O7
  0
INSERT
  8
FeatureAttribs
  2
FEATURE
  41
1
  42
1
  43
1
  50
0
  10
367971.742
  20
4499564.999
 66
1
  0
ATTRIB
  8
FeatureAttribs
 70
0
  1
PNOA-H_AMS_1956-57_33k_ES_PAN_21mic_H50_0531_fot_63B-34863_W.tif
  2
NAME
  10
367971.742
  20
4499564.999
 40
34.33116
  0
SEQEND
  0
POLYLINE
  8
LC_OH_2021_05_O7
  70
1
  66
1
  0
VERTEX
  8
LC_OH_2021_05_O7
  10
368842.006
  20
4501855.500
  0
VERTEX
  8
LC_OH_2021_05_O7
  10
368850.506
  20
4501852.000
  0
VERTEX
  8
LC_OH_2021_05_O7
  10
369427.006
  20
4501556.500
  0
VERTEX
  8
LC_OH_2021_05_O7
  10
369158.506
  20
4497602.500
  0
VERTEX
  8
LC_OH_2021_05_O7
  10
367678.505
  20
4497274.500
  0
VERTEX
  8
LC_OH_2021_05_O7
  10
366535.505
  20
4497776.500
  0
VERTEX
  8
LC_OH_2021_05_O7
  10
366786.505
  20
4501640.000
  0
VERTEX
  8
LC_OH_2021_05_O7
  10
368837.506
  20
4501855.000
  0
VERTEX
  8
LC_OH_2021_05_O7
  10
368842.006
  20
4501855.500
  0
SEQEND
  8
LC_OH_2021_05_O7
  0
INSERT
  8
FeatureAttribs
  2
FEATURE
  41
1
  42
1
  43
1
  50
0
  10
365301.231
  20
4499716.500
 66
1
  0
ATTRIB
  8
FeatureAttribs
 70
0
  1
PNOA-H_AMS_1956-57_33k_ES_PAN_21mic_H50_0531_fot_63B-34864_W.tif
  2
NAME
  10
365301.231
  20
4499716.500
 40
34.33116
  0
SEQEND
  0
POLYLINE
  8
LC_OH_2021_05_O7
  70
1
  66
1
  0
VERTEX
  8
LC_OH_2021_05_O7
  10
366135.005
  20
4501977.000
  0
VERTEX
  8
LC_OH_2021_05_O7
  10
366137.505
  20
4501977.000
  0
VERTEX
  8
LC_OH_2021_05_O7
  10
366150.505
  20
4501970.500
  0
VERTEX
  8
LC_OH_2021_05_O7
  10
366787.005
  20
4501640.500
  0
VERTEX
  8
LC_OH_2021_05_O7
  10
366535.505
  20
4497777.000
  0
VERTEX
  8
LC_OH_2021_05_O7
  10
364991.505
  20
4497456.000
  0
VERTEX
  8
LC_OH_2021_05_O7
  10
364987.505
  20
4497456.000
  0
VERTEX
  8
LC_OH_2021_05_O7
  10
363819.505
  20
4497970.000
  0
VERTEX
  8
LC_OH_2021_05_O7
  10
364079.505
  20
4501717.500
  0
VERTEX
  8
LC_OH_2021_05_O7
  10
364080.005
  20
4501719.000
  0
VERTEX
  8
LC_OH_2021_05_O7
  10
364082.505
  20
4501719.500
  0
VERTEX
  8
LC_OH_2021_05_O7
  10
366131.005
  20
4501976.500
  0
VERTEX
  8
LC_OH_2021_05_O7
  10
366135.005
  20
4501977.000
  0
SEQEND
  8
LC_OH_2021_05_O7
  0
INSERT
  8
FeatureAttribs
  2
FEATURE
  41
1
  42
1
  43
1
  50
0
  10
370572.931
  20
4499413.999
 66
1
  0
ATTRIB
  8
FeatureAttribs
 70
0
  1
PNOA-H_AMS_1956-57_33k_ES_PAN_21mic_H50_0531_fot_63B-34862_W.tif
  2
NAME
  10
370572.931
  20
4499413.999
 40
34.33116
  0
SEQEND
  0
POLYLINE
  8
LC_OH_2021_05_O7
  70
1
  66
1
  0
VERTEX
  8
LC_OH_2021_05_O7
  10
371355.624
  20
4497346.616
  0
VERTEX
  8
LC_OH_2021_05_O7
  10
370382.006
  20
4497092.000
  0
VERTEX
  8
LC_OH_2021_05_O7
  10
369158.506
  20
4497602.500
  0
VERTEX
  8
LC_OH_2021_05_O7
  10
369426.506
  20
4501555.000
  0
VERTEX
  8
LC_OH_2021_05_O7
  10
369427.006
  20
4501556.500
  0
VERTEX
  8
LC_OH_2021_05_O7
  10
369430.506
  20
4501557.000
  0
VERTEX
  8
LC_OH_2021_05_O7
  10
369765.506
  20
4501585.000
  0
VERTEX
  8
LC_OH_2021_05_O7
  10
369771.506
  20
4501585.500
  0
VERTEX
  8
LC_OH_2021_05_O7
  10
371431.311
  20
4501723.932
  0
VERTEX
  8
LC_OH_2021_05_O7
  10
371411.078
  20
4500554.204
  0
VERTEX
  8
LC_OH_2021_05_O7
  10
371371.091
  20
4498241.528
  0
SEQEND
  8
LC_OH_2021_05_O7
  0
INSERT
  8
FeatureAttribs
  2
FEATURE
  41
1
  42
1
  43
1
  50
0
  10
351132.628
  20
4500423.999
 66
1
  0
ATTRIB
  8
FeatureAttribs
 70
0
  1
PNOA-H_AMS_1956-57_33k_ES_PAN_21mic_H50_0531_fot_63B-34869_W.tif
  2
NAME
  10
351132.628
  20
4500423.999
 40
34.33116
  0
SEQEND
  0
POLYLINE
  8
LC_OH_2021_05_O7
  70
1
  66
1
  0
VERTEX
  8
LC_OH_2021_05_O7
  10
349796.504
  20
4502510.500
  0
VERTEX
  8
LC_OH_2021_05_O7
  10
351337.504
  20
4502457.500
  0
VERTEX
  8
LC_OH_2021_05_O7
  10
351343.504
  20
4502457.500
  0
VERTEX
  8
LC_OH_2021_05_O7
  10
352565.004
  20
4502416.000
  0
VERTEX
  8
LC_OH_2021_05_O7
  10
352570.004
  20
4502414.500
  0
VERTEX
  8
LC_OH_2021_05_O7
  10
352620.504
  20
4502373.500
  0
VERTEX
  8
LC_OH_2021_05_O7
  10
352476.004
  20
4498673.000
  0
VERTEX
  8
LC_OH_2021_05_O7
  10
351349.004
  20
4498337.500
  0
VERTEX
  8
LC_OH_2021_05_O7
  10
351344.004
  20
4498337.500
  0
VERTEX
  8
LC_OH_2021_05_O7
  10
349970.504
  20
4498579.000
  0
VERTEX
  8
LC_OH_2021_05_O7
  10
349658.004
  20
4498690.000
  0
SEQEND
  8
LC_OH_2021_05_O7
  0
INSERT
  8
FeatureAttribs
  2
FEATURE
  41
1
  42
1
  43
1
  50
0
  10
362553.021
  20
4499866.249
 66
1
  0
ATTRIB
  8
FeatureAttribs
 70
0
  1
PNOA-H_AMS_1956-57_33k_ES_PAN_21mic_H50_0531_fot_63B-34865_W.tif
  2
NAME
  10
362553.021
  20
4499866.249
 40
34.33116
  0
SEQEND
  0
POLYLINE
  8
LC_OH_2021_05_O7
  70
1
  66
1
  0
VERTEX
  8
LC_OH_2021_05_O7
  10
361580.505
  20
4501895.000
  0
VERTEX
  8
LC_OH_2021_05_O7
  10
363377.505
  20
4502107.000
  0
VERTEX
  8
LC_OH_2021_05_O7
  10
364080.005
  20
4501719.000
  0
VERTEX
  8
LC_OH_2021_05_O7
  10
363819.505
  20
4497970.500
  0
VERTEX
  8
LC_OH_2021_05_O7
  10
362347.505
  20
4497625.500
  0
VERTEX
  8
LC_OH_2021_05_O7
  10
361043.505
  20
4498149.500
  0
VERTEX
  8
LC_OH_2021_05_O7
  10
361284.005
  20
4501860.000
  0
VERTEX
  8
LC_OH_2021_05_O7
  10
361576.005
  20
4501894.500
  0
VERTEX
  8
LC_OH_2021_05_O7
  10
361580.505
  20
4501895.000
  0
SEQEND
  8
LC_OH_2021_05_O7
  0
INSERT
  8
FeatureAttribs
  2
FEATURE
  41
1
  42
1
  43
1
  50
0
  10
345605.612
  20
4500695.249
 66
1
  0
ATTRIB
  8
FeatureAttribs
 70
0
  1
PNOA-H_AMS_1956-57_33k_ES_PAN_21mic_H50_0531_fot_63B-34871_W.tif
  2
NAME
  10
345605.612
  20
4500695.249
 40
34.33116
  0
SEQEND
  0
POLYLINE
  8
LC_OH_2021_05_O7
  70
1
  66
1
  0
VERTEX
  8
LC_OH_2021_05_O7
  10
344351.003
  20
4502742.500
  0
VERTEX
  8
LC_OH_2021_05_O7
  10
345195.004
  20
4502707.000
  0
VERTEX
  8
LC_OH_2021_05_O7
  10
345199.504
  20
4502707.000
  0
VERTEX
  8
LC_OH_2021_05_O7
  10
347038.004
  20
4502630.500
  0
VERTEX
  8
LC_OH_2021_05_O7
  10
346901.004
  20
4498839.500
  0
VERTEX
  8
LC_OH_2021_05_O7
  10
346819.004
  20
4498800.500
  0
VERTEX
  8
LC_OH_2021_05_O7
  10
346197.004
  20
4498648.000
  0
VERTEX
  8
LC_OH_2021_05_O7
  10
344152.503
  20
4498975.000
  0
SEQEND
  8
LC_OH_2021_05_O7
  0
INSERT
  8
FeatureAttribs
  2
FEATURE
  41
1
  42
1
  43
1
  50
0
  10
353987.626
  20
4500270.749
 66
1
  0
ATTRIB
  8
FeatureAttribs
 70
0
  1
PNOA-H_AMS_1956-57_33k_ES_PAN_21mic_H50_0531_fot_63B-34868_W.tif
  2
NAME
  10
353987.626
  20
4500270.749
 40
34.33116
  0
SEQEND
  0
POLYLINE
  8
LC_OH_2021_05_O7
  70
1
  66
1
  0
VERTEX
  8
LC_OH_2021_05_O7
  10
353358.504
  20
4502379.500
  0
VERTEX
  8
LC_OH_2021_05_O7
  10
355276.504
  20
4502394.000
  0
VERTEX
  8
LC_OH_2021_05_O7
  10
355579.504
  20
4502167.500
  0
VERTEX
  8
LC_OH_2021_05_O7
  10
355313.504
  20
4498631.500
  0
VERTEX
  8
LC_OH_2021_05_O7
  10
353919.004
  20
4498147.500
  0
VERTEX
  8
LC_OH_2021_05_O7
  10
353915.004
  20
4498148.000
  0
VERTEX
  8
LC_OH_2021_05_O7
  10
353865.504
  20
4498166.000
  0
VERTEX
  8
LC_OH_2021_05_O7
  10
352476.004
  20
4498672.500
  0
VERTEX
  8
LC_OH_2021_05_O7
  10
352620.504
  20
4502373.500
  0
VERTEX
  8
LC_OH_2021_05_O7
  10
353294.504
  20
4502379.000
  0
VERTEX
  8
LC_OH_2021_05_O7
  10
353358.504
  20
4502379.500
  0
SEQEND
  8
LC_OH_2021_05_O7
  0
INSERT
  8
FeatureAttribs
  2
FEATURE
  41
1
  42
1
  43
1
  50
0
  10
359744.419
  20
4500044.749
 66
1
  0
ATTRIB
  8
FeatureAttribs
 70
0
  1
PNOA-H_AMS_1956-57_33k_ES_PAN_21mic_H50_0531_fot_63B-34866_W.tif
  2
NAME
  10
359744.419
  20
4500044.749
 40
34.33116
  0
SEQEND
  0
POLYLINE
  8
LC_OH_2021_05_O7
  70
1
  66
1
  0
VERTEX
  8
LC_OH_2021_05_O7
  10
360678.505
  20
4502211.000
  0
VERTEX
  8
LC_OH_2021_05_O7
  10
360682.505
  20
4502210.500
  0
VERTEX
  8
LC_OH_2021_05_O7
  10
361284.005
  20
4501860.000
  0
VERTEX
  8
LC_OH_2021_05_O7
  10
361044.005
  20
4498152.000
  0
VERTEX
  8
LC_OH_2021_05_O7
  10
361043.505
  20
4498149.500
  0
VERTEX
  8
LC_OH_2021_05_O7
  10
361039.005
  20
4498148.000
  0
VERTEX
  8
LC_OH_2021_05_O7
  10
360043.005
  20
4497878.500
  0
VERTEX
  8
LC_OH_2021_05_O7
  10
360003.505
  20
4497892.500
  0
VERTEX
  8
LC_OH_2021_05_O7
  10
358196.005
  20
4498573.000
  0
VERTEX
  8
LC_OH_2021_05_O7
  10
358490.005
  20
4501998.500
  0
VERTEX
  8
LC_OH_2021_05_O7
  10
358491.505
  20
4502001.500
  0
VERTEX
  8
LC_OH_2021_05_O7
  10
360673.505
  20
4502210.500
  0
VERTEX
  8
LC_OH_2021_05_O7
  10
360678.505
  20
4502211.000
  0
SEQEND
  8
LC_OH_2021_05_O7
  0
INSERT
  8
FeatureAttribs
  2
FEATURE
  41
1
  42
1
  43
1
  50
0
  10
369508.148
  20
4491457.499
 66
1
  0
ATTRIB
  8
FeatureAttribs
 70
0
  1
PNOA-H_AMS_1956-57_33k_ES_PAN_21mic_H50_0531_fot_65B-42118_W.tif
  2
NAME
  10
369508.148
  20
4491457.499
 40
34.33116
  0
SEQEND
  0
POLYLINE
  8
LC_OH_2021_05_O7
  70
1
  66
1
  0
VERTEX
  8
LC_OH_2021_05_O7
  10
368272.005
  20
4493259.000
  0
VERTEX
  8
LC_OH_2021_05_O7
  10
370206.506
  20
4493563.500
  0
VERTEX
  8
LC_OH_2021_05_O7
  10
370209.506
  20
4493564.000
  0
VERTEX
  8
LC_OH_2021_05_O7
  10
370212.506
  20
4493564.000
  0
VERTEX
  8
LC_OH_2021_05_O7
  10
370690.006
  20
4493288.000
  0
VERTEX
  8
LC_OH_2021_05_O7
  10
370694.506
  20
4493285.000
  0
VERTEX
  8
LC_OH_2021_05_O7
  10
370695.006
  20
4493281.500
  0
VERTEX
  8
LC_OH_2021_05_O7
  10
370790.006
  20
4491662.000
  0
VERTEX
  8
LC_OH_2021_05_O7
  10
370716.506
  20
4489745.500
  0
VERTEX
  8
LC_OH_2021_05_O7
  10
370715.506
  20
4489743.500
  0
VERTEX
  8
LC_OH_2021_05_O7
  10
370709.506
  20
4489741.000
  0
VERTEX
  8
LC_OH_2021_05_O7
  10
369707.506
  20
4489351.000
  0
VERTEX
  8
LC_OH_2021_05_O7
  10
368199.505
  20
4489810.500
  0
SEQEND
  8
LC_OH_2021_05_O7
  0
INSERT
  8
FeatureAttribs
  2
FEATURE
  41
1
  42
1
  43
1
  50
0
  10
348344.781
  20
4500571.750
 66
1
  0
ATTRIB
  8
FeatureAttribs
 70
0
  1
PNOA-H_AMS_1956-57_33k_ES_PAN_21mic_H50_0531_fot_63B-34870_W.tif
  2
NAME
  10
348344.781
  20
4500571.750
 40
34.33116
  0
SEQEND
  0
POLYLINE
  8
LC_OH_2021_05_O7
  70
1
  66
1
  0
VERTEX
  8
LC_OH_2021_05_O7
  10
347038.004
  20
4502630.500
  0
VERTEX
  8
LC_OH_2021_05_O7
  10
347046.504
  20
4502636.500
  0
VERTEX
  8
LC_OH_2021_05_O7
  10
347047.504
  20
4502637.000
  0
VERTEX
  8
LC_OH_2021_05_O7
  10
349788.004
  20
4502513.000
  0
VERTEX
  8
LC_OH_2021_05_O7
  10
349794.504
  20
4502512.500
  0
VERTEX
  8
LC_OH_2021_05_O7
  10
349796.504
  20
4502510.500
  0
VERTEX
  8
LC_OH_2021_05_O7
  10
349657.504
  20
4498690.000
  0
VERTEX
  8
LC_OH_2021_05_O7
  10
348958.004
  20
4498507.000
  0
VERTEX
  8
LC_OH_2021_05_O7
  10
348951.004
  20
4498506.500
  0
VERTEX
  8
LC_OH_2021_05_O7
  10
346901.004
  20
4498840.000
  0
SEQEND
  8
LC_OH_2021_05_O7
  0
INSERT
  8
FeatureAttribs
  2
FEATURE
  41
1
  42
1
  43
1
  50
0
  10
356883.373
  20
4500197.750
 66
1
  0
ATTRIB
  8
FeatureAttribs
 70
0
  1
PNOA-H_AMS_1956-57_33k_ES_PAN_21mic_H50_0531_fot_63B-34867_W.tif
  2
NAME
  10
356883.373
  20
4500197.750
 40
34.33116
  0
SEQEND
  0
POLYLINE
  8
LC_OH_2021_05_O7
  70
1
  66
1
  0
VERTEX
  8
LC_OH_2021_05_O7
  10
355439.004
  20
4500304.500
  0
VERTEX
  8
LC_OH_2021_05_O7
  10
355579.504
  20
4502167.500
  0
VERTEX
  8
LC_OH_2021_05_O7
  10
358008.005
  20
4502317.000
  0
VERTEX
  8
LC_OH_2021_05_O7
  10
358490.505
  20
4502001.500
  0
VERTEX
  8
LC_OH_2021_05_O7
  10
358195.505
  20
4498573.000
  0
VERTEX
  8
LC_OH_2021_05_O7
  10
356876.004
  20
4498082.000
  0
VERTEX
  8
LC_OH_2021_05_O7
  10
356866.504
  20
4498078.500
  0
VERTEX
  8
LC_OH_2021_05_O7
  10
356863.504
  20
4498078.500
  0
VERTEX
  8
LC_OH_2021_05_O7
  10
355314.004
  20
4498631.000
  0
VERTEX
  8
LC_OH_2021_05_O7
  10
355314.004
  20
4498642.500
  0
VERTEX
  8
LC_OH_2021_05_O7
  10
355439.004
  20
4500298.000
  0
VERTEX
  8
LC_OH_2021_05_O7
  10
355439.004
  20
4500304.500
  0
SEQEND
  8
LC_OH_2021_05_O7
  0
INSERT
  8
FeatureAttribs
  2
FEATURE
  41
1
  42
1
  43
1
  50
0
  10
366947.113
  20
4491517.999
 66
1
  0
ATTRIB
  8
FeatureAttribs
 70
0
  1
PNOA-H_AMS_1956-57_33k_ES_PAN_21mic_H50_0531_fot_65B-42119_W.tif
  2
NAME
  10
366947.113
  20
4491517.999
 40
34.33116
  0
SEQEND
  0
POLYLINE
  8
LC_OH_2021_05_O7
  70
1
  66
1
  0
VERTEX
  8
LC_OH_2021_05_O7
  10
365679.005
  20
4492560.000
  0
VERTEX
  8
LC_OH_2021_05_O7
  10
365695.005
  20
4493357.000
  0
VERTEX
  8
LC_OH_2021_05_O7
  10
367445.505
  20
4493683.500
  0
VERTEX
  8
LC_OH_2021_05_O7
  10
368272.005
  20
4493259.000
  0
VERTEX
  8
LC_OH_2021_05_O7
  10
368199.505
  20
4489810.500
  0
VERTEX
  8
LC_OH_2021_05_O7
  10
366960.505
  20
4489352.500
  0
VERTEX
  8
LC_OH_2021_05_O7
  10
366956.505
  20
4489353.000
  0
VERTEX
  8
LC_OH_2021_05_O7
  10
366935.505
  20
4489361.000
  0
VERTEX
  8
LC_OH_2021_05_O7
  10
365626.005
  20
4489864.000
  0
VERTEX
  8
LC_OH_2021_05_O7
  10
365679.005
  20
4492535.000
  0
VERTEX
  8
LC_OH_2021_05_O7
  10
365679.005
  20
4492560.000
  0
SEQEND
  8
LC_OH_2021_05_O7
  0
INSERT
  8
FeatureAttribs
  2
FEATURE
  41
1
  42
1
  43
1
  50
0
  10
353689.396
  20
4491858.750
 66
1
  0
ATTRIB
  8
FeatureAttribs
 70
0
  1
PNOA-H_AMS_1956-57_33k_ES_PAN_21mic_H50_0531_fot_65B-42124_W.tif
  2
NAME
  10
353689.396
  20
4491858.750
 40
34.33116
  0
SEQEND
  0
POLYLINE
  8
LC_OH_2021_05_O7
  70
1
  66
1
  0
VERTEX
  8
LC_OH_2021_05_O7
  10
353390.504
  20
4493824.000
  0
VERTEX
  8
LC_OH_2021_05_O7
  10
354212.504
  20
4493979.000
  0
VERTEX
  8
LC_OH_2021_05_O7
  10
355129.504
  20
4493570.500
  0
VERTEX
  8
LC_OH_2021_05_O7
  10
355043.004
  20
4490058.500
  0
VERTEX
  8
LC_OH_2021_05_O7
  10
354338.004
  20
4489738.500
  0
VERTEX
  8
LC_OH_2021_05_O7
  10
352266.504
  20
4490173.500
  0
VERTEX
  8
LC_OH_2021_05_O7
  10
352317.504
  20
4493621.000
  0
VERTEX
  8
LC_OH_2021_05_O7
  10
353387.504
  20
4493823.500
  0
VERTEX
  8
LC_OH_2021_05_O7
  10
353390.504
  20
4493824.000
  0
SEQEND
  8
LC_OH_2021_05_O7
  0
INSERT
  8
FeatureAttribs
  2
FEATURE
  41
1
  42
1
  43
1
  50
0
  10
359085.565
  20
4491729.499
 66
1
  0
ATTRIB
  8
FeatureAttribs
 70
0
  1
PNOA-H_AMS_1956-57_33k_ES_PAN_21mic_H50_0531_fot_65B-42122_W.tif
  2
NAME
  10
359085.565
  20
4491729.499
 40
34.33116
  0
SEQEND
  0
POLYLINE
  8
LC_OH_2021_05_O7
  70
1
  66
1
  0
VERTEX
  8
LC_OH_2021_05_O7
  10
359541.005
  20
4493941.000
  0
VERTEX
  8
LC_OH_2021_05_O7
  10
360393.505
  20
4493569.500
  0
VERTEX
  8
LC_OH_2021_05_O7
  10
360404.505
  20
4489901.000
  0
VERTEX
  8
LC_OH_2021_05_O7
  10
359121.505
  20
4489518.000
  0
VERTEX
  8
LC_OH_2021_05_O7
  10
357776.004
  20
4489977.500
  0
VERTEX
  8
LC_OH_2021_05_O7
  10
357768.004
  20
4493575.000
  0
VERTEX
  8
LC_OH_2021_05_O7
  10
359538.505
  20
4493940.500
  0
VERTEX
  8
LC_OH_2021_05_O7
  10
359541.005
  20
4493941.000
  0
SEQEND
  8
LC_OH_2021_05_O7
  0
INSERT
  8
FeatureAttribs
  2
FEATURE
  41
1
  42
1
  43
1
  50
0
  10
361718.077
  20
4491682.999
 66
1
  0
ATTRIB
  8
FeatureAttribs
 70
0
  1
PNOA-H_AMS_1956-57_33k_ES_PAN_21mic_H50_0531_fot_65B-42121_W.tif
  2
NAME
  10
361718.077
  20
4491682.999
 40
34.33116
  0
SEQEND
  0
POLYLINE
  8
LC_OH_2021_05_O7
  70
1
  66
1
  0
VERTEX
  8
LC_OH_2021_05_O7
  10
362125.005
  20
4493894.500
  0
VERTEX
  8
LC_OH_2021_05_O7
  10
362130.005
  20
4493894.000
  0
VERTEX
  8
LC_OH_2021_05_O7
  10
363089.005
  20
4493452.000
  0
VERTEX
  8
LC_OH_2021_05_O7
  10
362983.505
  20
4489865.000
  0
VERTEX
  8
LC_OH_2021_05_O7
  10
361583.005
  20
4489471.500
  0
VERTEX
  8
LC_OH_2021_05_O7
  10
361580.005
  20
4489471.500
  0
VERTEX
  8
LC_OH_2021_05_O7
  10
361560.505
  20
4489478.500
  0
VERTEX
  8
LC_OH_2021_05_O7
  10
360404.505
  20
4489901.000
  0
VERTEX
  8
LC_OH_2021_05_O7
  10
360393.505
  20
4493569.500
  0
VERTEX
  8
LC_OH_2021_05_O7
  10
362122.505
  20
4493894.000
  0
VERTEX
  8
LC_OH_2021_05_O7
  10
362125.005
  20
4493894.500
  0
SEQEND
  8
LC_OH_2021_05_O7
  0
INSERT
  8
FeatureAttribs
  2
FEATURE
  41
1
  42
1
  43
1
  50
0
  10
364347.533
  20
4491602.250
 66
1
  0
ATTRIB
  8
FeatureAttribs
 70
0
  1
PNOA-H_AMS_1956-57_33k_ES_PAN_21mic_H50_0531_fot_65B-42120_W.tif
  2
NAME
  10
364347.533
  20
4491602.250
 40
34.33116
  0
SEQEND
  0
POLYLINE
  8
LC_OH_2021_05_O7
  70
1
  66
1
  0
VERTEX
  8
LC_OH_2021_05_O7
  10
365679.505
  20
4493364.000
  0
VERTEX
  8
LC_OH_2021_05_O7
  10
365695.005
  20
4493357.000
  0
VERTEX
  8
LC_OH_2021_05_O7
  10
365695.005
  20
4493347.500
  0
VERTEX
  8
LC_OH_2021_05_O7
  10
365626.005
  20
4489864.000
  0
VERTEX
  8
LC_OH_2021_05_O7
  10
364112.505
  20
4489418.000
  0
VERTEX
  8
LC_OH_2021_05_O7
  10
362983.505
  20
4489864.500
  0
VERTEX
  8
LC_OH_2021_05_O7
  10
363089.005
  20
4493452.000
  0
VERTEX
  8
LC_OH_2021_05_O7
  10
364775.005
  20
4493786.500
  0
VERTEX
  8
LC_OH_2021_05_O7
  10
365678.005
  20
4493364.500
  0
VERTEX
  8
LC_OH_2021_05_O7
  10
365679.505
  20
4493364.000
  0
SEQEND
  8
LC_OH_2021_05_O7
  0
INSERT
  8
FeatureAttribs
  2
FEATURE
  41
1
  42
1
  43
1
  50
0
  10
350864.676
  20
4492011.499
 66
1
  0
ATTRIB
  8
FeatureAttribs
 70
0
  1
PNOA-H_AMS_1956-57_33k_ES_PAN_21mic_H50_0531_fot_65B-42125_W.tif
  2
NAME
  10
350864.676
  20
4492011.499
 40
34.33116
  0
SEQEND
  0
POLYLINE
  8
LC_OH_2021_05_O7
  70
1
  66
1
  0
VERTEX
  8
LC_OH_2021_05_O7
  10
351381.504
  20
4494082.000
  0
VERTEX
  8
LC_OH_2021_05_O7
  10
351386.504
  20
4494082.000
  0
VERTEX
  8
LC_OH_2021_05_O7
  10
351407.004
  20
4494072.000
  0
VERTEX
  8
LC_OH_2021_05_O7
  10
352317.504
  20
4493621.000
  0
VERTEX
  8
LC_OH_2021_05_O7
  10
352266.504
  20
4490173.500
  0
VERTEX
  8
LC_OH_2021_05_O7
  10
351874.004
  20
4489941.000
  0
VERTEX
  8
LC_OH_2021_05_O7
  10
349562.504
  20
4490076.000
  0
VERTEX
  8
LC_OH_2021_05_O7
  10
349406.504
  20
4490194.500
  0
VERTEX
  8
LC_OH_2021_05_O7
  10
349464.004
  20
4493777.000
  0
VERTEX
  8
LC_OH_2021_05_O7
  10
349898.504
  20
4493905.500
  0
VERTEX
  8
LC_OH_2021_05_O7
  10
351377.004
  20
4494081.500
  0
VERTEX
  8
LC_OH_2021_05_O7
  10
351381.504
  20
4494082.000
  0
SEQEND
  8
LC_OH_2021_05_O7
  0
INSERT
  8
FeatureAttribs
  2
FEATURE
  41
1
  42
1
  43
1
  50
0
  10
345256.318
  20
4492119.001
 66
1
  0
ATTRIB
  8
FeatureAttribs
 70
0
  1
PNOA-H_AMS_1956-57_33k_ES_PAN_21mic_H50_0531_fot_65B-42127_W.tif
  2
NAME
  10
345256.318
  20
4492119.001
 40
34.33116
  0
SEQEND
  0
POLYLINE
  8
LC_OH_2021_05_O7
  70
1
  66
1
  0
VERTEX
  8
LC_OH_2021_05_O7
  10
344939.503
  20
4494234.500
  0
VERTEX
  8
LC_OH_2021_05_O7
  10
345376.504
  20
4494268.000
  0
VERTEX
  8
LC_OH_2021_05_O7
  10
345383.004
  20
4494268.500
  0
VERTEX
  8
LC_OH_2021_05_O7
  10
345389.504
  20
4494268.000
  0
VERTEX
  8
LC_OH_2021_05_O7
  10
346636.004
  20
4493896.500
  0
VERTEX
  8
LC_OH_2021_05_O7
  10
346671.004
  20
4490307.500
  0
VERTEX
  8
LC_OH_2021_05_O7
  10
344882.003
  20
4489969.500
  0
VERTEX
  8
LC_OH_2021_05_O7
  10
344879.003
  20
4489969.500
  0
VERTEX
  8
LC_OH_2021_05_O7
  10
344872.503
  20
4489972.500
  0
VERTEX
  8
LC_OH_2021_05_O7
  10
343871.503
  20
4490449.000
  0
VERTEX
  8
LC_OH_2021_05_O7
  10
343846.503
  20
4493869.000
  0
SEQEND
  8
LC_OH_2021_05_O7
  0
INSERT
  8
FeatureAttribs
  2
FEATURE
  41
1
  42
1
  43
1
  50
0
  10
356428.549
  20
4491765.750
 66
1
  0
ATTRIB
  8
FeatureAttribs
 70
0
  1
PNOA-H_AMS_1956-57_33k_ES_PAN_21mic_H50_0531_fot_65B-42123_W.tif
  2
NAME
  10
356428.549
  20
4491765.750
 40
34.33116
  0
SEQEND
  0
POLYLINE
  8
LC_OH_2021_05_O7
  70
1
  66
1
  0
VERTEX
  8
LC_OH_2021_05_O7
  10
355439.004
  20
4493635.000
  0
VERTEX
  8
LC_OH_2021_05_O7
  10
356900.504
  20
4493939.500
  0
VERTEX
  8
LC_OH_2021_05_O7
  10
357768.004
  20
4493575.000
  0
VERTEX
  8
LC_OH_2021_05_O7
  10
357776.004
  20
4489977.000
  0
VERTEX
  8
LC_OH_2021_05_O7
  10
356693.004
  20
4489592.000
  0
VERTEX
  8
LC_OH_2021_05_O7
  10
356679.504
  20
4489595.000
  0
VERTEX
  8
LC_OH_2021_05_O7
  10
355043.004
  20
4490058.000
  0
VERTEX
  8
LC_OH_2021_05_O7
  10
355129.504
  20
4493570.500
  0
VERTEX
  8
LC_OH_2021_05_O7
  10
355436.504
  20
4493634.500
  0
VERTEX
  8
LC_OH_2021_05_O7
  10
355439.004
  20
4493635.000
  0
SEQEND
  8
LC_OH_2021_05_O7
  0
INSERT
  8
FeatureAttribs
  2
FEATURE
  41
1
  42
1
  43
1
  50
0
  10
348045.301
  20
4492100.749
 66
1
  0
ATTRIB
  8
FeatureAttribs
 70
0
  1
PNOA-H_AMS_1956-57_33k_ES_PAN_21mic_H50_0531_fot_65B-42126_W.tif
  2
NAME
  10
348045.301
  20
4492100.749
 40
34.33116
  0
SEQEND
  0
POLYLINE
  8
LC_OH_2021_05_O7
  70
1
  66
1
  0
VERTEX
  8
LC_OH_2021_05_O7
  10
347246.004
  20
4494070.500
  0
VERTEX
  8
LC_OH_2021_05_O7
  10
347534.004
  20
4494152.500
  0
VERTEX
  8
LC_OH_2021_05_O7
  10
348236.504
  20
4494202.000
  0
VERTEX
  8
LC_OH_2021_05_O7
  10
349464.004
  20
4493777.000
  0
VERTEX
  8
LC_OH_2021_05_O7
  10
349406.504
  20
4490194.500
  0
VERTEX
  8
LC_OH_2021_05_O7
  10
347170.504
  20
4489999.500
  0
VERTEX
  8
LC_OH_2021_05_O7
  10
346671.004
  20
4490307.500
  0
VERTEX
  8
LC_OH_2021_05_O7
  10
346636.004
  20
4493896.500
  0
VERTEX
  8
LC_OH_2021_05_O7
  10
347244.504
  20
4494070.000
  0
VERTEX
  8
LC_OH_2021_05_O7
  10
347246.004
  20
4494070.500
  0
SEQEND
  8
LC_OH_2021_05_O7
  0
INSERT
  8
FeatureAttribs
  2
FEATURE
  41
1
  42
1
  43
1
  50
0
  10
370986.167
  20
4490629.613
 66
1
  0
ATTRIB
  8
FeatureAttribs
 70
0
  1
PNOA-H_AMS_1956-57_33k_ES_PAN_21mic_H50_0532_fot_65B-42117_W.tif
  2
NAME
  10
370986.167
  20
4490629.613
 40
34.33116
  0
SEQEND
  0
POLYLINE
  8
LC_OH_2021_05_O7
  70
1
  66
1
  0
VERTEX
  8
LC_OH_2021_05_O7
  10
371256.329
  20
4491598.721
  0
VERTEX
  8
LC_OH_2021_05_O7
  10
371251.232
  20
4491303.546
  0
VERTEX
  8
LC_OH_2021_05_O7
  10
371221.865
  20
4489602.226
  0
VERTEX
  8
LC_OH_2021_05_O7
  10
370716.006
  20
4489744.000
  0
VERTEX
  8
LC_OH_2021_05_O7
  10
370790.006
  20
4491649.000
  0
VERTEX
  8
LC_OH_2021_05_O7
  10
370790.006
  20
4491657.000
  0
SEQEND
  8
LC_OH_2021_05_O7
  0
INSERT
  8
FeatureAttribs
  2
FEATURE
  41
1
  42
1
  43
1
  50
0
  10
345077.771
  20
4496604.749
 66
1
  0
ATTRIB
  8
FeatureAttribs
 70
0
  1
PNOA-H_AMS_1956-57_33k_ES_PAN_21mic_H50_0531_fot_64B-11920_E.tif
  2
NAME
  10
345077.771
  20
4496604.749
 40
34.33116
  0
SEQEND
  0
POLYLINE
  8
LC_OH_2021_05_O7
  70
1
  66
1
  0
VERTEX
  8
LC_OH_2021_05_O7
  10
344152.003
  20
4498975.000
  0
VERTEX
  8
LC_OH_2021_05_O7
  10
345198.504
  20
4498807.500
  0
VERTEX
  8
LC_OH_2021_05_O7
  10
345199.504
  20
4498807.500
  0
VERTEX
  8
LC_OH_2021_05_O7
  10
346187.504
  20
4498650.000
  0
VERTEX
  8
LC_OH_2021_05_O7
  10
346196.504
  20
4498648.500
  0
VERTEX
  8
LC_OH_2021_05_O7
  10
346197.004
  20
4498647.000
  0
VERTEX
  8
LC_OH_2021_05_O7
  10
345387.004
  20
4494269.000
  0
VERTEX
  8
LC_OH_2021_05_O7
  10
344946.003
  20
4494234.500
  0
VERTEX
  8
LC_OH_2021_05_O7
  10
344939.003
  20
4494234.500
  0
VERTEX
  8
LC_OH_2021_05_O7
  10
344938.503
  20
4494236.000
  0
VERTEX
  8
LC_OH_2021_05_O7
  10
343778.503
  20
4498799.500
  0
SEQEND
  8
LC_OH_2021_05_O7
  0
INSERT
  8
FeatureAttribs
  2
FEATURE
  41
1
  42
1
  43
1
  50
0
  10
347896.623
  20
4496496.249
 66
1
  0
ATTRIB
  8
FeatureAttribs
 70
0
  1
PNOA-H_AMS_1956-57_33k_ES_PAN_21mic_H50_0531_fot_64B-11921_E.tif
  2
NAME
  10
347896.623
  20
4496496.249
 40
34.33116
  0
SEQEND
  0
POLYLINE
  8
LC_OH_2021_05_O7
  70
1
  66
1
  0
VERTEX
  8
LC_OH_2021_05_O7
  10
347247.504
  20
4498783.500
  0
VERTEX
  8
LC_OH_2021_05_O7
  10
348954.004
  20
4498506.500
  0
VERTEX
  8
LC_OH_2021_05_O7
  10
348236.004
  20
4494202.000
  0
VERTEX
  8
LC_OH_2021_05_O7
  10
347538.504
  20
4494152.500
  0
VERTEX
  8
LC_OH_2021_05_O7
  10
347535.004
  20
4494152.500
  0
VERTEX
  8
LC_OH_2021_05_O7
  10
347534.504
  20
4494153.500
  0
VERTEX
  8
LC_OH_2021_05_O7
  10
346820.504
  20
4498800.500
  0
VERTEX
  8
LC_OH_2021_05_O7
  10
346820.504
  20
4498801.500
  0
VERTEX
  8
LC_OH_2021_05_O7
  10
346901.504
  20
4498840.000
  0
VERTEX
  8
LC_OH_2021_05_O7
  10
347246.004
  20
4498783.500
  0
VERTEX
  8
LC_OH_2021_05_O7
  10
347247.504
  20
4498783.500
  0
SEQEND
  8
LC_OH_2021_05_O7
  0
INSERT
  8
FeatureAttribs
  2
FEATURE
  41
1
  42
1
  43
1
  50
0
  10
350655.605
  20
4496242.000
 66
1
  0
ATTRIB
  8
FeatureAttribs
 70
0
  1
PNOA-H_AMS_1956-57_33k_ES_PAN_21mic_H50_0531_fot_64B-11922_E.tif
  2
NAME
  10
350655.605
  20
4496242.000
 40
34.33116
  0
SEQEND
  0
POLYLINE
  8
LC_OH_2021_05_O7
  70
1
  66
1
  0
VERTEX
  8
LC_OH_2021_05_O7
  10
351379.504
  20
4496062.500
  0
VERTEX
  8
LC_OH_2021_05_O7
  10
351405.504
  20
4494257.500
  0
VERTEX
  8
LC_OH_2021_05_O7
  10
351405.504
  20
4494245.000
  0
VERTEX
  8
LC_OH_2021_05_O7
  10
351385.504
  20
4494082.000
  0
VERTEX
  8
LC_OH_2021_05_O7
  10
349897.004
  20
4493905.000
  0
VERTEX
  8
LC_OH_2021_05_O7
  10
349971.004
  20
4498579.000
  0
VERTEX
  8
LC_OH_2021_05_O7
  10
351347.004
  20
4498337.500
  0
VERTEX
  8
LC_OH_2021_05_O7
  10
351379.504
  20
4496082.000
  0
VERTEX
  8
LC_OH_2021_05_O7
  10
351379.504
  20
4496062.500
  0
SEQEND
  8
LC_OH_2021_05_O7
  0
INSERT
  8
FeatureAttribs
  2
FEATURE
  41
1
  42
1
  43
1
  50
0
  10
353344.923
  20
4495756.750
 66
1
  0
ATTRIB
  8
FeatureAttribs
 70
0
  1
PNOA-H_AMS_1956-57_33k_ES_PAN_21mic_H50_0531_fot_64B-11923_E.tif
  2
NAME
  10
353344.923
  20
4495756.750
 40
34.33116
  0
SEQEND
  0
POLYLINE
  8
LC_OH_2021_05_O7
  70
1
  66
1
  0
VERTEX
  8
LC_OH_2021_05_O7
  10
353921.004
  20
4497892.500
  0
VERTEX
  8
LC_OH_2021_05_O7
  10
353922.004
  20
4497892.500
  0
VERTEX
  8
LC_OH_2021_05_O7
  10
353923.504
  20
4497883.000
  0
VERTEX
  8
LC_OH_2021_05_O7
  10
354243.004
  20
4495795.000
  0
VERTEX
  8
LC_OH_2021_05_O7
  10
354211.504
  20
4493979.000
  0
VERTEX
  8
LC_OH_2021_05_O7
  10
352317.004
  20
4493621.000
  0
VERTEX
  8
LC_OH_2021_05_O7
  10
351385.504
  20
4494082.000
  0
VERTEX
  8
LC_OH_2021_05_O7
  10
351405.504
  20
4494247.000
  0
VERTEX
  8
LC_OH_2021_05_O7
  10
353920.504
  20
4497891.000
  0
VERTEX
  8
LC_OH_2021_05_O7
  10
353921.004
  20
4497892.500
  0
SEQEND
  8
LC_OH_2021_05_O7
  0
INSERT
  8
FeatureAttribs
  2
FEATURE
  41
1
  42
1
  43
1
  50
0
  10
355563.589
  20
4494984.000
 66
1
  0
ATTRIB
  8
FeatureAttribs
 70
0
  1
PNOA-H_AMS_1956-57_33k_ES_PAN_21mic_H50_0531_fot_64B-11924_E.tif
  2
NAME
  10
355563.589
  20
4494984.000
 40
34.33116
  0
SEQEND
  0
POLYLINE
  8
LC_OH_2021_05_O7
  70
1
  66
1
  0
VERTEX
  8
LC_OH_2021_05_O7
  10
356893.504
  20
4496397.500
  0
VERTEX
  8
LC_OH_2021_05_O7
  10
356895.504
  20
4496397.500
  0
VERTEX
  8
LC_OH_2021_05_O7
  10
356896.004
  20
4496191.000
  0
VERTEX
  8
LC_OH_2021_05_O7
  10
356900.004
  20
4494007.000
  0
VERTEX
  8
LC_OH_2021_05_O7
  10
356900.004
  20
4493939.500
  0
VERTEX
  8
LC_OH_2021_05_O7
  10
356899.004
  20
4493939.000
  0
VERTEX
  8
LC_OH_2021_05_O7
  10
355134.504
  20
4493571.000
  0
VERTEX
  8
LC_OH_2021_05_O7
  10
355128.004
  20
4493570.500
  0
VERTEX
  8
LC_OH_2021_05_O7
  10
354211.504
  20
4493979.000
  0
VERTEX
  8
LC_OH_2021_05_O7
  10
354243.004
  20
4495792.000
  0
VERTEX
  8
LC_OH_2021_05_O7
  10
356891.504
  20
4496397.000
  0
VERTEX
  8
LC_OH_2021_05_O7
  10
356893.504
  20
4496397.500
  0
SEQEND
  8
LC_OH_2021_05_O7
  0
INSERT
  8
FeatureAttribs
  2
FEATURE
  41
1
  42
1
  43
1
  50
0
  10
358228.787
  20
4495051.001
 66
1
  0
ATTRIB
  8
FeatureAttribs
 70
0
  1
PNOA-H_AMS_1956-57_33k_ES_PAN_21mic_H50_0531_fot_64B-11925_E.tif
  2
NAME
  10
358228.787
  20
4495051.001
 40
34.33116
  0
SEQEND
  0
POLYLINE
  8
LC_OH_2021_05_O7
  70
1
  66
1
  0
VERTEX
  8
LC_OH_2021_05_O7
  10
356915.504
  20
4496527.000
  0
VERTEX
  8
LC_OH_2021_05_O7
  10
359571.005
  20
4495771.000
  0
VERTEX
  8
LC_OH_2021_05_O7
  10
359542.005
  20
4493941.000
  0
VERTEX
  8
LC_OH_2021_05_O7
  10
357767.004
  20
4493575.000
  0
VERTEX
  8
LC_OH_2021_05_O7
  10
356900.004
  20
4493939.500
  0
VERTEX
  8
LC_OH_2021_05_O7
  10
356895.504
  20
4496400.000
  0
VERTEX
  8
LC_OH_2021_05_O7
  10
356915.504
  20
4496525.000
  0
VERTEX
  8
LC_OH_2021_05_O7
  10
356915.504
  20
4496527.000
  0
SEQEND
  8
LC_OH_2021_05_O7
  0
INSERT
  8
FeatureAttribs
  2
FEATURE
  41
1
  42
1
  43
1
  50
0
  10
360916.801
  20
4495859.500
 66
1
  0
ATTRIB
  8
FeatureAttribs
 70
0
  1
PNOA-H_AMS_1956-57_33k_ES_PAN_21mic_H50_0531_fot_64B-11926_E.tif
  2
NAME
  10
360916.801
  20
4495859.500
 40
34.33116
  0
SEQEND
  0
POLYLINE
  8
LC_OH_2021_05_O7
  70
1
  66
1
  0
VERTEX
  8
LC_OH_2021_05_O7
  10
362134.505
  20
4494014.500
  0
VERTEX
  8
LC_OH_2021_05_O7
  10
362127.505
  20
4493894.500
  0
VERTEX
  8
LC_OH_2021_05_O7
  10
360395.505
  20
4493569.500
  0
VERTEX
  8
LC_OH_2021_05_O7
  10
360391.505
  20
4493570.000
  0
VERTEX
  8
LC_OH_2021_05_O7
  10
359542.005
  20
4493941.000
  0
VERTEX
  8
LC_OH_2021_05_O7
  10
359571.005
  20
4495772.000
  0
VERTEX
  8
LC_OH_2021_05_O7
  10
360041.505
  20
4497878.500
  0
VERTEX
  8
LC_OH_2021_05_O7
  10
361042.505
  20
4498149.500
  0
VERTEX
  8
LC_OH_2021_05_O7
  10
362347.005
  20
4497625.500
  0
VERTEX
  8
LC_OH_2021_05_O7
  10
362134.505
  20
4494016.000
  0
VERTEX
  8
LC_OH_2021_05_O7
  10
362134.505
  20
4494014.500
  0
SEQEND
  8
LC_OH_2021_05_O7
  0
INSERT
  8
FeatureAttribs
  2
FEATURE
  41
1
  42
1
  43
1
  50
0
  10
366222.720
  20
4495566.999
 66
1
  0
ATTRIB
  8
FeatureAttribs
 70
0
  1
PNOA-H_AMS_1956-57_33k_ES_PAN_21mic_H50_0531_fot_64B-11928_E.tif
  2
NAME
  10
366222.720
  20
4495566.999
 40
34.33116
  0
SEQEND
  0
POLYLINE
  8
LC_OH_2021_05_O7
  70
1
  66
1
  0
VERTEX
  8
LC_OH_2021_05_O7
  10
366534.505
  20
4497777.000
  0
VERTEX
  8
LC_OH_2021_05_O7
  10
367677.505
  20
4497275.000
  0
VERTEX
  8
LC_OH_2021_05_O7
  10
367447.005
  20
4493709.000
  0
VERTEX
  8
LC_OH_2021_05_O7
  10
367445.505
  20
4493686.000
  0
VERTEX
  8
LC_OH_2021_05_O7
  10
367444.005
  20
4493683.000
  0
VERTEX
  8
LC_OH_2021_05_O7
  10
365694.005
  20
4493357.000
  0
VERTEX
  8
LC_OH_2021_05_O7
  10
364774.005
  20
4493786.500
  0
VERTEX
  8
LC_OH_2021_05_O7
  10
364989.005
  20
4497456.000
  0
VERTEX
  8
LC_OH_2021_05_O7
  10
366532.005
  20
4497776.500
  0
VERTEX
  8
LC_OH_2021_05_O7
  10
366534.505
  20
4497777.000
  0
SEQEND
  8
LC_OH_2021_05_O7
  0
INSERT
  8
FeatureAttribs
  2
FEATURE
  41
1
  42
1
  43
1
  50
0
  10
363560.683
  20
4495711.248
 66
1
  0
ATTRIB
  8
FeatureAttribs
 70
0
  1
PNOA-H_AMS_1956-57_33k_ES_PAN_21mic_H50_0531_fot_64B-11927_E.tif
  2
NAME
  10
363560.683
  20
4495711.248
 40
34.33116
  0
SEQEND
  0
POLYLINE
  8
LC_OH_2021_05_O7
  70
1
  66
1
  0
VERTEX
  8
LC_OH_2021_05_O7
  10
363819.005
  20
4497970.500
  0
VERTEX
  8
LC_OH_2021_05_O7
  10
364989.005
  20
4497456.000
  0
VERTEX
  8
LC_OH_2021_05_O7
  10
364774.505
  20
4493788.000
  0
VERTEX
  8
LC_OH_2021_05_O7
  10
364774.005
  20
4493786.500
  0
VERTEX
  8
LC_OH_2021_05_O7
  10
364772.005
  20
4493786.000
  0
VERTEX
  8
LC_OH_2021_05_O7
  10
363088.005
  20
4493452.000
  0
VERTEX
  8
LC_OH_2021_05_O7
  10
362127.505
  20
4493894.500
  0
VERTEX
  8
LC_OH_2021_05_O7
  10
362347.005
  20
4497625.500
  0
VERTEX
  8
LC_OH_2021_05_O7
  10
363816.505
  20
4497970.000
  0
VERTEX
  8
LC_OH_2021_05_O7
  10
363819.005
  20
4497970.500
  0
SEQEND
  8
LC_OH_2021_05_O7
  0
INSERT
  8
FeatureAttribs
  2
FEATURE
  41
1
  42
1
  43
1
  50
0
  10
368929.910
  20
4495430.750
 66
1
  0
ATTRIB
  8
FeatureAttribs
 70
0
  1
PNOA-H_AMS_1956-57_33k_ES_PAN_21mic_H50_0531_fot_64B-11929_E.tif
  2
NAME
  10
368929.910
  20
4495430.750
 40
34.33116
  0
SEQEND
  0
POLYLINE
  8
LC_OH_2021_05_O7
  70
1
  66
1
  0
VERTEX
  8
LC_OH_2021_05_O7
  10
367677.505
  20
4497274.500
  0
VERTEX
  8
LC_OH_2021_05_O7
  10
367723.505
  20
4497285.000
  0
VERTEX
  8
LC_OH_2021_05_O7
  10
367726.005
  20
4497285.500
  0
VERTEX
  8
LC_OH_2021_05_O7
  10
369115.506
  20
4497593.500
  0
VERTEX
  8
LC_OH_2021_05_O7
  10
369160.006
  20
4497602.500
  0
VERTEX
  8
LC_OH_2021_05_O7
  10
370381.506
  20
4497092.500
  0
VERTEX
  8
LC_OH_2021_05_O7
  10
370212.506
  20
4493575.000
  0
VERTEX
  8
LC_OH_2021_05_O7
  10
370212.006
  20
4493565.000
  0
VERTEX
  8
LC_OH_2021_05_O7
  10
370209.506
  20
4493563.500
  0
VERTEX
  8
LC_OH_2021_05_O7
  10
368271.505
  20
4493259.000
  0
VERTEX
  8
LC_OH_2021_05_O7
  10
367445.005
  20
4493683.500
  0
SEQEND
  8
LC_OH_2021_05_O7
  0
INSERT
  8
FeatureAttribs
  2
FEATURE
  41
1
  42
1
  43
1
  50
0
  10
370783.567
  20
4495315.967
 66
1
  0
ATTRIB
  8
FeatureAttribs
 70
0
  1
PNOA-H_AMS_1956-57_33k_ES_PAN_21mic_H50_0532_fot_64B-11930_E.tif
  2
NAME
  10
370783.567
  20
4495315.967
 40
34.33116
  0
SEQEND
  0
POLYLINE
  8
LC_OH_2021_05_O7
  70
1
  66
1
  0
VERTEX
  8
LC_OH_2021_05_O7
  10
371286.577
  20
4493350.375
  0
VERTEX
  8
LC_OH_2021_05_O7
  10
370694.006
  20
4493285.000
  0
VERTEX
  8
LC_OH_2021_05_O7
  10
370211.506
  20
4493564.000
  0
VERTEX
  8
LC_OH_2021_05_O7
  10
370381.506
  20
4497092.000
  0
VERTEX
  8
LC_OH_2021_05_O7
  10
371355.629
  20
4497346.934
  0
VERTEX
  8
LC_OH_2021_05_O7
  10
371331.120
  20
4495928.859
  0
VERTEX
  8
LC_OH_2021_05_O7
  10
371291.168
  20
4493616.199
  0
SEQEND
  8
LC_OH_2021_05_O7
  0
INSERT
  8
FeatureAttribs
  2
FEATURE
  41
1
  42
1
  43
1
  50
0
  10
365545.415
  20
4487873.249
 66
1
  0
ATTRIB
  8
FeatureAttribs
 70
0
  1
PNOA-H_AMS_1956-57_33k_ES_PAN_21mic_H50_0531_fot_66A-18822_E.tif
  2
NAME
  10
365545.415
  20
4487873.249
 40
34.33116
  0
SEQEND
  0
POLYLINE
  8
LC_OH_2021_05_O7
  70
1
  66
1
  0
VERTEX
  8
LC_OH_2021_05_O7
  10
365623.505
  20
4489863.500
  0
VERTEX
  8
LC_OH_2021_05_O7
  10
365625.005
  20
4489864.000
  0
VERTEX
  8
LC_OH_2021_05_O7
  10
365652.005
  20
4489854.500
  0
VERTEX
  8
LC_OH_2021_05_O7
  10
366959.005
  20
4489352.500
  0
VERTEX
  8
LC_OH_2021_05_O7
  10
366909.505
  20
4486264.500
  0
VERTEX
  8
LC_OH_2021_05_O7
  10
364761.005
  20
4485882.500
  0
VERTEX
  8
LC_OH_2021_05_O7
  10
364200.505
  20
4486219.500
  0
VERTEX
  8
LC_OH_2021_05_O7
  10
364113.505
  20
4489418.000
  0
VERTEX
  8
LC_OH_2021_05_O7
  10
365623.505
  20
4489863.500
  0
SEQEND
  8
LC_OH_2021_05_O7
  0
INSERT
  8
FeatureAttribs
  2
FEATURE
  41
1
  42
1
  43
1
  50
0
  10
368311.369
  20
4487871.999
 66
1
  0
ATTRIB
  8
FeatureAttribs
 70
0
  1
PNOA-H_AMS_1956-57_33k_ES_PAN_21mic_H50_0531_fot_66A-18821_E.tif
  2
NAME
  10
368311.369
  20
4487871.999
 40
34.33116
  0
SEQEND
  0
POLYLINE
  8
LC_OH_2021_05_O7
  70
1
  66
1
  0
VERTEX
  8
LC_OH_2021_05_O7
  10
366959.005
  20
4489352.500
  0
VERTEX
  8
LC_OH_2021_05_O7
  10
367724.505
  20
4489635.500
  0
VERTEX
  8
LC_OH_2021_05_O7
  10
367726.005
  20
4489636.000
  0
VERTEX
  8
LC_OH_2021_05_O7
  10
368191.005
  20
4489808.000
  0
VERTEX
  8
LC_OH_2021_05_O7
  10
368201.005
  20
4489810.500
  0
VERTEX
  8
LC_OH_2021_05_O7
  10
369707.006
  20
4489351.000
  0
VERTEX
  8
LC_OH_2021_05_O7
  10
369664.506
  20
4486138.500
  0
VERTEX
  8
LC_OH_2021_05_O7
  10
367390.505
  20
4485933.500
  0
VERTEX
  8
LC_OH_2021_05_O7
  10
366909.505
  20
4486264.500
  0
VERTEX
  8
LC_OH_2021_05_O7
  10
366959.005
  20
4489352.500
  0
SEQEND
  8
LC_OH_2021_05_O7
  0
INSERT
  8
FeatureAttribs
  2
FEATURE
  41
1
  42
1
  43
1
  50
0
  10
360292.849
  20
4487891.999
 66
1
  0
ATTRIB
  8
FeatureAttribs
 70
0
  1
PNOA-H_AMS_1956-57_33k_ES_PAN_21mic_H50_0531_fot_66A-18824_E.tif
  2
NAME
  10
360292.849
  20
4487891.999
 40
34.33116
  0
SEQEND
  0
POLYLINE
  8
LC_OH_2021_05_O7
  70
1
  66
1
  0
VERTEX
  8
LC_OH_2021_05_O7
  10
359534.005
  20
4489641.500
  0
VERTEX
  8
LC_OH_2021_05_O7
  10
360405.005
  20
4489901.000
  0
VERTEX
  8
LC_OH_2021_05_O7
  10
361581.505
  20
4489471.500
  0
VERTEX
  8
LC_OH_2021_05_O7
  10
361511.505
  20
4486139.000
  0
VERTEX
  8
LC_OH_2021_05_O7
  10
359278.505
  20
4485883.000
  0
VERTEX
  8
LC_OH_2021_05_O7
  10
359274.505
  20
4485883.000
  0
VERTEX
  8
LC_OH_2021_05_O7
  10
359268.505
  20
4485887.000
  0
VERTEX
  8
LC_OH_2021_05_O7
  10
358946.505
  20
4486107.500
  0
VERTEX
  8
LC_OH_2021_05_O7
  10
359120.005
  20
4489515.500
  0
VERTEX
  8
LC_OH_2021_05_O7
  10
359120.505
  20
4489518.000
  0
VERTEX
  8
LC_OH_2021_05_O7
  10
359123.005
  20
4489519.000
  0
VERTEX
  8
LC_OH_2021_05_O7
  10
359532.005
  20
4489641.000
  0
VERTEX
  8
LC_OH_2021_05_O7
  10
359534.005
  20
4489641.500
  0
SEQEND
  8
LC_OH_2021_05_O7
  0
INSERT
  8
FeatureAttribs
  2
FEATURE
  41
1
  42
1
  43
1
  50
0
  10
357825.933
  20
4488001.000
 66
1
  0
ATTRIB
  8
FeatureAttribs
 70
0
  1
PNOA-H_AMS_1956-57_33k_ES_PAN_21mic_H50_0531_fot_66A-18825_E.tif
  2
NAME
  10
357825.933
  20
4488001.000
 40
34.33116
  0
SEQEND
  0
POLYLINE
  8
LC_OH_2021_05_O7
  70
1
  66
1
  0
VERTEX
  8
LC_OH_2021_05_O7
  10
357776.004
  20
4489977.500
  0
VERTEX
  8
LC_OH_2021_05_O7
  10
359120.505
  20
4489518.000
  0
VERTEX
  8
LC_OH_2021_05_O7
  10
358947.505
  20
4486124.000
  0
VERTEX
  8
LC_OH_2021_05_O7
  10
358946.505
  20
4486108.000
  0
VERTEX
  8
LC_OH_2021_05_O7
  10
358945.505
  20
4486107.500
  0
VERTEX
  8
LC_OH_2021_05_O7
  10
356530.504
  20
4486024.500
  0
VERTEX
  8
LC_OH_2021_05_O7
  10
356525.004
  20
4486024.500
  0
VERTEX
  8
LC_OH_2021_05_O7
  10
356506.504
  20
4486038.500
  0
VERTEX
  8
LC_OH_2021_05_O7
  10
356691.504
  20
4489592.000
  0
VERTEX
  8
LC_OH_2021_05_O7
  10
357774.504
  20
4489977.000
  0
VERTEX
  8
LC_OH_2021_05_O7
  10
357776.004
  20
4489977.500
  0
SEQEND
  8
LC_OH_2021_05_O7
  0
INSERT
  8
FeatureAttribs
  2
FEATURE
  41
1
  42
1
  43
1
  50
0
  10
355400.747
  20
4488048.749
 66
1
  0
ATTRIB
  8
FeatureAttribs
 70
0
  1
PNOA-H_AMS_1956-57_33k_ES_PAN_21mic_H50_0531_fot_66A-18826_E.tif
  2
NAME
  10
355400.747
  20
4488048.749
 40
34.33116
  0
SEQEND
  0
POLYLINE
  8
LC_OH_2021_05_O7
  70
1
  66
1
  0
VERTEX
  8
LC_OH_2021_05_O7
  10
355439.504
  20
4489946.000
  0
VERTEX
  8
LC_OH_2021_05_O7
  10
356691.504
  20
4489592.000
  0
VERTEX
  8
LC_OH_2021_05_O7
  10
356506.504
  20
4486039.000
  0
VERTEX
  8
LC_OH_2021_05_O7
  10
354035.004
  20
4486233.000
  0
VERTEX
  8
LC_OH_2021_05_O7
  10
354033.004
  20
4486233.500
  0
VERTEX
  8
LC_OH_2021_05_O7
  10
354033.004
  20
4486237.000
  0
VERTEX
  8
LC_OH_2021_05_O7
  10
354337.004
  20
4489737.500
  0
VERTEX
  8
LC_OH_2021_05_O7
  10
354339.004
  20
4489739.500
  0
VERTEX
  8
LC_OH_2021_05_O7
  10
355042.504
  20
4490058.500
  0
VERTEX
  8
LC_OH_2021_05_O7
  10
355437.004
  20
4489946.500
  0
VERTEX
  8
LC_OH_2021_05_O7
  10
355439.504
  20
4489946.000
  0
SEQEND
  8
LC_OH_2021_05_O7
  0
INSERT
  8
FeatureAttribs
  2
FEATURE
  41
1
  42
1
  43
1
  50
0
  10
353006.799
  20
4488142.000
 66
1
  0
ATTRIB
  8
FeatureAttribs
 70
0
  1
PNOA-H_AMS_1956-57_33k_ES_PAN_21mic_H50_0531_fot_66A-18827_E.tif
  2
NAME
  10
353006.799
  20
4488142.000
 40
34.33116
  0
SEQEND
  0
POLYLINE
  8
LC_OH_2021_05_O7
  70
1
  66
1
  0
VERTEX
  8
LC_OH_2021_05_O7
  10
353391.504
  20
4489937.000
  0
VERTEX
  8
LC_OH_2021_05_O7
  10
354337.504
  20
4489738.500
  0
VERTEX
  8
LC_OH_2021_05_O7
  10
354033.004
  20
4486233.500
  0
VERTEX
  8
LC_OH_2021_05_O7
  10
353812.004
  20
4486111.000
  0
VERTEX
  8
LC_OH_2021_05_O7
  10
353806.504
  20
4486110.500
  0
VERTEX
  8
LC_OH_2021_05_O7
  10
351930.504
  20
4486356.500
  0
VERTEX
  8
LC_OH_2021_05_O7
  10
351758.504
  20
4486432.000
  0
VERTEX
  8
LC_OH_2021_05_O7
  10
351874.004
  20
4489941.500
  0
VERTEX
  8
LC_OH_2021_05_O7
  10
352262.004
  20
4490171.500
  0
VERTEX
  8
LC_OH_2021_05_O7
  10
352265.504
  20
4490173.500
  0
VERTEX
  8
LC_OH_2021_05_O7
  10
352269.004
  20
4490173.500
  0
VERTEX
  8
LC_OH_2021_05_O7
  10
353389.004
  20
4489937.500
  0
VERTEX
  8
LC_OH_2021_05_O7
  10
353391.504
  20
4489937.000
  0
SEQEND
  8
LC_OH_2021_05_O7
  0
INSERT
  8
FeatureAttribs
  2
FEATURE
  41
1
  42
1
  43
1
  50
0
  10
362851.731
  20
4487832.748
 66
1
  0
ATTRIB
  8
FeatureAttribs
 70
0
  1
PNOA-H_AMS_1956-57_33k_ES_PAN_21mic_H50_0531_fot_66A-18823_E.tif
  2
NAME
  10
362851.731
  20
4487832.748
 40
34.33116
  0
SEQEND
  0
POLYLINE
  8
LC_OH_2021_05_O7
  70
1
  66
1
  0
VERTEX
  8
LC_OH_2021_05_O7
  10
363631.505
  20
4489608.500
  0
VERTEX
  8
LC_OH_2021_05_O7
  10
364113.505
  20
4489418.000
  0
VERTEX
  8
LC_OH_2021_05_O7
  10
364200.505
  20
4486219.500
  0
VERTEX
  8
LC_OH_2021_05_O7
  10
362036.005
  20
4485800.500
  0
VERTEX
  8
LC_OH_2021_05_O7
  10
361511.505
  20
4486139.000
  0
VERTEX
  8
LC_OH_2021_05_O7
  10
361581.005
  20
4489471.000
  0
VERTEX
  8
LC_OH_2021_05_O7
  10
362983.005
  20
4489865.000
  0
VERTEX
  8
LC_OH_2021_05_O7
  10
363629.505
  20
4489609.000
  0
VERTEX
  8
LC_OH_2021_05_O7
  10
363631.505
  20
4489608.500
  0
SEQEND
  8
LC_OH_2021_05_O7
  0
INSERT
  8
FeatureAttribs
  2
FEATURE
  41
1
  42
1
  43
1
  50
0
  10
350644.218
  20
4488173.000
 66
1
  0
ATTRIB
  8
FeatureAttribs
 70
0
  1
PNOA-H_AMS_1956-57_33k_ES_PAN_21mic_H50_0531_fot_66A-18828_E.tif
  2
NAME
  10
350644.218
  20
4488173.000
 40
34.33116
  0
SEQEND
  0
POLYLINE
  8
LC_OH_2021_05_O7
  70
1
  66
1
  0
VERTEX
  8
LC_OH_2021_05_O7
  10
351343.504
  20
4489972.000
  0
VERTEX
  8
LC_OH_2021_05_O7
  10
351874.004
  20
4489941.000
  0
VERTEX
  8
LC_OH_2021_05_O7
  10
351758.504
  20
4486432.000
  0
VERTEX
  8
LC_OH_2021_05_O7
  10
350747.004
  20
4486270.000
  0
VERTEX
  8
LC_OH_2021_05_O7
  10
349392.004
  20
4486475.500
  0
VERTEX
  8
LC_OH_2021_05_O7
  10
349563.004
  20
4490076.000
  0
VERTEX
  8
LC_OH_2021_05_O7
  10
351341.504
  20
4489972.000
  0
VERTEX
  8
LC_OH_2021_05_O7
  10
351343.504
  20
4489972.000
  0
SEQEND
  8
LC_OH_2021_05_O7
  0
INSERT
  8
FeatureAttribs
  2
FEATURE
  41
1
  42
1
  43
1
  50
0
  10
345981.804
  20
4488390.250
 66
1
  0
ATTRIB
  8
FeatureAttribs
 70
0
  1
PNOA-H_AMS_1956-57_33k_ES_PAN_21mic_H50_0531_fot_66A-18830_E.tif
  2
NAME
  10
345981.804
  20
4488390.250
 40
34.33116
  0
SEQEND
  0
POLYLINE
  8
LC_OH_2021_05_O7
  70
1
  66
1
  0
VERTEX
  8
LC_OH_2021_05_O7
  10
346669.004
  20
4490307.500
  0
VERTEX
  8
LC_OH_2021_05_O7
  10
346671.504
  20
4490307.500
  0
VERTEX
  8
LC_OH_2021_05_O7
  10
346676.504
  20
4490304.500
  0
VERTEX
  8
LC_OH_2021_05_O7
  10
347171.004
  20
4489999.500
  0
VERTEX
  8
LC_OH_2021_05_O7
  10
347062.004
  20
4486630.500
  0
VERTEX
  8
LC_OH_2021_05_O7
  10
346153.504
  20
4486476.500
  0
VERTEX
  8
LC_OH_2021_05_O7
  10
346130.504
  20
4486473.000
  0
VERTEX
  8
LC_OH_2021_05_O7
  10
344805.503
  20
4486640.000
  0
VERTEX
  8
LC_OH_2021_05_O7
  10
344880.003
  20
4489969.500
  0
VERTEX
  8
LC_OH_2021_05_O7
  10
346666.004
  20
4490307.000
  0
VERTEX
  8
LC_OH_2021_05_O7
  10
346669.004
  20
4490307.500
  0
SEQEND
  8
LC_OH_2021_05_O7
  0
INSERT
  8
FeatureAttribs
  2
FEATURE
  41
1
  42
1
  43
1
  50
0
  10
343751.882
  20
4488442.499
 66
1
  0
ATTRIB
  8
FeatureAttribs
 70
0
  1
PNOA-H_AMS_1956-57_33k_ES_PAN_21mic_H50_0531_fot_66A-18831_E.tif
  2
NAME
  10
343751.882
  20
4488442.499
 40
34.33116
  0
SEQEND
  0
POLYLINE
  8
LC_OH_2021_05_O7
  70
1
  66
1
  0
VERTEX
  8
LC_OH_2021_05_O7
  10
342993.952
  20
4490087.590
  0
VERTEX
  8
LC_OH_2021_05_O7
  10
343870.003
  20
4490449.000
  0
VERTEX
  8
LC_OH_2021_05_O7
  10
343871.003
  20
4490449.500
  0
VERTEX
  8
LC_OH_2021_05_O7
  10
344880.003
  20
4489969.500
  0
VERTEX
  8
LC_OH_2021_05_O7
  10
344806.003
  20
4486641.000
  0
VERTEX
  8
LC_OH_2021_05_O7
  10
344805.003
  20
4486639.500
  0
VERTEX
  8
LC_OH_2021_05_O7
  10
344345.503
  20
4486438.500
  0
VERTEX
  8
LC_OH_2021_05_O7
  10
344338.503
  20
4486435.500
  0
VERTEX
  8
LC_OH_2021_05_O7
  10
344335.503
  20
4486435.500
  0
VERTEX
  8
LC_OH_2021_05_O7
  10
342922.752
  20
4486703.242
  0
VERTEX
  8
LC_OH_2021_05_O7
  10
342933.593
  20
4487218.780
  0
VERTEX
  8
LC_OH_2021_05_O7
  10
342982.247
  20
4489531.480
  0
SEQEND
  8
LC_OH_2021_05_O7
  0
INSERT
  8
FeatureAttribs
  2
FEATURE
  41
1
  42
1
  43
1
  50
0
  10
371000.860
  20
4487800.998
 66
1
  0
ATTRIB
  8
FeatureAttribs
 70
0
  1
PNOA-H_AMS_1956-57_33k_ES_PAN_21mic_H50_0532_fot_66A-18820_E.tif
  2
NAME
  10
371000.860
  20
4487800.998
 40
34.33116
  0
SEQEND
  0
POLYLINE
  8
LC_OH_2021_05_O7
  70
1
  66
1
  0
VERTEX
  8
LC_OH_2021_05_O7
  10
371159.918
  20
4486011.823
  0
VERTEX
  8
LC_OH_2021_05_O7
  10
370059.506
  20
4485858.000
  0
VERTEX
  8
LC_OH_2021_05_O7
  10
369664.506
  20
4486138.000
  0
VERTEX
  8
LC_OH_2021_05_O7
  10
369707.006
  20
4489351.000
  0
VERTEX
  8
LC_OH_2021_05_O7
  10
370715.506
  20
4489744.000
  0
VERTEX
  8
LC_OH_2021_05_O7
  10
371221.861
  20
4489601.973
  0
VERTEX
  8
LC_OH_2021_05_O7
  10
371211.313
  20
4488990.900
  0
VERTEX
  8
LC_OH_2021_05_O7
  10
371171.411
  20
4486678.263
  0
SEQEND
  8
LC_OH_2021_05_O7
  0
INSERT
  8
FeatureAttribs
  2
FEATURE
  41
1
  42
1
  43
1
  50
0
  10
348294.746
  20
4488234.000
 66
1
  0
ATTRIB
  8
FeatureAttribs
 70
0
  1
PNOA-H_AMS_1956-57_33k_ES_PAN_21mic_H50_0531_fot_66A-18829_E.tif
  2
NAME
  10
348294.746
  20
4488234.000
 40
34.33116
  0
SEQEND
  0
POLYLINE
  8
LC_OH_2021_05_O7
  70
1
  66
1
  0
VERTEX
  8
LC_OH_2021_05_O7
  10
347242.504
  20
4490006.000
  0
VERTEX
  8
LC_OH_2021_05_O7
  10
349403.504
  20
4490194.500
  0
VERTEX
  8
LC_OH_2021_05_O7
  10
349408.504
  20
4490193.500
  0
VERTEX
  8
LC_OH_2021_05_O7
  10
349563.004
  20
4490076.000
  0
VERTEX
  8
LC_OH_2021_05_O7
  10
349392.504
  20
4486478.500
  0
VERTEX
  8
LC_OH_2021_05_O7
  10
349391.504
  20
4486475.000
  0
VERTEX
  8
LC_OH_2021_05_O7
  10
349386.004
  20
4486472.500
  0
VERTEX
  8
LC_OH_2021_05_O7
  10
348939.004
  20
4486273.500
  0
VERTEX
  8
LC_OH_2021_05_O7
  10
347248.004
  20
4486548.500
  0
VERTEX
  8
LC_OH_2021_05_O7
  10
347062.004
  20
4486630.500
  0
VERTEX
  8
LC_OH_2021_05_O7
  10
347170.504
  20
4489990.500
  0
VERTEX
  8
LC_OH_2021_05_O7
  10
347171.004
  20
4489999.500
  0
VERTEX
  8
LC_OH_2021_05_O7
  10
347236.504
  20
4490005.500
  0
VERTEX
  8
LC_OH_2021_05_O7
  10
347242.504
  20
4490006.000
  0
SEQEND
  8
LC_OH_2021_05_O7
  0
INSERT
  8
FeatureAttribs
  2
FEATURE
  41
1
  42
1
  43
1
  50
0
  10
343762.893
  20
4503116.614
 66
1
  0
ATTRIB
  8
FeatureAttribs
 70
0
  1
PNOA-H_AMS_1956-57_33k_ES_PAN_21mic_H50_0505_fot_62C-05367_E.tif
  2
NAME
  10
343762.893
  20
4503116.614
 40
34.33116
  0
SEQEND
  0
POLYLINE
  8
LC_OH_2021_05_O7
  70
1
  66
1
  0
VERTEX
  8
LC_OH_2021_05_O7
  10
344263.461
  20
4503387.209
  0
VERTEX
  8
LC_OH_2021_05_O7
  10
344238.503
  20
4502833.500
  0
VERTEX
  8
LC_OH_2021_05_O7
  10
343262.325
  20
4502825.392
  0
VERTEX
  8
LC_OH_2021_05_O7
  10
343274.610
  20
4503407.836
  0
SEQEND
  8
LC_OH_2021_05_O7
  0
INSERT
  8
FeatureAttribs
  2
FEATURE
  41
1
  42
1
  43
1
  50
0
  10
345659.185
  20
4503008.855
 66
1
  0
ATTRIB
  8
FeatureAttribs
 70
0
  1
PNOA-H_AMS_1956-57_33k_ES_PAN_21mic_H50_0506_fot_62C-05368_E.tif
  2
NAME
  10
345659.185
  20
4503008.855
 40
34.33116
  0
SEQEND
  0
POLYLINE
  8
LC_OH_2021_05_O7
  70
1
  66
1
  0
VERTEX
  8
LC_OH_2021_05_O7
  10
347079.866
  20
4503328.597
  0
VERTEX
  8
LC_OH_2021_05_O7
  10
347048.504
  20
4502641.500
  0
VERTEX
  8
LC_OH_2021_05_O7
  10
347048.004
  20
4502637.000
  0
VERTEX
  8
LC_OH_2021_05_O7
  10
347039.004
  20
4502630.500
  0
VERTEX
  8
LC_OH_2021_05_O7
  10
344356.503
  20
4502742.000
  0
VERTEX
  8
LC_OH_2021_05_O7
  10
344350.503
  20
4502742.500
  0
VERTEX
  8
LC_OH_2021_05_O7
  10
344238.503
  20
4502833.500
  0
VERTEX
  8
LC_OH_2021_05_O7
  10
344263.461
  20
4503387.209
  0
VERTEX
  8
LC_OH_2021_05_O7
  10
346796.710
  20
4503334.369
  0
SEQEND
  8
LC_OH_2021_05_O7
  0
INSERT
  8
FeatureAttribs
  2
FEATURE
  41
1
  42
1
  43
1
  50
0
  10
351187.785
  20
4502844.039
 66
1
  0
ATTRIB
  8
FeatureAttribs
 70
0
  1
PNOA-H_AMS_1956-57_33k_ES_PAN_21mic_H50_0506_fot_62C-05370_E.tif
  2
NAME
  10
351187.785
  20
4502844.039
 40
34.33116
  0
SEQEND
  0
POLYLINE
  8
LC_OH_2021_05_O7
  70
1
  66
1
  0
VERTEX
  8
LC_OH_2021_05_O7
  10
352581.567
  20
4503217.522
  0
VERTEX
  8
LC_OH_2021_05_O7
  10
352568.004
  20
4502415.500
  0
VERTEX
  8
LC_OH_2021_05_O7
  10
349803.504
  20
4502510.000
  0
VERTEX
  8
LC_OH_2021_05_O7
  10
349796.004
  20
4502510.500
  0
VERTEX
  8
LC_OH_2021_05_O7
  10
349794.004
  20
4502512.500
  0
VERTEX
  8
LC_OH_2021_05_O7
  10
349827.977
  20
4503272.579
  0
VERTEX
  8
LC_OH_2021_05_O7
  10
350318.798
  20
4503262.574
  0
SEQEND
  8
LC_OH_2021_05_O7
  0
INSERT
  8
FeatureAttribs
  2
FEATURE
  41
1
  42
1
  43
1
  50
0
  10
353931.130
  20
4502795.513
 66
1
  0
ATTRIB
  8
FeatureAttribs
 70
0
  1
PNOA-H_AMS_1956-57_33k_ES_PAN_21mic_H50_0506_fot_62C-05371_E.tif
  2
NAME
  10
353931.130
  20
4502795.513
 40
34.33116
  0
SEQEND
  0
POLYLINE
  8
LC_OH_2021_05_O7
  70
1
  66
1
  0
VERTEX
  8
LC_OH_2021_05_O7
  10
355294.256
  20
4503164.202
  0
VERTEX
  8
LC_OH_2021_05_O7
  10
355276.004
  20
4502394.000
  0
VERTEX
  8
LC_OH_2021_05_O7
  10
352620.004
  20
4502373.500
  0
VERTEX
  8
LC_OH_2021_05_O7
  10
352568.004
  20
4502415.500
  0
VERTEX
  8
LC_OH_2021_05_O7
  10
352568.004
  20
4502427.500
  0
VERTEX
  8
LC_OH_2021_05_O7
  10
352581.407
  20
4503217.525
  0
VERTEX
  8
LC_OH_2021_05_O7
  10
353840.874
  20
4503192.449
  0
SEQEND
  8
LC_OH_2021_05_O7
  0
INSERT
  8
FeatureAttribs
  2
FEATURE
  41
1
  42
1
  43
1
  50
0
  10
348437.993
  20
4502920.551
 66
1
  0
ATTRIB
  8
FeatureAttribs
 70
0
  1
PNOA-H_AMS_1956-57_33k_ES_PAN_21mic_H50_0506_fot_62C-05369_E.tif
  2
NAME
  10
348437.993
  20
4502920.551
 40
34.33116
  0
SEQEND
  0
POLYLINE
  8
LC_OH_2021_05_O7
  70
1
  66
1
  0
VERTEX
  8
LC_OH_2021_05_O7
  10
349827.982
  20
4503272.579
  0
VERTEX
  8
LC_OH_2021_05_O7
  10
349794.004
  20
4502512.500
  0
VERTEX
  8
LC_OH_2021_05_O7
  10
347048.004
  20
4502637.000
  0
VERTEX
  8
LC_OH_2021_05_O7
  10
347079.571
  20
4503328.603
  0
SEQEND
  8
LC_OH_2021_05_O7
  0
INSERT
  8
FeatureAttribs
  2
FEATURE
  41
1
  42
1
  43
1
  50
0
  10
359354.370
  20
4502556.311
 66
1
  0
ATTRIB
  8
FeatureAttribs
 70
0
  1
PNOA-H_AMS_1956-57_33k_ES_PAN_21mic_H50_0506_fot_62C-05373_E.tif
  2
NAME
  10
359354.370
  20
4502556.311
 40
34.33116
  0
SEQEND
  0
POLYLINE
  8
LC_OH_2021_05_O7
  70
1
  66
1
  0
VERTEX
  8
LC_OH_2021_05_O7
  10
360701.735
  20
4503060.688
  0
VERTEX
  8
LC_OH_2021_05_O7
  10
360681.505
  20
4502221.500
  0
VERTEX
  8
LC_OH_2021_05_O7
  10
360681.005
  20
4502211.000
  0
VERTEX
  8
LC_OH_2021_05_O7
  10
360637.005
  20
4502206.500
  0
VERTEX
  8
LC_OH_2021_05_O7
  10
360631.505
  20
4502206.500
  0
VERTEX
  8
LC_OH_2021_05_O7
  10
358490.505
  20
4502001.000
  0
VERTEX
  8
LC_OH_2021_05_O7
  10
358007.005
  20
4502317.000
  0
VERTEX
  8
LC_OH_2021_05_O7
  10
358015.552
  20
4503111.621
  0
SEQEND
  8
LC_OH_2021_05_O7
  0
INSERT
  8
FeatureAttribs
  2
FEATURE
  41
1
  42
1
  43
1
  50
0
  10
356645.825
  20
4502665.851
 66
1
  0
ATTRIB
  8
FeatureAttribs
 70
0
  1
PNOA-H_AMS_1956-57_33k_ES_PAN_21mic_H50_0506_fot_62C-05372_E.tif
  2
NAME
  10
356645.825
  20
4502665.851
 40
34.33116
  0
SEQEND
  0
POLYLINE
  8
LC_OH_2021_05_O7
  70
1
  66
1
  0
VERTEX
  8
LC_OH_2021_05_O7
  10
358015.646
  20
4503111.620
  0
VERTEX
  8
LC_OH_2021_05_O7
  10
358007.005
  20
4502317.000
  0
VERTEX
  8
LC_OH_2021_05_O7
  10
355579.004
  20
4502167.500
  0
VERTEX
  8
LC_OH_2021_05_O7
  10
355276.004
  20
4502394.000
  0
VERTEX
  8
LC_OH_2021_05_O7
  10
355294.256
  20
4503164.202
  0
VERTEX
  8
LC_OH_2021_05_O7
  10
357362.938
  20
4503123.996
  0
SEQEND
  8
LC_OH_2021_05_O7
  0
INSERT
  8
FeatureAttribs
  2
FEATURE
  41
1
  42
1
  43
1
  50
0
  10
362043.333
  20
4502460.346
 66
1
  0
ATTRIB
  8
FeatureAttribs
 70
0
  1
PNOA-H_AMS_1956-57_33k_ES_PAN_21mic_H50_0506_fot_62C-05374_E.tif
  2
NAME
  10
362043.333
  20
4502460.346
 40
34.33116
  0
SEQEND
  0
POLYLINE
  8
LC_OH_2021_05_O7
  70
1
  66
1
  0
VERTEX
  8
LC_OH_2021_05_O7
  10
363405.662
  20
4503010.613
  0
VERTEX
  8
LC_OH_2021_05_O7
  10
363377.505
  20
4502107.000
  0
VERTEX
  8
LC_OH_2021_05_O7
  10
361283.005
  20
4501860.000
  0
VERTEX
  8
LC_OH_2021_05_O7
  10
360681.005
  20
4502211.000
  0
VERTEX
  8
LC_OH_2021_05_O7
  10
360701.542
  20
4503060.691
  0
VERTEX
  8
LC_OH_2021_05_O7
  10
360884.990
  20
4503057.213
  0
SEQEND
  8
LC_OH_2021_05_O7
  0
INSERT
  8
FeatureAttribs
  2
FEATURE
  41
1
  42
1
  43
1
  50
0
  10
367495.667
  20
4502300.616
 66
1
  0
ATTRIB
  8
FeatureAttribs
 70
0
  1
PNOA-H_AMS_1956-57_33k_ES_PAN_21mic_H50_0506_fot_62C-05376_E.tif
  2
NAME
  10
367495.667
  20
4502300.616
 40
34.33116
  0
SEQEND
  0
POLYLINE
  8
LC_OH_2021_05_O7
  70
1
  66
1
  0
VERTEX
  8
LC_OH_2021_05_O7
  10
368854.330
  20
4502912.432
  0
VERTEX
  8
LC_OH_2021_05_O7
  10
368847.006
  20
4502230.500
  0
VERTEX
  8
LC_OH_2021_05_O7
  10
368847.006
  20
4502206.500
  0
VERTEX
  8
LC_OH_2021_05_O7
  10
368843.506
  20
4501858.000
  0
VERTEX
  8
LC_OH_2021_05_O7
  10
368842.006
  20
4501855.000
  0
VERTEX
  8
LC_OH_2021_05_O7
  10
366790.505
  20
4501640.500
  0
VERTEX
  8
LC_OH_2021_05_O7
  10
366786.005
  20
4501640.500
  0
VERTEX
  8
LC_OH_2021_05_O7
  10
366780.005
  20
4501643.500
  0
VERTEX
  8
LC_OH_2021_05_O7
  10
366137.005
  20
4501977.000
  0
VERTEX
  8
LC_OH_2021_05_O7
  10
366148.451
  20
4502960.733
  0
VERTEX
  8
LC_OH_2021_05_O7
  10
367929.062
  20
4502928.659
  0
SEQEND
  8
LC_OH_2021_05_O7
  0
INSERT
  8
FeatureAttribs
  2
FEATURE
  41
1
  42
1
  43
1
  50
0
  10
370147.044
  20
4502234.465
 66
1
  0
ATTRIB
  8
FeatureAttribs
 70
0
  1
PNOA-H_AMS_1956-57_33k_ES_PAN_21mic_H50_0506_fot_62C-05377_E.tif
  2
NAME
  10
370147.044
  20
4502234.465
 40
34.33116
  0
SEQEND
  0
POLYLINE
  8
LC_OH_2021_05_O7
  70
1
  66
1
  0
VERTEX
  8
LC_OH_2021_05_O7
  10
371431.308
  20
4501723.764
  0
VERTEX
  8
LC_OH_2021_05_O7
  10
369426.006
  20
4501556.500
  0
VERTEX
  8
LC_OH_2021_05_O7
  10
368843.006
  20
4501855.500
  0
VERTEX
  8
LC_OH_2021_05_O7
  10
368854.350
  20
4502912.431
  0
VERTEX
  8
LC_OH_2021_05_O7
  10
371451.082
  20
4502866.888
  0
SEQEND
  8
LC_OH_2021_05_O7
  0
INSERT
  8
FeatureAttribs
  2
FEATURE
  41
1
  42
1
  43
1
  50
0
  10
364762.965
  20
4502364.806
 66
1
  0
ATTRIB
  8
FeatureAttribs
 70
0
  1
PNOA-H_AMS_1956-57_33k_ES_PAN_21mic_H50_0506_fot_62C-05375_E.tif
  2
NAME
  10
364762.965
  20
4502364.806
 40
34.33116
  0
SEQEND
  0
POLYLINE
  8
LC_OH_2021_05_O7
  70
1
  66
1
  0
VERTEX
  8
LC_OH_2021_05_O7
  10
366148.426
  20
4502960.734
  0
VERTEX
  8
LC_OH_2021_05_O7
  10
366140.005
  20
4502237.500
  0
VERTEX
  8
LC_OH_2021_05_O7
  10
366140.005
  20
4502206.500
  0
VERTEX
  8
LC_OH_2021_05_O7
  10
366137.505
  20
4501979.000
  0
VERTEX
  8
LC_OH_2021_05_O7
  10
366137.005
  20
4501977.000
  0
VERTEX
  8
LC_OH_2021_05_O7
  10
366135.005
  20
4501976.500
  0
VERTEX
  8
LC_OH_2021_05_O7
  10
364082.505
  20
4501719.000
  0
VERTEX
  8
LC_OH_2021_05_O7
  10
364079.505
  20
4501719.000
  0
VERTEX
  8
LC_OH_2021_05_O7
  10
364074.505
  20
4501721.500
  0
VERTEX
  8
LC_OH_2021_05_O7
  10
363377.505
  20
4502106.500
  0
VERTEX
  8
LC_OH_2021_05_O7
  10
363405.674
  20
4503010.613
  0
VERTEX
  8
LC_OH_2021_05_O7
  10
364407.032
  20
4502992.101
  0
SEQEND
  8
LC_OH_2021_05_O7
  0
INSERT
  8
FeatureAttribs
  2
FEATURE
  41
1
  42
1
  43
1
  50
0
  10
355459.600
  20
4497211.749
 66
1
  0
ATTRIB
  8
FeatureAttribs
 70
0
  1
PNOA-H_AMS_1956-57_33k_ES_PAN_21mic_H50_0531_fot_000-30145_R.tif
  2
NAME
  10
355459.600
  20
4497211.749
 40
34.33116
  0
SEQEND
  0
POLYLINE
  8
LC_OH_2021_05_O7
  70
1
  66
1
  0
VERTEX
  8
LC_OH_2021_05_O7
  10
355427.004
  20
4496062.500
  0
VERTEX
  8
LC_OH_2021_05_O7
  10
354243.004
  20
4495792.000
  0
VERTEX
  8
LC_OH_2021_05_O7
  10
353921.504
  20
4497892.500
  0
VERTEX
  8
LC_OH_2021_05_O7
  10
353918.004
  20
4498147.500
  0
VERTEX
  8
LC_OH_2021_05_O7
  10
355313.004
  20
4498631.500
  0
VERTEX
  8
LC_OH_2021_05_O7
  10
356865.004
  20
4498078.500
  0
VERTEX
  8
LC_OH_2021_05_O7
  10
356865.504
  20
4498068.500
  0
VERTEX
  8
LC_OH_2021_05_O7
  10
356915.504
  20
4496539.000
  0
VERTEX
  8
LC_OH_2021_05_O7
  10
356915.504
  20
4496525.000
  0
VERTEX
  8
LC_OH_2021_05_O7
  10
356895.504
  20
4496397.500
  0
VERTEX
  8
LC_OH_2021_05_O7
  10
355429.004
  20
4496062.500
  0
VERTEX
  8
LC_OH_2021_05_O7
  10
355427.004
  20
4496062.500
  0
SEQEND
  8
LC_OH_2021_05_O7
  0
INSERT
  8
FeatureAttribs
  2
FEATURE
  41
1
  42
1
  43
1
  50
0
  10
346597.603
  20
4484851.249
 66
1
  0
ATTRIB
  8
FeatureAttribs
 70
0
  1
PNOA-H_AMS_1956-57_33k_ES_PAN_21mic_H50_0531_fot_000-51047_R.tif
  2
NAME
  10
346597.603
  20
4484851.249
 40
34.33116
  0
SEQEND
  0
POLYLINE
  8
LC_OH_2021_05_O7
  70
1
  66
1
  0
VERTEX
  8
LC_OH_2021_05_O7
  10
347150.342
  20
4484817.766
  0
VERTEX
  8
LC_OH_2021_05_O7
  10
346415.824
  20
4484832.688
  0
VERTEX
  8
LC_OH_2021_05_O7
  10
346042.411
  20
4484840.451
  0
VERTEX
  8
LC_OH_2021_05_O7
  10
346131.504
  20
4486473.000
  0
VERTEX
  8
LC_OH_2021_05_O7
  10
347059.504
  20
4486630.500
  0
VERTEX
  8
LC_OH_2021_05_O7
  10
347063.004
  20
4486630.500
  0
VERTEX
  8
LC_OH_2021_05_O7
  10
347245.504
  20
4486549.500
  0
SEQEND
  8
LC_OH_2021_05_O7
  0
INSERT
  8
FeatureAttribs
  2
FEATURE
  41
1
  42
1
  43
1
  50
0
  10
352153.281
  20
4496459.999
 66
1
  0
ATTRIB
  8
FeatureAttribs
 70
0
  1
PNOA-H_AMS_1956-57_33k_ES_PAN_21mic_H50_0531_fot_000-30146_R.tif
  2
NAME
  10
352153.281
  20
4496459.999
 40
34.33116
  0
SEQEND
  0
POLYLINE
  8
LC_OH_2021_05_O7
  70
1
  66
1
  0
VERTEX
  8
LC_OH_2021_05_O7
  10
352658.504
  20
4496062.500
  0
VERTEX
  8
LC_OH_2021_05_O7
  10
351405.504
  20
4494247.000
  0
VERTEX
  8
LC_OH_2021_05_O7
  10
351347.004
  20
4498337.500
  0
VERTEX
  8
LC_OH_2021_05_O7
  10
352476.004
  20
4498673.000
  0
VERTEX
  8
LC_OH_2021_05_O7
  10
353918.004
  20
4498147.500
  0
VERTEX
  8
LC_OH_2021_05_O7
  10
353921.504
  20
4497892.500
  0
VERTEX
  8
LC_OH_2021_05_O7
  10
352659.004
  20
4496063.500
  0
VERTEX
  8
LC_OH_2021_05_O7
  10
352658.504
  20
4496062.500
  0
SEQEND
  8
LC_OH_2021_05_O7
  0
INSERT
  8
FeatureAttribs
  2
FEATURE
  41
1
  42
1
  43
1
  50
0
  10
358389.283
  20
4497172.249
 66
1
  0
ATTRIB
  8
FeatureAttribs
 70
0
  1
PNOA-H_AMS_1956-57_33k_ES_PAN_21mic_H50_0531_fot_000-30144_R.tif
  2
NAME
  10
358389.283
  20
4497172.249
 40
34.33116
  0
SEQEND
  0
POLYLINE
  8
LC_OH_2021_05_O7
  70
1
  66
1
  0
VERTEX
  8
LC_OH_2021_05_O7
  10
359636.005
  20
4496062.500
  0
VERTEX
  8
LC_OH_2021_05_O7
  10
359573.005
  20
4495778.500
  0
VERTEX
  8
LC_OH_2021_05_O7
  10
359571.505
  20
4495772.000
  0
VERTEX
  8
LC_OH_2021_05_O7
  10
359570.005
  20
4495771.000
  0
VERTEX
  8
LC_OH_2021_05_O7
  10
356915.504
  20
4496527.000
  0
VERTEX
  8
LC_OH_2021_05_O7
  10
356865.004
  20
4498078.500
  0
VERTEX
  8
LC_OH_2021_05_O7
  10
358196.005
  20
4498573.500
  0
VERTEX
  8
LC_OH_2021_05_O7
  10
360041.005
  20
4497879.000
  0
VERTEX
  8
LC_OH_2021_05_O7
  10
360041.505
  20
4497876.500
  0
VERTEX
  8
LC_OH_2021_05_O7
  10
360037.005
  20
4497856.000
  0
VERTEX
  8
LC_OH_2021_05_O7
  10
359636.505
  20
4496065.500
  0
VERTEX
  8
LC_OH_2021_05_O7
  10
359636.005
  20
4496062.500
  0
SEQEND
  8
LC_OH_2021_05_O7
  0
INSERT
  8
FeatureAttribs
  2
FEATURE
  41
1
  42
1
  43
1
  50
0
  10
346484.468
  20
4496348.750
 66
1
  0
ATTRIB
  8
FeatureAttribs
 70
0
  1
PNOA-H_AMS_1956-57_33k_ES_PAN_21mic_H50_0531_fot_000-30148_R.tif
  2
NAME
  10
346484.468
  20
4496348.750
 40
34.33116
  0
SEQEND
  0
POLYLINE
  8
LC_OH_2021_05_O7
  70
1
  66
1
  0
VERTEX
  8
LC_OH_2021_05_O7
  10
346819.004
  20
4498801.000
  0
VERTEX
  8
LC_OH_2021_05_O7
  10
346821.004
  20
4498800.500
  0
VERTEX
  8
LC_OH_2021_05_O7
  10
346821.504
  20
4498797.500
  0
VERTEX
  8
LC_OH_2021_05_O7
  10
347535.004
  20
4494152.500
  0
VERTEX
  8
LC_OH_2021_05_O7
  10
346637.004
  20
4493896.500
  0
VERTEX
  8
LC_OH_2021_05_O7
  10
345386.504
  20
4494269.000
  0
VERTEX
  8
LC_OH_2021_05_O7
  10
346196.504
  20
4498647.000
  0
VERTEX
  8
LC_OH_2021_05_O7
  10
346197.004
  20
4498648.500
  0
VERTEX
  8
LC_OH_2021_05_O7
  10
346205.004
  20
4498650.500
  0
VERTEX
  8
LC_OH_2021_05_O7
  10
346816.504
  20
4498800.500
  0
VERTEX
  8
LC_OH_2021_05_O7
  10
346819.004
  20
4498801.000
  0
SEQEND
  8
LC_OH_2021_05_O7
  0
INSERT
  8
FeatureAttribs
  2
FEATURE
  41
1
  42
1
  43
1
  50
0
  10
349254.330
  20
4496233.750
 66
1
  0
ATTRIB
  8
FeatureAttribs
 70
0
  1
PNOA-H_AMS_1956-57_33k_ES_PAN_21mic_H50_0531_fot_000-30147_R.tif
  2
NAME
  10
349254.330
  20
4496233.750
 40
34.33116
  0
SEQEND
  0
POLYLINE
  8
LC_OH_2021_05_O7
  70
1
  66
1
  0
VERTEX
  8
LC_OH_2021_05_O7
  10
349294.004
  20
4498595.500
  0
VERTEX
  8
LC_OH_2021_05_O7
  10
349658.004
  20
4498690.500
  0
VERTEX
  8
LC_OH_2021_05_O7
  10
349971.004
  20
4498579.000
  0
VERTEX
  8
LC_OH_2021_05_O7
  10
349897.004
  20
4493905.000
  0
VERTEX
  8
LC_OH_2021_05_O7
  10
349896.004
  20
4493904.500
  0
VERTEX
  8
LC_OH_2021_05_O7
  10
349463.504
  20
4493777.000
  0
VERTEX
  8
LC_OH_2021_05_O7
  10
348236.004
  20
4494202.000
  0
VERTEX
  8
LC_OH_2021_05_O7
  10
348953.504
  20
4498505.000
  0
VERTEX
  8
LC_OH_2021_05_O7
  10
348954.004
  20
4498506.500
  0
VERTEX
  8
LC_OH_2021_05_O7
  10
348959.504
  20
4498508.000
  0
VERTEX
  8
LC_OH_2021_05_O7
  10
349292.504
  20
4498595.000
  0
VERTEX
  8
LC_OH_2021_05_O7
  10
349294.004
  20
4498595.500
  0
SEQEND
  8
LC_OH_2021_05_O7
  0
INSERT
  8
FeatureAttribs
  2
FEATURE
  41
1
  42
1
  43
1
  50
0
  10
343103.144
  20
4485011.499
 66
1
  0
ATTRIB
  8
FeatureAttribs
 70
0
  1
PNOA-H_AMS_1956-57_33k_ES_PAN_21mic_H50_0531_fot_000-51045_R.tif
  2
NAME
  10
343103.144
  20
4485011.499
 40
34.33116
  0
SEQEND
  0
POLYLINE
  8
LC_OH_2021_05_O7
  70
1
  66
1
  0
VERTEX
  8
LC_OH_2021_05_O7
  10
344258.347
  20
4484877.538
  0
VERTEX
  8
LC_OH_2021_05_O7
  10
342884.960
  20
4484906.088
  0
VERTEX
  8
LC_OH_2021_05_O7
  10
342922.750
  20
4486703.120
  0
VERTEX
  8
LC_OH_2021_05_O7
  10
343150.503
  20
4486660.000
  0
VERTEX
  8
LC_OH_2021_05_O7
  10
343151.503
  20
4486660.000
  0
VERTEX
  8
LC_OH_2021_05_O7
  10
344337.503
  20
4486435.500
  0
SEQEND
  8
LC_OH_2021_05_O7
  0
INSERT
  8
FeatureAttribs
  2
FEATURE
  41
1
  42
1
  43
1
  50
0
  10
343350.125
  20
4496333.999
 66
1
  0
ATTRIB
  8
FeatureAttribs
 70
0
  1
PNOA-H_AMS_1956-57_33k_ES_PAN_21mic_H50_0531_fot_000-30149_R.tif
  2
NAME
  10
343350.125
  20
4496333.999
 40
34.33116
  0
SEQEND
  0
POLYLINE
  8
LC_OH_2021_05_O7
  70
1
  66
1
  0
VERTEX
  8
LC_OH_2021_05_O7
  10
343175.109
  20
4498689.200
  0
VERTEX
  8
LC_OH_2021_05_O7
  10
343775.503
  20
4498799.000
  0
VERTEX
  8
LC_OH_2021_05_O7
  10
343779.003
  20
4498798.500
  0
VERTEX
  8
LC_OH_2021_05_O7
  10
343783.003
  20
4498783.000
  0
VERTEX
  8
LC_OH_2021_05_O7
  10
344939.503
  20
4494234.500
  0
VERTEX
  8
LC_OH_2021_05_O7
  10
344282.503
  20
4494014.500
  0
VERTEX
  8
LC_OH_2021_05_O7
  10
344281.003
  20
4494014.500
  0
VERTEX
  8
LC_OH_2021_05_O7
  10
343846.003
  20
4493869.000
  0
VERTEX
  8
LC_OH_2021_05_O7
  10
343078.208
  20
4494089.911
  0
VERTEX
  8
LC_OH_2021_05_O7
  10
343079.618
  20
4494156.902
  0
VERTEX
  8
LC_OH_2021_05_O7
  10
343128.335
  20
4496469.624
  0
SEQEND
  8
LC_OH_2021_05_O7
  0
INSERT
  8
FeatureAttribs
  2
FEATURE
  41
1
  42
1
  43
1
  50
0
  10
351310.006
  20
4485577.231
 66
1
  0
ATTRIB
  8
FeatureAttribs
 70
0
  1
PNOA-H_AMS_1956-57_33k_ES_PAN_21mic_H50_0531_fot_000-51050_R.tif
  2
NAME
  10
351310.006
  20
4485577.231
 40
34.33116
  0
SEQEND
  0
POLYLINE
  8
LC_OH_2021_05_O7
  70
1
  66
1
  0
VERTEX
  8
LC_OH_2021_05_O7
  10
351886.733
  20
4484722.463
  0
VERTEX
  8
LC_OH_2021_05_O7
  10
350691.508
  20
4484746.179
  0
VERTEX
  8
LC_OH_2021_05_O7
  10
350745.504
  20
4486270.000
  0
VERTEX
  8
LC_OH_2021_05_O7
  10
351753.004
  20
4486431.500
  0
VERTEX
  8
LC_OH_2021_05_O7
  10
351756.504
  20
4486432.000
  0
VERTEX
  8
LC_OH_2021_05_O7
  10
351761.504
  20
4486431.000
  0
VERTEX
  8
LC_OH_2021_05_O7
  10
351928.504
  20
4486357.000
  0
SEQEND
  8
LC_OH_2021_05_O7
  0
INSERT
  8
FeatureAttribs
  2
FEATURE
  41
1
  42
1
  43
1
  50
0
  10
348016.719
  20
4484815.249
 66
1
  0
ATTRIB
  8
FeatureAttribs
 70
0
  1
PNOA-H_AMS_1956-57_33k_ES_PAN_21mic_H50_0531_fot_000-51048_R.tif
  2
NAME
  10
348016.719
  20
4484815.249
 40
34.33116
  0
SEQEND
  0
POLYLINE
  8
LC_OH_2021_05_O7
  70
1
  66
1
  0
VERTEX
  8
LC_OH_2021_05_O7
  10
348881.974
  20
4484782.588
  0
VERTEX
  8
LC_OH_2021_05_O7
  10
347150.354
  20
4484817.766
  0
VERTEX
  8
LC_OH_2021_05_O7
  10
347245.504
  20
4486549.000
  0
VERTEX
  8
LC_OH_2021_05_O7
  10
347247.504
  20
4486549.000
  0
VERTEX
  8
LC_OH_2021_05_O7
  10
348938.004
  20
4486273.500
  0
SEQEND
  8
LC_OH_2021_05_O7
  0
INSERT
  8
FeatureAttribs
  2
FEATURE
  41
1
  42
1
  43
1
  50
0
  10
345152.722
  20
4484902.750
 66
1
  0
ATTRIB
  8
FeatureAttribs
 70
0
  1
PNOA-H_AMS_1956-57_33k_ES_PAN_21mic_H50_0531_fot_000-51046_R.tif
  2
NAME
  10
345152.722
  20
4484902.750
 40
34.33116
  0
SEQEND
  0
POLYLINE
  8
LC_OH_2021_05_O7
  70
1
  66
1
  0
VERTEX
  8
LC_OH_2021_05_O7
  10
346042.411
  20
4484840.451
  0
VERTEX
  8
LC_OH_2021_05_O7
  10
344258.347
  20
4484877.538
  0
VERTEX
  8
LC_OH_2021_05_O7
  10
344337.503
  20
4486435.500
  0
VERTEX
  8
LC_OH_2021_05_O7
  10
344805.003
  20
4486640.000
  0
VERTEX
  8
LC_OH_2021_05_O7
  10
345197.004
  20
4486590.500
  0
VERTEX
  8
LC_OH_2021_05_O7
  10
345199.504
  20
4486590.500
  0
VERTEX
  8
LC_OH_2021_05_O7
  10
346131.504
  20
4486473.000
  0
SEQEND
  8
LC_OH_2021_05_O7
  0
INSERT
  8
FeatureAttribs
  2
FEATURE
  41
1
  42
1
  43
1
  50
0
  10
352842.969
  20
4484739.749
 66
1
  0
ATTRIB
  8
FeatureAttribs
 70
0
  1
PNOA-H_AMS_1956-57_33k_ES_PAN_21mic_H50_0531_fot_000-51051_R.tif
  2
NAME
  10
352842.969
  20
4484739.749
 40
34.33116
  0
SEQEND
  0
POLYLINE
  8
LC_OH_2021_05_O7
  70
1
  66
1
  0
VERTEX
  8
LC_OH_2021_05_O7
  10
353798.303
  20
4484684.684
  0
VERTEX
  8
LC_OH_2021_05_O7
  10
353477.513
  20
4484690.898
  0
VERTEX
  8
LC_OH_2021_05_O7
  10
351886.733
  20
4484722.463
  0
VERTEX
  8
LC_OH_2021_05_O7
  10
351928.504
  20
4486357.000
  0
VERTEX
  8
LC_OH_2021_05_O7
  10
353387.004
  20
4486165.500
  0
VERTEX
  8
LC_OH_2021_05_O7
  10
353391.504
  20
4486165.000
  0
VERTEX
  8
LC_OH_2021_05_O7
  10
353810.004
  20
4486110.500
  0
SEQEND
  8
LC_OH_2021_05_O7
  0
INSERT
  8
FeatureAttribs
  2
FEATURE
  41
1
  42
1
  43
1
  50
0
  10
355160.052
  20
4484672.249
 66
1
  0
ATTRIB
  8
FeatureAttribs
 70
0
  1
PNOA-H_AMS_1956-57_33k_ES_PAN_21mic_H50_0531_fot_000-51052_R.tif
  2
NAME
  10
355160.052
  20
4484672.249
 40
34.33116
  0
SEQEND
  0
POLYLINE
  8
LC_OH_2021_05_O7
  70
1
  66
1
  0
VERTEX
  8
LC_OH_2021_05_O7
  10
356521.797
  20
4484631.930
  0
VERTEX
  8
LC_OH_2021_05_O7
  10
353798.303
  20
4484684.684
  0
VERTEX
  8
LC_OH_2021_05_O7
  10
353810.004
  20
4486110.500
  0
VERTEX
  8
LC_OH_2021_05_O7
  10
354032.504
  20
4486233.500
  0
VERTEX
  8
LC_OH_2021_05_O7
  10
355433.004
  20
4486123.000
  0
VERTEX
  8
LC_OH_2021_05_O7
  10
355439.504
  20
4486122.500
  0
VERTEX
  8
LC_OH_2021_05_O7
  10
356506.504
  20
4486039.000
  0
VERTEX
  8
LC_OH_2021_05_O7
  10
356525.504
  20
4486024.500
  0
SEQEND
  8
LC_OH_2021_05_O7
  0
INSERT
  8
FeatureAttribs
  2
FEATURE
  41
1
  42
1
  43
1
  50
0
  10
357903.944
  20
4485343.732
 66
1
  0
ATTRIB
  8
FeatureAttribs
 70
0
  1
PNOA-H_AMS_1956-57_33k_ES_PAN_21mic_H50_0531_fot_000-51053_R.tif
  2
NAME
  10
357903.944
  20
4485343.732
 40
34.33116
  0
SEQEND
  0
POLYLINE
  8
LC_OH_2021_05_O7
  70
1
  66
1
  0
VERTEX
  8
LC_OH_2021_05_O7
  10
359286.091
  20
4484579.464
  0
VERTEX
  8
LC_OH_2021_05_O7
  10
357008.339
  20
4484622.506
  0
VERTEX
  8
LC_OH_2021_05_O7
  10
356521.797
  20
4484631.930
  0
VERTEX
  8
LC_OH_2021_05_O7
  10
356525.504
  20
4486024.500
  0
VERTEX
  8
LC_OH_2021_05_O7
  10
358931.005
  20
4486107.500
  0
VERTEX
  8
LC_OH_2021_05_O7
  10
358945.505
  20
4486108.000
  0
VERTEX
  8
LC_OH_2021_05_O7
  10
359275.005
  20
4485883.000
  0
SEQEND
  8
LC_OH_2021_05_O7
  0
INSERT
  8
FeatureAttribs
  2
FEATURE
  41
1
  42
1
  43
1
  50
0
  10
349787.235
  20
4484778.499
 66
1
  0
ATTRIB
  8
FeatureAttribs
 70
0
  1
PNOA-H_AMS_1956-57_33k_ES_PAN_21mic_H50_0531_fot_000-51049_R.tif
  2
NAME
  10
349787.235
  20
4484778.499
 40
34.33116
  0
SEQEND
  0
POLYLINE
  8
LC_OH_2021_05_O7
  70
1
  66
1
  0
VERTEX
  8
LC_OH_2021_05_O7
  10
350691.500
  20
4484746.179
  0
VERTEX
  8
LC_OH_2021_05_O7
  10
349946.675
  20
4484760.958
  0
VERTEX
  8
LC_OH_2021_05_O7
  10
348881.964
  20
4484782.588
  0
VERTEX
  8
LC_OH_2021_05_O7
  10
348938.004
  20
4486273.500
  0
VERTEX
  8
LC_OH_2021_05_O7
  10
349390.004
  20
4486475.000
  0
VERTEX
  8
LC_OH_2021_05_O7
  10
349391.504
  20
4486475.500
  0
VERTEX
  8
LC_OH_2021_05_O7
  10
350745.504
  20
4486270.000
  0
SEQEND
  8
LC_OH_2021_05_O7
  0
INSERT
  8
FeatureAttribs
  2
FEATURE
  41
1
  42
1
  43
1
  50
0
  10
366078.695
  20
4484646.999
 66
1
  0
ATTRIB
  8
FeatureAttribs
 70
0
  1
PNOA-H_AMS_1956-57_33k_ES_PAN_21mic_H50_0531_fot_000-51056_R.tif
  2
NAME
  10
366078.695
  20
4484646.999
 40
34.33116
  0
SEQEND
  0
POLYLINE
  8
LC_OH_2021_05_O7
  70
1
  66
1
  0
VERTEX
  8
LC_OH_2021_05_O7
  10
367381.027
  20
4484431.292
  0
VERTEX
  8
LC_OH_2021_05_O7
  10
364776.907
  20
4484478.041
  0
VERTEX
  8
LC_OH_2021_05_O7
  10
364760.505
  20
4485882.500
  0
VERTEX
  8
LC_OH_2021_05_O7
  10
366905.505
  20
4486264.000
  0
VERTEX
  8
LC_OH_2021_05_O7
  10
366908.005
  20
4486264.500
  0
VERTEX
  8
LC_OH_2021_05_O7
  10
366910.005
  20
4486264.500
  0
VERTEX
  8
LC_OH_2021_05_O7
  10
366914.505
  20
4486261.500
  0
VERTEX
  8
LC_OH_2021_05_O7
  10
367391.005
  20
4485933.500
  0
SEQEND
  8
LC_OH_2021_05_O7
  0
INSERT
  8
FeatureAttribs
  2
FEATURE
  41
1
  42
1
  43
1
  50
0
  10
363415.740
  20
4484593.000
 66
1
  0
ATTRIB
  8
FeatureAttribs
 70
0
  1
PNOA-H_AMS_1956-57_33k_ES_PAN_21mic_H50_0531_fot_000-51055_R.tif
  2
NAME
  10
363415.740
  20
4484593.000
 40
34.33116
  0
SEQEND
  0
POLYLINE
  8
LC_OH_2021_05_O7
  70
1
  66
1
  0
VERTEX
  8
LC_OH_2021_05_O7
  10
364776.903
  20
4484478.041
  0
VERTEX
  8
LC_OH_2021_05_O7
  10
364069.956
  20
4484490.732
  0
VERTEX
  8
LC_OH_2021_05_O7
  10
362056.957
  20
4484527.820
  0
VERTEX
  8
LC_OH_2021_05_O7
  10
362036.505
  20
4485800.500
  0
VERTEX
  8
LC_OH_2021_05_O7
  10
364196.005
  20
4486219.000
  0
VERTEX
  8
LC_OH_2021_05_O7
  10
364198.505
  20
4486219.500
  0
VERTEX
  8
LC_OH_2021_05_O7
  10
364203.005
  20
4486218.500
  0
VERTEX
  8
LC_OH_2021_05_O7
  10
364760.505
  20
4485882.500
  0
SEQEND
  8
LC_OH_2021_05_O7
  0
INSERT
  8
FeatureAttribs
  2
FEATURE
  41
1
  42
1
  43
1
  50
0
  10
368722.640
  20
4484668.999
 66
1
  0
ATTRIB
  8
FeatureAttribs
 70
0
  1
PNOA-H_AMS_1956-57_33k_ES_PAN_21mic_H50_0531_fot_000-51057_R.tif
  2
NAME
  10
368722.640
  20
4484668.999
 40
34.33116
  0
SEQEND
  0
POLYLINE
  8
LC_OH_2021_05_O7
  70
1
  66
1
  0
VERTEX
  8
LC_OH_2021_05_O7
  10
370063.725
  20
4484384.297
  0
VERTEX
  8
LC_OH_2021_05_O7
  10
367600.747
  20
4484427.348
  0
VERTEX
  8
LC_OH_2021_05_O7
  10
367380.849
  20
4484431.295
  0
VERTEX
  8
LC_OH_2021_05_O7
  10
367391.005
  20
4485933.500
  0
VERTEX
  8
LC_OH_2021_05_O7
  10
367721.505
  20
4485963.500
  0
VERTEX
  8
LC_OH_2021_05_O7
  10
367727.005
  20
4485964.000
  0
VERTEX
  8
LC_OH_2021_05_O7
  10
369664.506
  20
4486138.500
  0
VERTEX
  8
LC_OH_2021_05_O7
  10
370059.006
  20
4485858.000
  0
SEQEND
  8
LC_OH_2021_05_O7
  0
INSERT
  8
FeatureAttribs
  2
FEATURE
  41
1
  42
1
  43
1
  50
0
  10
360671.267
  20
4484567.249
 66
1
  0
ATTRIB
  8
FeatureAttribs
 70
0
  1
PNOA-H_AMS_1956-57_33k_ES_PAN_21mic_H50_0531_fot_000-51054_R.tif
  2
NAME
  10
360671.267
  20
4484567.249
 40
34.33116
  0
SEQEND
  0
POLYLINE
  8
LC_OH_2021_05_O7
  70
1
  66
1
  0
VERTEX
  8
LC_OH_2021_05_O7
  10
362056.957
  20
4484527.820
  0
VERTEX
  8
LC_OH_2021_05_O7
  10
360539.153
  20
4484555.784
  0
VERTEX
  8
LC_OH_2021_05_O7
  10
359286.091
  20
4484579.464
  0
VERTEX
  8
LC_OH_2021_05_O7
  10
359275.005
  20
4485883.000
  0
VERTEX
  8
LC_OH_2021_05_O7
  10
359527.005
  20
4485912.000
  0
VERTEX
  8
LC_OH_2021_05_O7
  10
359531.505
  20
4485912.500
  0
VERTEX
  8
LC_OH_2021_05_O7
  10
361512.505
  20
4486139.000
  0
VERTEX
  8
LC_OH_2021_05_O7
  10
362036.505
  20
4485800.500
  0
SEQEND
  8
LC_OH_2021_05_O7
  0
INSERT
  8
FeatureAttribs
  2
FEATURE
  41
1
  42
1
  43
1
  50
0
  10
370609.463
  20
4485188.812
 66
1
  0
ATTRIB
  8
FeatureAttribs
 70
0
  1
PNOA-H_AMS_1956-57_33k_ES_PAN_21mic_H50_0531_fot_000-51058_R.tif
  2
NAME
  10
370609.463
  20
4485188.812
 40
34.33116
  0
SEQEND
  0
POLYLINE
  8
LC_OH_2021_05_O7
  70
1
  66
1
  0
VERTEX
  8
LC_OH_2021_05_O7
  10
371159.921
  20
4486011.991
  0
VERTEX
  8
LC_OH_2021_05_O7
  10
371131.527
  20
4484365.633
  0
VERTEX
  8
LC_OH_2021_05_O7
  10
370063.725
  20
4484384.297
  0
VERTEX
  8
LC_OH_2021_05_O7
  10
370059.006
  20
4485858.000
  0
SEQEND
  8
LC_OH_2021_05_O7
  0
ENDSEC
  0
EOF
