  0
SECTION
  2
HEADER
  9
$ACADVER
  1
AC1009
  9
$LUNITS
  70
2
  9
$LIMMIN
  10
314637.552
  20
4484906.088
  9
$LIMMAX
  10
343274.610
  20
4504055.737
  9
$EXTMIN
  10
314637.552
  20
4484906.088
  9
$EXTMAX
  10
343274.610
  20
4504055.737
  999
Created by Global Mapper
  999
Projection: UTM
  999
Datum: ETRS89
  999
Ground Units: meters
  999
ZONE: 30
  0
ENDSEC
  0
SECTION
  2
TABLES
  0
ENDSEC
  0
SECTION
  2
BLOCKS
  0
BLOCK
  8
FeatureAttribs
  70
0
  2
FEATURE
  3
FEATURE
  10
0.00000000
  20
0.00000000
  0
ATTDEF
  8
FeatureAttribs
  70
0
  1
 
  2
NAME
  3
NAME
  10
0.00000000
  20
0.00000000
  40
1.00000000
  0
ENDBLK
  0
ENDSEC
  0
SECTION
  2
ENTITIES
  0
INSERT
  8
FeatureAttribs
  2
FEATURE
  41
1
  42
1
  43
1
  50
0
  10
315320.220
  20
4501685.422
 66
1
  0
ATTRIB
  8
FeatureAttribs
 70
0
  1
PNOA-H_AMS_1956-57_33k_ES_PAN_21mic_H50_0529_fot_63B-34883_W.tif
  2
NAME
  10
315320.220
  20
4501685.422
 40
34.44982
  0
SEQEND
  0
POLYLINE
  8
LC_OH_2021_05_O7
  70
1
  66
1
  0
VERTEX
  8
LC_OH_2021_05_O7
  10
315092.264
  20
4503852.239
  0
VERTEX
  8
LC_OH_2021_05_O7
  10
315656.002
  20
4503840.500
  0
VERTEX
  8
LC_OH_2021_05_O7
  10
315542.502
  20
4499725.000
  0
VERTEX
  8
LC_OH_2021_05_O7
  10
314984.439
  20
4499518.604
  0
VERTEX
  8
LC_OH_2021_05_O7
  10
315039.771
  20
4501742.920
  0
SEQEND
  8
LC_OH_2021_05_O7
  0
INSERT
  8
FeatureAttribs
  2
FEATURE
  41
1
  42
1
  43
1
  50
0
  10
315265.096
  20
4492271.354
 66
1
  0
ATTRIB
  8
FeatureAttribs
 70
0
  1
PNOA-H_AMS_1956-57_33k_ES_PAN_21mic_H50_0529_fot_65B-42139_W.tif
  2
NAME
  10
315265.096
  20
4492271.354
 40
34.44982
  0
SEQEND
  0
POLYLINE
  8
LC_OH_2021_05_O7
  70
1
  66
1
  0
VERTEX
  8
LC_OH_2021_05_O7
  10
314863.959
  20
4494672.288
  0
VERTEX
  8
LC_OH_2021_05_O7
  10
315785.502
  20
4494384.000
  0
VERTEX
  8
LC_OH_2021_05_O7
  10
315761.002
  20
4490238.500
  0
VERTEX
  8
LC_OH_2021_05_O7
  10
314879.002
  20
4489918.500
  0
VERTEX
  8
LC_OH_2021_05_O7
  10
314877.502
  20
4489918.500
  0
VERTEX
  8
LC_OH_2021_05_O7
  10
314744.690
  20
4489870.420
  0
VERTEX
  8
LC_OH_2021_05_O7
  10
314752.349
  20
4490178.941
  0
VERTEX
  8
LC_OH_2021_05_O7
  10
314809.784
  20
4492491.723
  0
SEQEND
  8
LC_OH_2021_05_O7
  0
INSERT
  8
FeatureAttribs
  2
FEATURE
  41
1
  42
1
  43
1
  50
0
  10
342937.939
  20
4500675.250
 66
1
  0
ATTRIB
  8
FeatureAttribs
 70
0
  1
PNOA-H_AMS_1956-57_33k_ES_PAN_21mic_H50_0530_fot_63B-34872_W.tif
  2
NAME
  10
342937.939
  20
4500675.250
 40
34.44982
  0
SEQEND
  0
POLYLINE
  8
LC_OH_2021_05_O7
  70
1
  66
1
  0
VERTEX
  8
LC_OH_2021_05_O7
  10
343262.335
  20
4502825.842
  0
VERTEX
  8
LC_OH_2021_05_O7
  10
343225.831
  20
4501095.091
  0
VERTEX
  8
LC_OH_2021_05_O7
  10
343177.072
  20
4498782.354
  0
VERTEX
  8
LC_OH_2021_05_O7
  10
343175.098
  20
4498688.685
  0
VERTEX
  8
LC_OH_2021_05_O7
  10
342236.003
  20
4498517.000
  0
VERTEX
  8
LC_OH_2021_05_O7
  10
342232.503
  20
4498517.000
  0
VERTEX
  8
LC_OH_2021_05_O7
  10
342226.503
  20
4498519.500
  0
VERTEX
  8
LC_OH_2021_05_O7
  10
341514.003
  20
4498838.500
  0
VERTEX
  8
LC_OH_2021_05_O7
  10
341773.003
  20
4502813.500
  0
SEQEND
  8
LC_OH_2021_05_O7
  0
INSERT
  8
FeatureAttribs
  2
FEATURE
  41
1
  42
1
  43
1
  50
0
  10
340390.695
  20
4500864.500
 66
1
  0
ATTRIB
  8
FeatureAttribs
 70
0
  1
PNOA-H_AMS_1956-57_33k_ES_PAN_21mic_H50_0530_fot_63B-34873_W.tif
  2
NAME
  10
340390.695
  20
4500864.500
 40
34.44982
  0
SEQEND
  0
POLYLINE
  8
LC_OH_2021_05_O7
  70
1
  66
1
  0
VERTEX
  8
LC_OH_2021_05_O7
  10
341600.003
  20
4500158.500
  0
VERTEX
  8
LC_OH_2021_05_O7
  10
341514.003
  20
4498838.500
  0
VERTEX
  8
LC_OH_2021_05_O7
  10
339407.503
  20
4498652.500
  0
VERTEX
  8
LC_OH_2021_05_O7
  10
339011.503
  20
4498853.000
  0
VERTEX
  8
LC_OH_2021_05_O7
  10
339259.503
  20
4502876.000
  0
VERTEX
  8
LC_OH_2021_05_O7
  10
341406.503
  20
4503076.500
  0
VERTEX
  8
LC_OH_2021_05_O7
  10
341773.003
  20
4502813.500
  0
VERTEX
  8
LC_OH_2021_05_O7
  10
341600.003
  20
4500161.000
  0
VERTEX
  8
LC_OH_2021_05_O7
  10
341600.003
  20
4500158.500
  0
SEQEND
  8
LC_OH_2021_05_O7
  0
INSERT
  8
FeatureAttribs
  2
FEATURE
  41
1
  42
1
  43
1
  50
0
  10
335354.405
  20
4501153.749
 66
1
  0
ATTRIB
  8
FeatureAttribs
 70
0
  1
PNOA-H_AMS_1956-57_33k_ES_PAN_21mic_H50_0530_fot_63B-34875_W.tif
  2
NAME
  10
335354.405
  20
4501153.749
 40
34.44982
  0
SEQEND
  0
POLYLINE
  8
LC_OH_2021_05_O7
  70
1
  66
1
  0
VERTEX
  8
LC_OH_2021_05_O7
  10
334105.503
  20
4503026.000
  0
VERTEX
  8
LC_OH_2021_05_O7
  10
335675.003
  20
4503479.500
  0
VERTEX
  8
LC_OH_2021_05_O7
  10
335676.503
  20
4503480.000
  0
VERTEX
  8
LC_OH_2021_05_O7
  10
335679.503
  20
4503480.000
  0
VERTEX
  8
LC_OH_2021_05_O7
  10
335684.503
  20
4503477.500
  0
VERTEX
  8
LC_OH_2021_05_O7
  10
336712.503
  20
4502931.000
  0
VERTEX
  8
LC_OH_2021_05_O7
  10
336540.503
  20
4498827.500
  0
VERTEX
  8
LC_OH_2021_05_O7
  10
334030.003
  20
4498953.000
  0
SEQEND
  8
LC_OH_2021_05_O7
  0
INSERT
  8
FeatureAttribs
  2
FEATURE
  41
1
  42
1
  43
1
  50
0
  10
332785.134
  20
4501239.250
 66
1
  0
ATTRIB
  8
FeatureAttribs
 70
0
  1
PNOA-H_AMS_1956-57_33k_ES_PAN_21mic_H50_0530_fot_63B-34876_W.tif
  2
NAME
  10
332785.134
  20
4501239.250
 40
34.44982
  0
SEQEND
  0
POLYLINE
  8
LC_OH_2021_05_O7
  70
1
  66
1
  0
VERTEX
  8
LC_OH_2021_05_O7
  10
331547.003
  20
4503142.000
  0
VERTEX
  8
LC_OH_2021_05_O7
  10
332812.503
  20
4503591.000
  0
VERTEX
  8
LC_OH_2021_05_O7
  10
332910.003
  20
4503548.500
  0
VERTEX
  8
LC_OH_2021_05_O7
  10
332911.503
  20
4503548.000
  0
VERTEX
  8
LC_OH_2021_05_O7
  10
334105.503
  20
4503026.000
  0
VERTEX
  8
LC_OH_2021_05_O7
  10
334030.503
  20
4498953.500
  0
VERTEX
  8
LC_OH_2021_05_O7
  10
334027.003
  20
4498951.000
  0
VERTEX
  8
LC_OH_2021_05_O7
  10
333899.503
  20
4498892.500
  0
VERTEX
  8
LC_OH_2021_05_O7
  10
333886.503
  20
4498887.500
  0
VERTEX
  8
LC_OH_2021_05_O7
  10
331442.003
  20
4499059.000
  0
VERTEX
  8
LC_OH_2021_05_O7
  10
331442.003
  20
4499091.000
  0
SEQEND
  8
LC_OH_2021_05_O7
  0
INSERT
  8
FeatureAttribs
  2
FEATURE
  41
1
  42
1
  43
1
  50
0
  10
337891.100
  20
4501065.749
 66
1
  0
ATTRIB
  8
FeatureAttribs
 70
0
  1
PNOA-H_AMS_1956-57_33k_ES_PAN_21mic_H50_0530_fot_63B-34874_W.tif
  2
NAME
  10
337891.100
  20
4501065.749
 40
34.44982
  0
SEQEND
  0
POLYLINE
  8
LC_OH_2021_05_O7
  70
1
  66
1
  0
VERTEX
  8
LC_OH_2021_05_O7
  10
336712.003
  20
4502930.000
  0
VERTEX
  8
LC_OH_2021_05_O7
  10
336713.503
  20
4502931.500
  0
VERTEX
  8
LC_OH_2021_05_O7
  10
337004.503
  20
4502989.500
  0
VERTEX
  8
LC_OH_2021_05_O7
  10
337007.003
  20
4502990.000
  0
VERTEX
  8
LC_OH_2021_05_O7
  10
338579.003
  20
4503303.500
  0
VERTEX
  8
LC_OH_2021_05_O7
  10
339259.503
  20
4502876.000
  0
VERTEX
  8
LC_OH_2021_05_O7
  10
339011.503
  20
4498853.000
  0
VERTEX
  8
LC_OH_2021_05_O7
  10
336541.003
  20
4498828.000
  0
SEQEND
  8
LC_OH_2021_05_O7
  0
INSERT
  8
FeatureAttribs
  2
FEATURE
  41
1
  42
1
  43
1
  50
0
  10
325035.896
  20
4501459.000
 66
1
  0
ATTRIB
  8
FeatureAttribs
 70
0
  1
PNOA-H_AMS_1956-57_33k_ES_PAN_21mic_H50_0530_fot_63B-34879_W.tif
  2
NAME
  10
325035.896
  20
4501459.000
 40
34.44982
  0
SEQEND
  0
POLYLINE
  8
LC_OH_2021_05_O7
  70
1
  66
1
  0
VERTEX
  8
LC_OH_2021_05_O7
  10
323759.002
  20
4503485.500
  0
VERTEX
  8
LC_OH_2021_05_O7
  10
324306.002
  20
4503790.500
  0
VERTEX
  8
LC_OH_2021_05_O7
  10
324717.002
  20
4503713.000
  0
VERTEX
  8
LC_OH_2021_05_O7
  10
324719.502
  20
4503712.500
  0
VERTEX
  8
LC_OH_2021_05_O7
  10
326436.002
  20
4503389.000
  0
VERTEX
  8
LC_OH_2021_05_O7
  10
326298.002
  20
4499359.500
  0
VERTEX
  8
LC_OH_2021_05_O7
  10
325674.502
  20
4499127.500
  0
VERTEX
  8
LC_OH_2021_05_O7
  10
323648.002
  20
4499475.000
  0
VERTEX
  8
LC_OH_2021_05_O7
  10
323646.502
  20
4499475.500
  0
VERTEX
  8
LC_OH_2021_05_O7
  10
323646.502
  20
4499492.500
  0
SEQEND
  8
LC_OH_2021_05_O7
  0
INSERT
  8
FeatureAttribs
  2
FEATURE
  41
1
  42
1
  43
1
  50
0
  10
330228.713
  20
4501307.750
 66
1
  0
ATTRIB
  8
FeatureAttribs
 70
0
  1
PNOA-H_AMS_1956-57_33k_ES_PAN_21mic_H50_0530_fot_63B-34877_W.tif
  2
NAME
  10
330228.713
  20
4501307.750
 40
34.44982
  0
SEQEND
  0
POLYLINE
  8
LC_OH_2021_05_O7
  70
1
  66
1
  0
VERTEX
  8
LC_OH_2021_05_O7
  10
329013.003
  20
4503269.000
  0
VERTEX
  8
LC_OH_2021_05_O7
  10
329942.503
  20
4503675.000
  0
VERTEX
  8
LC_OH_2021_05_O7
  10
329945.003
  20
4503675.000
  0
VERTEX
  8
LC_OH_2021_05_O7
  10
330019.003
  20
4503650.500
  0
VERTEX
  8
LC_OH_2021_05_O7
  10
330862.003
  20
4503369.500
  0
VERTEX
  8
LC_OH_2021_05_O7
  10
330863.503
  20
4503369.000
  0
VERTEX
  8
LC_OH_2021_05_O7
  10
331547.003
  20
4503142.000
  0
VERTEX
  8
LC_OH_2021_05_O7
  10
331441.503
  20
4499059.000
  0
VERTEX
  8
LC_OH_2021_05_O7
  10
331167.503
  20
4498941.000
  0
VERTEX
  8
LC_OH_2021_05_O7
  10
331162.503
  20
4498940.500
  0
VERTEX
  8
LC_OH_2021_05_O7
  10
328899.003
  20
4499217.000
  0
SEQEND
  8
LC_OH_2021_05_O7
  0
INSERT
  8
FeatureAttribs
  2
FEATURE
  41
1
  42
1
  43
1
  50
0
  10
339659.034
  20
4492210.750
 66
1
  0
ATTRIB
  8
FeatureAttribs
 70
0
  1
PNOA-H_AMS_1956-57_33k_ES_PAN_21mic_H50_0530_fot_65B-42129_W.tif
  2
NAME
  10
339659.034
  20
4492210.750
 40
34.44982
  0
SEQEND
  0
POLYLINE
  8
LC_OH_2021_05_O7
  70
1
  66
1
  0
VERTEX
  8
LC_OH_2021_05_O7
  10
339388.503
  20
4494286.000
  0
VERTEX
  8
LC_OH_2021_05_O7
  10
341042.503
  20
4493848.000
  0
VERTEX
  8
LC_OH_2021_05_O7
  10
341001.003
  20
4490446.000
  0
VERTEX
  8
LC_OH_2021_05_O7
  10
340496.503
  20
4490135.500
  0
VERTEX
  8
LC_OH_2021_05_O7
  10
338333.503
  20
4490294.500
  0
VERTEX
  8
LC_OH_2021_05_O7
  10
338328.503
  20
4490295.000
  0
VERTEX
  8
LC_OH_2021_05_O7
  10
338326.003
  20
4490297.000
  0
VERTEX
  8
LC_OH_2021_05_O7
  10
338267.503
  20
4490348.500
  0
VERTEX
  8
LC_OH_2021_05_O7
  10
338321.003
  20
4493899.000
  0
VERTEX
  8
LC_OH_2021_05_O7
  10
339387.003
  20
4494285.500
  0
VERTEX
  8
LC_OH_2021_05_O7
  10
339388.503
  20
4494286.000
  0
SEQEND
  8
LC_OH_2021_05_O7
  0
INSERT
  8
FeatureAttribs
  2
FEATURE
  41
1
  42
1
  43
1
  50
0
  10
322351.780
  20
4501512.501
 66
1
  0
ATTRIB
  8
FeatureAttribs
 70
0
  1
PNOA-H_AMS_1956-57_33k_ES_PAN_21mic_H50_0530_fot_63B-34880_W.tif
  2
NAME
  10
322351.780
  20
4501512.501
 40
34.44982
  0
SEQEND
  0
POLYLINE
  8
LC_OH_2021_05_O7
  70
1
  66
1
  0
VERTEX
  8
LC_OH_2021_05_O7
  10
321091.002
  20
4503586.500
  0
VERTEX
  8
LC_OH_2021_05_O7
  10
321499.502
  20
4503830.500
  0
VERTEX
  8
LC_OH_2021_05_O7
  10
322668.502
  20
4503651.500
  0
VERTEX
  8
LC_OH_2021_05_O7
  10
322671.502
  20
4503651.500
  0
VERTEX
  8
LC_OH_2021_05_O7
  10
323759.002
  20
4503485.000
  0
VERTEX
  8
LC_OH_2021_05_O7
  10
323646.502
  20
4499475.500
  0
VERTEX
  8
LC_OH_2021_05_O7
  10
322914.002
  20
4499194.500
  0
VERTEX
  8
LC_OH_2021_05_O7
  10
320914.002
  20
4499556.000
  0
SEQEND
  8
LC_OH_2021_05_O7
  0
INSERT
  8
FeatureAttribs
  2
FEATURE
  41
1
  42
1
  43
1
  50
0
  10
316947.442
  20
4501635.751
 66
1
  0
ATTRIB
  8
FeatureAttribs
 70
0
  1
PNOA-H_AMS_1956-57_33k_ES_PAN_21mic_H50_0530_fot_63B-34882_W.tif
  2
NAME
  10
316947.442
  20
4501635.751
 40
34.44982
  0
SEQEND
  0
POLYLINE
  8
LC_OH_2021_05_O7
  70
1
  66
1
  0
VERTEX
  8
LC_OH_2021_05_O7
  10
315656.002
  20
4503840.500
  0
VERTEX
  8
LC_OH_2021_05_O7
  10
315729.002
  20
4503894.000
  0
VERTEX
  8
LC_OH_2021_05_O7
  10
316526.002
  20
4503854.000
  0
VERTEX
  8
LC_OH_2021_05_O7
  10
316527.502
  20
4503854.000
  0
VERTEX
  8
LC_OH_2021_05_O7
  10
318392.502
  20
4503761.500
  0
VERTEX
  8
LC_OH_2021_05_O7
  10
318212.002
  20
4499626.500
  0
VERTEX
  8
LC_OH_2021_05_O7
  10
317556.002
  20
4499377.500
  0
VERTEX
  8
LC_OH_2021_05_O7
  10
315542.502
  20
4499725.000
  0
SEQEND
  8
LC_OH_2021_05_O7
  0
INSERT
  8
FeatureAttribs
  2
FEATURE
  41
1
  42
1
  43
1
  50
0
  10
328951.633
  20
4492162.999
 66
1
  0
ATTRIB
  8
FeatureAttribs
 70
0
  1
PNOA-H_AMS_1956-57_33k_ES_PAN_21mic_H50_0530_fot_65B-42133_W.tif
  2
NAME
  10
328951.633
  20
4492162.999
 40
34.44982
  0
SEQEND
  0
POLYLINE
  8
LC_OH_2021_05_O7
  70
1
  66
1
  0
VERTEX
  8
LC_OH_2021_05_O7
  10
328815.503
  20
4494280.500
  0
VERTEX
  8
LC_OH_2021_05_O7
  10
330213.003
  20
4494089.500
  0
VERTEX
  8
LC_OH_2021_05_O7
  10
330171.003
  20
4490327.500
  0
VERTEX
  8
LC_OH_2021_05_O7
  10
330170.003
  20
4490323.000
  0
VERTEX
  8
LC_OH_2021_05_O7
  10
328495.502
  20
4489954.000
  0
VERTEX
  8
LC_OH_2021_05_O7
  10
327763.502
  20
4490310.000
  0
VERTEX
  8
LC_OH_2021_05_O7
  10
327753.502
  20
4490315.000
  0
VERTEX
  8
LC_OH_2021_05_O7
  10
327752.502
  20
4490317.000
  0
VERTEX
  8
LC_OH_2021_05_O7
  10
327667.502
  20
4494171.000
  0
VERTEX
  8
LC_OH_2021_05_O7
  10
328149.502
  20
4494372.000
  0
VERTEX
  8
LC_OH_2021_05_O7
  10
328811.003
  20
4494281.000
  0
VERTEX
  8
LC_OH_2021_05_O7
  10
328815.503
  20
4494280.500
  0
SEQEND
  8
LC_OH_2021_05_O7
  0
INSERT
  8
FeatureAttribs
  2
FEATURE
  41
1
  42
1
  43
1
  50
0
  10
342440.158
  20
4492140.501
 66
1
  0
ATTRIB
  8
FeatureAttribs
 70
0
  1
PNOA-H_AMS_1956-57_33k_ES_PAN_21mic_H50_0530_fot_65B-42128_W.tif
  2
NAME
  10
342440.158
  20
4492140.501
 40
34.44982
  0
SEQEND
  0
POLYLINE
  8
LC_OH_2021_05_O7
  70
1
  66
1
  0
VERTEX
  8
LC_OH_2021_05_O7
  10
342993.940
  20
4490087.012
  0
VERTEX
  8
LC_OH_2021_05_O7
  10
342739.503
  20
4489982.000
  0
VERTEX
  8
LC_OH_2021_05_O7
  10
342680.003
  20
4489997.000
  0
VERTEX
  8
LC_OH_2021_05_O7
  10
341001.003
  20
4490446.000
  0
VERTEX
  8
LC_OH_2021_05_O7
  10
341042.003
  20
4493846.500
  0
VERTEX
  8
LC_OH_2021_05_O7
  10
341043.003
  20
4493848.500
  0
VERTEX
  8
LC_OH_2021_05_O7
  10
341101.503
  20
4493868.500
  0
VERTEX
  8
LC_OH_2021_05_O7
  10
341102.503
  20
4493869.000
  0
VERTEX
  8
LC_OH_2021_05_O7
  10
342351.503
  20
4494299.000
  0
VERTEX
  8
LC_OH_2021_05_O7
  10
343078.209
  20
4494089.981
  0
VERTEX
  8
LC_OH_2021_05_O7
  10
343030.922
  20
4491844.187
  0
SEQEND
  8
LC_OH_2021_05_O7
  0
INSERT
  8
FeatureAttribs
  2
FEATURE
  41
1
  42
1
  43
1
  50
0
  10
327663.349
  20
4501370.750
 66
1
  0
ATTRIB
  8
FeatureAttribs
 70
0
  1
PNOA-H_AMS_1956-57_33k_ES_PAN_21mic_H50_0530_fot_63B-34878_W.tif
  2
NAME
  10
327663.349
  20
4501370.750
 40
34.44982
  0
SEQEND
  0
POLYLINE
  8
LC_OH_2021_05_O7
  70
1
  66
1
  0
VERTEX
  8
LC_OH_2021_05_O7
  10
326436.002
  20
4503389.000
  0
VERTEX
  8
LC_OH_2021_05_O7
  10
326766.002
  20
4503555.000
  0
VERTEX
  8
LC_OH_2021_05_O7
  10
326767.002
  20
4503555.500
  0
VERTEX
  8
LC_OH_2021_05_O7
  10
327104.002
  20
4503725.000
  0
VERTEX
  8
LC_OH_2021_05_O7
  10
327107.002
  20
4503725.000
  0
VERTEX
  8
LC_OH_2021_05_O7
  10
329013.003
  20
4503269.500
  0
VERTEX
  8
LC_OH_2021_05_O7
  10
328899.503
  20
4499217.500
  0
VERTEX
  8
LC_OH_2021_05_O7
  10
328898.503
  20
4499216.500
  0
VERTEX
  8
LC_OH_2021_05_O7
  10
328385.002
  20
4499016.500
  0
VERTEX
  8
LC_OH_2021_05_O7
  10
326298.002
  20
4499359.500
  0
SEQEND
  8
LC_OH_2021_05_O7
  0
INSERT
  8
FeatureAttribs
  2
FEATURE
  41
1
  42
1
  43
1
  50
0
  10
319650.487
  20
4501592.251
 66
1
  0
ATTRIB
  8
FeatureAttribs
 70
0
  1
PNOA-H_AMS_1956-57_33k_ES_PAN_21mic_H50_0530_fot_63B-34881_W.tif
  2
NAME
  10
319650.487
  20
4501592.251
 40
34.44982
  0
SEQEND
  0
POLYLINE
  8
LC_OH_2021_05_O7
  70
1
  66
1
  0
VERTEX
  8
LC_OH_2021_05_O7
  10
318392.502
  20
4503761.500
  0
VERTEX
  8
LC_OH_2021_05_O7
  10
318574.002
  20
4503884.000
  0
VERTEX
  8
LC_OH_2021_05_O7
  10
318574.502
  20
4503885.000
  0
VERTEX
  8
LC_OH_2021_05_O7
  10
318579.002
  20
4503888.000
  0
VERTEX
  8
LC_OH_2021_05_O7
  10
318583.002
  20
4503888.000
  0
VERTEX
  8
LC_OH_2021_05_O7
  10
321091.002
  20
4503586.500
  0
VERTEX
  8
LC_OH_2021_05_O7
  10
320914.002
  20
4499556.000
  0
VERTEX
  8
LC_OH_2021_05_O7
  10
320208.002
  20
4499296.500
  0
VERTEX
  8
LC_OH_2021_05_O7
  10
318211.502
  20
4499626.000
  0
SEQEND
  8
LC_OH_2021_05_O7
  0
INSERT
  8
FeatureAttribs
  2
FEATURE
  41
1
  42
1
  43
1
  50
0
  10
331499.474
  20
4492192.501
 66
1
  0
ATTRIB
  8
FeatureAttribs
 70
0
  1
PNOA-H_AMS_1956-57_33k_ES_PAN_21mic_H50_0530_fot_65B-42132_W.tif
  2
NAME
  10
331499.474
  20
4492192.501
 40
34.44982
  0
SEQEND
  0
POLYLINE
  8
LC_OH_2021_05_O7
  70
1
  66
1
  0
VERTEX
  8
LC_OH_2021_05_O7
  10
330902.003
  20
4494339.000
  0
VERTEX
  8
LC_OH_2021_05_O7
  10
332776.003
  20
4493932.500
  0
VERTEX
  8
LC_OH_2021_05_O7
  10
332839.003
  20
4490437.500
  0
VERTEX
  8
LC_OH_2021_05_O7
  10
332839.003
  20
4490417.000
  0
VERTEX
  8
LC_OH_2021_05_O7
  10
332838.003
  20
4490416.500
  0
VERTEX
  8
LC_OH_2021_05_O7
  10
330709.003
  20
4490046.000
  0
VERTEX
  8
LC_OH_2021_05_O7
  10
330704.003
  20
4490047.500
  0
VERTEX
  8
LC_OH_2021_05_O7
  10
330170.503
  20
4490323.500
  0
VERTEX
  8
LC_OH_2021_05_O7
  10
330213.003
  20
4494089.500
  0
VERTEX
  8
LC_OH_2021_05_O7
  10
330900.503
  20
4494338.500
  0
VERTEX
  8
LC_OH_2021_05_O7
  10
330902.003
  20
4494339.000
  0
SEQEND
  8
LC_OH_2021_05_O7
  0
INSERT
  8
FeatureAttribs
  2
FEATURE
  41
1
  42
1
  43
1
  50
0
  10
326528.942
  20
4492120.250
 66
1
  0
ATTRIB
  8
FeatureAttribs
 70
0
  1
PNOA-H_AMS_1956-57_33k_ES_PAN_21mic_H50_0530_fot_65B-42134_W.tif
  2
NAME
  10
326528.942
  20
4492120.250
 40
34.44982
  0
SEQEND
  0
POLYLINE
  8
LC_OH_2021_05_O7
  70
1
  66
1
  0
VERTEX
  8
LC_OH_2021_05_O7
  10
327716.002
  20
4491966.500
  0
VERTEX
  8
LC_OH_2021_05_O7
  10
327753.002
  20
4490315.500
  0
VERTEX
  8
LC_OH_2021_05_O7
  10
326115.502
  20
4489879.500
  0
VERTEX
  8
LC_OH_2021_05_O7
  10
326105.002
  20
4489883.000
  0
VERTEX
  8
LC_OH_2021_05_O7
  10
325286.502
  20
4490227.000
  0
VERTEX
  8
LC_OH_2021_05_O7
  10
325413.502
  20
4494346.000
  0
VERTEX
  8
LC_OH_2021_05_O7
  10
325447.002
  20
4494360.500
  0
VERTEX
  8
LC_OH_2021_05_O7
  10
325452.002
  20
4494361.000
  0
VERTEX
  8
LC_OH_2021_05_O7
  10
327667.502
  20
4494170.500
  0
VERTEX
  8
LC_OH_2021_05_O7
  10
327716.002
  20
4491985.000
  0
VERTEX
  8
LC_OH_2021_05_O7
  10
327716.002
  20
4491966.500
  0
SEQEND
  8
LC_OH_2021_05_O7
  0
INSERT
  8
FeatureAttribs
  2
FEATURE
  41
1
  42
1
  43
1
  50
0
  10
334199.523
  20
4492209.501
 66
1
  0
ATTRIB
  8
FeatureAttribs
 70
0
  1
PNOA-H_AMS_1956-57_33k_ES_PAN_21mic_H50_0530_fot_65B-42131_W.tif
  2
NAME
  10
334199.523
  20
4492209.501
 40
34.44982
  0
SEQEND
  0
POLYLINE
  8
LC_OH_2021_05_O7
  70
1
  66
1
  0
VERTEX
  8
LC_OH_2021_05_O7
  10
332910.503
  20
4493985.000
  0
VERTEX
  8
LC_OH_2021_05_O7
  10
333672.503
  20
4494281.000
  0
VERTEX
  8
LC_OH_2021_05_O7
  10
333678.003
  20
4494281.500
  0
VERTEX
  8
LC_OH_2021_05_O7
  10
335588.003
  20
4493903.500
  0
VERTEX
  8
LC_OH_2021_05_O7
  10
335596.503
  20
4490451.000
  0
VERTEX
  8
LC_OH_2021_05_O7
  10
333228.003
  20
4490137.500
  0
VERTEX
  8
LC_OH_2021_05_O7
  10
333222.503
  20
4490138.500
  0
VERTEX
  8
LC_OH_2021_05_O7
  10
332839.003
  20
4490417.000
  0
VERTEX
  8
LC_OH_2021_05_O7
  10
332776.003
  20
4493932.500
  0
VERTEX
  8
LC_OH_2021_05_O7
  10
332909.003
  20
4493984.500
  0
VERTEX
  8
LC_OH_2021_05_O7
  10
332910.503
  20
4493985.000
  0
SEQEND
  8
LC_OH_2021_05_O7
  0
INSERT
  8
FeatureAttribs
  2
FEATURE
  41
1
  42
1
  43
1
  50
0
  10
324153.472
  20
4492115.750
 66
1
  0
ATTRIB
  8
FeatureAttribs
 70
0
  1
PNOA-H_AMS_1956-57_33k_ES_PAN_21mic_H50_0530_fot_65B-42135_W.tif
  2
NAME
  10
324153.472
  20
4492115.750
 40
34.44982
  0
SEQEND
  0
POLYLINE
  8
LC_OH_2021_05_O7
  70
1
  66
1
  0
VERTEX
  8
LC_OH_2021_05_O7
  10
325340.002
  20
4491966.500
  0
VERTEX
  8
LC_OH_2021_05_O7
  10
325286.502
  20
4490227.000
  0
VERTEX
  8
LC_OH_2021_05_O7
  10
323794.502
  20
4489871.000
  0
VERTEX
  8
LC_OH_2021_05_O7
  10
322893.002
  20
4490237.500
  0
VERTEX
  8
LC_OH_2021_05_O7
  10
323045.502
  20
4494360.500
  0
VERTEX
  8
LC_OH_2021_05_O7
  10
325413.502
  20
4494345.500
  0
VERTEX
  8
LC_OH_2021_05_O7
  10
325340.002
  20
4491971.500
  0
VERTEX
  8
LC_OH_2021_05_O7
  10
325340.002
  20
4491966.500
  0
SEQEND
  8
LC_OH_2021_05_O7
  0
INSERT
  8
FeatureAttribs
  2
FEATURE
  41
1
  42
1
  43
1
  50
0
  10
319318.589
  20
4492209.250
 66
1
  0
ATTRIB
  8
FeatureAttribs
 70
0
  1
PNOA-H_AMS_1956-57_33k_ES_PAN_21mic_H50_0530_fot_65B-42137_W.tif
  2
NAME
  10
319318.589
  20
4492209.250
 40
34.44982
  0
SEQEND
  0
POLYLINE
  8
LC_OH_2021_05_O7
  70
1
  66
1
  0
VERTEX
  8
LC_OH_2021_05_O7
  10
319505.502
  20
4489918.500
  0
VERTEX
  8
LC_OH_2021_05_O7
  10
319335.502
  20
4489865.000
  0
VERTEX
  8
LC_OH_2021_05_O7
  10
318122.002
  20
4490175.000
  0
VERTEX
  8
LC_OH_2021_05_O7
  10
318180.002
  20
4494398.000
  0
VERTEX
  8
LC_OH_2021_05_O7
  10
320136.002
  20
4494553.500
  0
VERTEX
  8
LC_OH_2021_05_O7
  10
320517.502
  20
4494385.000
  0
VERTEX
  8
LC_OH_2021_05_O7
  10
320459.502
  20
4490217.000
  0
VERTEX
  8
LC_OH_2021_05_O7
  10
319507.002
  20
4489918.500
  0
VERTEX
  8
LC_OH_2021_05_O7
  10
319505.502
  20
4489918.500
  0
SEQEND
  8
LC_OH_2021_05_O7
  0
INSERT
  8
FeatureAttribs
  2
FEATURE
  41
1
  42
1
  43
1
  50
0
  10
316961.948
  20
4492263.248
 66
1
  0
ATTRIB
  8
FeatureAttribs
 70
0
  1
PNOA-H_AMS_1956-57_33k_ES_PAN_21mic_H50_0530_fot_65B-42138_W.tif
  2
NAME
  10
316961.948
  20
4492263.248
 40
34.44982
  0
SEQEND
  0
POLYLINE
  8
LC_OH_2021_05_O7
  70
1
  66
1
  0
VERTEX
  8
LC_OH_2021_05_O7
  10
315785.502
  20
4494384.000
  0
VERTEX
  8
LC_OH_2021_05_O7
  10
317407.502
  20
4494677.000
  0
VERTEX
  8
LC_OH_2021_05_O7
  10
317413.502
  20
4494676.500
  0
VERTEX
  8
LC_OH_2021_05_O7
  10
318180.002
  20
4494398.000
  0
VERTEX
  8
LC_OH_2021_05_O7
  10
318122.502
  20
4490177.000
  0
VERTEX
  8
LC_OH_2021_05_O7
  10
318122.002
  20
4490175.000
  0
VERTEX
  8
LC_OH_2021_05_O7
  10
318112.002
  20
4490171.500
  0
VERTEX
  8
LC_OH_2021_05_O7
  10
317325.502
  20
4489918.500
  0
VERTEX
  8
LC_OH_2021_05_O7
  10
317324.002
  20
4489918.500
  0
VERTEX
  8
LC_OH_2021_05_O7
  10
317110.002
  20
4489849.500
  0
VERTEX
  8
LC_OH_2021_05_O7
  10
315761.002
  20
4490238.000
  0
SEQEND
  8
LC_OH_2021_05_O7
  0
INSERT
  8
FeatureAttribs
  2
FEATURE
  41
1
  42
1
  43
1
  50
0
  10
321725.501
  20
4492171.500
 66
1
  0
ATTRIB
  8
FeatureAttribs
 70
0
  1
PNOA-H_AMS_1956-57_33k_ES_PAN_21mic_H50_0530_fot_65B-42136_W.tif
  2
NAME
  10
321725.501
  20
4492171.500
 40
34.44982
  0
SEQEND
  0
POLYLINE
  8
LC_OH_2021_05_O7
  70
1
  66
1
  0
VERTEX
  8
LC_OH_2021_05_O7
  10
320617.002
  20
4494389.500
  0
VERTEX
  8
LC_OH_2021_05_O7
  10
322805.502
  20
4494482.500
  0
VERTEX
  8
LC_OH_2021_05_O7
  10
323045.502
  20
4494361.000
  0
VERTEX
  8
LC_OH_2021_05_O7
  10
322893.002
  20
4490237.500
  0
VERTEX
  8
LC_OH_2021_05_O7
  10
321539.502
  20
4489860.500
  0
VERTEX
  8
LC_OH_2021_05_O7
  10
320459.502
  20
4490217.000
  0
VERTEX
  8
LC_OH_2021_05_O7
  10
320517.002
  20
4494384.000
  0
VERTEX
  8
LC_OH_2021_05_O7
  10
320517.502
  20
4494385.000
  0
VERTEX
  8
LC_OH_2021_05_O7
  10
320523.502
  20
4494385.500
  0
VERTEX
  8
LC_OH_2021_05_O7
  10
320605.502
  20
4494389.000
  0
VERTEX
  8
LC_OH_2021_05_O7
  10
320617.002
  20
4494389.500
  0
SEQEND
  8
LC_OH_2021_05_O7
  0
INSERT
  8
FeatureAttribs
  2
FEATURE
  41
1
  42
1
  43
1
  50
0
  10
314682.468
  20
4487363.589
 66
1
  0
ATTRIB
  8
FeatureAttribs
 70
0
  1
PNOA-H_AMS_1956-57_33k_ES_PAN_21mic_H50_0529_fot_66A-18844_E.tif
  2
NAME
  10
314682.468
  20
4487363.589
 40
34.44982
  0
SEQEND
  0
POLYLINE
  8
LC_OH_2021_05_O7
  70
1
  66
1
  0
VERTEX
  8
LC_OH_2021_05_O7
  10
314692.088
  20
4487751.292
  0
VERTEX
  8
LC_OH_2021_05_O7
  10
314685.502
  20
4486977.000
  0
VERTEX
  8
LC_OH_2021_05_O7
  10
314672.848
  20
4486975.886
  0
SEQEND
  8
LC_OH_2021_05_O7
  0
INSERT
  8
FeatureAttribs
  2
FEATURE
  41
1
  42
1
  43
1
  50
0
  10
341570.690
  20
4488508.750
 66
1
  0
ATTRIB
  8
FeatureAttribs
 70
0
  1
PNOA-H_AMS_1956-57_33k_ES_PAN_21mic_H50_0530_fot_66A-18832_E.tif
  2
NAME
  10
341570.690
  20
4488508.750
 40
34.44982
  0
SEQEND
  0
POLYLINE
  8
LC_OH_2021_05_O7
  70
1
  66
1
  0
VERTEX
  8
LC_OH_2021_05_O7
  10
340495.503
  20
4490134.000
  0
VERTEX
  8
LC_OH_2021_05_O7
  10
340497.003
  20
4490136.500
  0
VERTEX
  8
LC_OH_2021_05_O7
  10
341000.503
  20
4490446.000
  0
VERTEX
  8
LC_OH_2021_05_O7
  10
341101.003
  20
4490419.000
  0
VERTEX
  8
LC_OH_2021_05_O7
  10
341103.503
  20
4490418.500
  0
VERTEX
  8
LC_OH_2021_05_O7
  10
342738.003
  20
4489982.000
  0
VERTEX
  8
LC_OH_2021_05_O7
  10
342570.503
  20
4486770.000
  0
VERTEX
  8
LC_OH_2021_05_O7
  10
342044.503
  20
4486571.500
  0
VERTEX
  8
LC_OH_2021_05_O7
  10
340465.003
  20
4486892.500
  0
SEQEND
  8
LC_OH_2021_05_O7
  0
INSERT
  8
FeatureAttribs
  2
FEATURE
  41
1
  42
1
  43
1
  50
0
  10
339333.933
  20
4488466.750
 66
1
  0
ATTRIB
  8
FeatureAttribs
 70
0
  1
PNOA-H_AMS_1956-57_33k_ES_PAN_21mic_H50_0530_fot_66A-18833_E.tif
  2
NAME
  10
339333.933
  20
4488466.750
 40
34.44982
  0
SEQEND
  0
POLYLINE
  8
LC_OH_2021_05_O7
  70
1
  66
1
  0
VERTEX
  8
LC_OH_2021_05_O7
  10
339055.503
  20
4490241.500
  0
VERTEX
  8
LC_OH_2021_05_O7
  10
340496.003
  20
4490135.500
  0
VERTEX
  8
LC_OH_2021_05_O7
  10
340465.003
  20
4486892.500
  0
VERTEX
  8
LC_OH_2021_05_O7
  10
339795.503
  20
4486638.500
  0
VERTEX
  8
LC_OH_2021_05_O7
  10
338080.003
  20
4487065.500
  0
VERTEX
  8
LC_OH_2021_05_O7
  10
338328.503
  20
4490295.000
  0
VERTEX
  8
LC_OH_2021_05_O7
  10
339052.503
  20
4490241.500
  0
VERTEX
  8
LC_OH_2021_05_O7
  10
339055.503
  20
4490241.500
  0
SEQEND
  8
LC_OH_2021_05_O7
  0
INSERT
  8
FeatureAttribs
  2
FEATURE
  41
1
  42
1
  43
1
  50
0
  10
337015.217
  20
4488604.251
 66
1
  0
ATTRIB
  8
FeatureAttribs
 70
0
  1
PNOA-H_AMS_1956-57_33k_ES_PAN_21mic_H50_0530_fot_66A-18834_E.tif
  2
NAME
  10
337015.217
  20
4488604.251
 40
34.44982
  0
SEQEND
  0
POLYLINE
  8
LC_OH_2021_05_O7
  70
1
  66
1
  0
VERTEX
  8
LC_OH_2021_05_O7
  10
338261.503
  20
4490348.500
  0
VERTEX
  8
LC_OH_2021_05_O7
  10
338268.003
  20
4490348.500
  0
VERTEX
  8
LC_OH_2021_05_O7
  10
338299.003
  20
4490321.500
  0
VERTEX
  8
LC_OH_2021_05_O7
  10
338328.503
  20
4490295.500
  0
VERTEX
  8
LC_OH_2021_05_O7
  10
338328.503
  20
4490290.000
  0
VERTEX
  8
LC_OH_2021_05_O7
  10
338080.003
  20
4487065.500
  0
VERTEX
  8
LC_OH_2021_05_O7
  10
337559.503
  20
4486860.000
  0
VERTEX
  8
LC_OH_2021_05_O7
  10
335854.503
  20
4487179.500
  0
VERTEX
  8
LC_OH_2021_05_O7
  10
335805.003
  20
4490292.500
  0
VERTEX
  8
LC_OH_2021_05_O7
  10
338240.003
  20
4490348.000
  0
VERTEX
  8
LC_OH_2021_05_O7
  10
338261.503
  20
4490348.500
  0
SEQEND
  8
LC_OH_2021_05_O7
  0
INSERT
  8
FeatureAttribs
  2
FEATURE
  41
1
  42
1
  43
1
  50
0
  10
334558.828
  20
4488686.500
 66
1
  0
ATTRIB
  8
FeatureAttribs
 70
0
  1
PNOA-H_AMS_1956-57_33k_ES_PAN_21mic_H50_0530_fot_66A-18835_E.tif
  2
NAME
  10
334558.828
  20
4488686.500
 40
34.44982
  0
SEQEND
  0
POLYLINE
  8
LC_OH_2021_05_O7
  70
1
  66
1
  0
VERTEX
  8
LC_OH_2021_05_O7
  10
335594.003
  20
4490451.000
  0
VERTEX
  8
LC_OH_2021_05_O7
  10
335597.003
  20
4490451.000
  0
VERTEX
  8
LC_OH_2021_05_O7
  10
335600.003
  20
4490449.000
  0
VERTEX
  8
LC_OH_2021_05_O7
  10
335805.003
  20
4490292.500
  0
VERTEX
  8
LC_OH_2021_05_O7
  10
335854.503
  20
4487179.500
  0
VERTEX
  8
LC_OH_2021_05_O7
  10
335325.003
  20
4486922.000
  0
VERTEX
  8
LC_OH_2021_05_O7
  10
333351.503
  20
4487194.500
  0
VERTEX
  8
LC_OH_2021_05_O7
  10
333224.503
  20
4490137.500
  0
VERTEX
  8
LC_OH_2021_05_O7
  10
335590.003
  20
4490450.500
  0
VERTEX
  8
LC_OH_2021_05_O7
  10
335594.003
  20
4490451.000
  0
SEQEND
  8
LC_OH_2021_05_O7
  0
INSERT
  8
FeatureAttribs
  2
FEATURE
  41
1
  42
1
  43
1
  50
0
  10
332049.367
  20
4488699.501
 66
1
  0
ATTRIB
  8
FeatureAttribs
 70
0
  1
PNOA-H_AMS_1956-57_33k_ES_PAN_21mic_H50_0530_fot_66A-18836_E.tif
  2
NAME
  10
332049.367
  20
4488699.501
 40
34.44982
  0
SEQEND
  0
POLYLINE
  8
LC_OH_2021_05_O7
  70
1
  66
1
  0
VERTEX
  8
LC_OH_2021_05_O7
  10
330861.003
  20
4490073.000
  0
VERTEX
  8
LC_OH_2021_05_O7
  10
332838.003
  20
4490417.000
  0
VERTEX
  8
LC_OH_2021_05_O7
  10
332839.503
  20
4490417.000
  0
VERTEX
  8
LC_OH_2021_05_O7
  10
332850.003
  20
4490409.500
  0
VERTEX
  8
LC_OH_2021_05_O7
  10
333224.503
  20
4490137.500
  0
VERTEX
  8
LC_OH_2021_05_O7
  10
333351.503
  20
4487194.000
  0
VERTEX
  8
LC_OH_2021_05_O7
  10
333071.503
  20
4487008.000
  0
VERTEX
  8
LC_OH_2021_05_O7
  10
330946.003
  20
4486982.000
  0
VERTEX
  8
LC_OH_2021_05_O7
  10
330707.503
  20
4490043.500
  0
VERTEX
  8
LC_OH_2021_05_O7
  10
330707.503
  20
4490046.000
  0
VERTEX
  8
LC_OH_2021_05_O7
  10
330711.503
  20
4490047.000
  0
VERTEX
  8
LC_OH_2021_05_O7
  10
330858.003
  20
4490072.500
  0
VERTEX
  8
LC_OH_2021_05_O7
  10
330861.003
  20
4490073.000
  0
SEQEND
  8
LC_OH_2021_05_O7
  0
INSERT
  8
FeatureAttribs
  2
FEATURE
  41
1
  42
1
  43
1
  50
0
  10
329671.528
  20
4488589.501
 66
1
  0
ATTRIB
  8
FeatureAttribs
 70
0
  1
PNOA-H_AMS_1956-57_33k_ES_PAN_21mic_H50_0530_fot_66A-18837_E.tif
  2
NAME
  10
329671.528
  20
4488589.501
 40
34.44982
  0
SEQEND
  0
POLYLINE
  8
LC_OH_2021_05_O7
  70
1
  66
1
  0
VERTEX
  8
LC_OH_2021_05_O7
  10
328815.003
  20
4490024.500
  0
VERTEX
  8
LC_OH_2021_05_O7
  10
330170.003
  20
4490323.500
  0
VERTEX
  8
LC_OH_2021_05_O7
  10
330707.503
  20
4490046.000
  0
VERTEX
  8
LC_OH_2021_05_O7
  10
330946.003
  20
4486988.500
  0
VERTEX
  8
LC_OH_2021_05_O7
  10
330946.003
  20
4486982.000
  0
VERTEX
  8
LC_OH_2021_05_O7
  10
330945.003
  20
4486981.000
  0
VERTEX
  8
LC_OH_2021_05_O7
  10
330771.003
  20
4486855.500
  0
VERTEX
  8
LC_OH_2021_05_O7
  10
328554.002
  20
4486903.000
  0
VERTEX
  8
LC_OH_2021_05_O7
  10
328496.002
  20
4489954.000
  0
VERTEX
  8
LC_OH_2021_05_O7
  10
328812.503
  20
4490024.000
  0
VERTEX
  8
LC_OH_2021_05_O7
  10
328815.003
  20
4490024.500
  0
SEQEND
  8
LC_OH_2021_05_O7
  0
INSERT
  8
FeatureAttribs
  2
FEATURE
  41
1
  42
1
  43
1
  50
0
  10
327352.226
  20
4488534.000
 66
1
  0
ATTRIB
  8
FeatureAttribs
 70
0
  1
PNOA-H_AMS_1956-57_33k_ES_PAN_21mic_H50_0530_fot_66A-18838_E.tif
  2
NAME
  10
327352.226
  20
4488534.000
 40
34.44982
  0
SEQEND
  0
POLYLINE
  8
LC_OH_2021_05_O7
  70
1
  66
1
  0
VERTEX
  8
LC_OH_2021_05_O7
  10
327751.502
  20
4490315.500
  0
VERTEX
  8
LC_OH_2021_05_O7
  10
327753.502
  20
4490315.500
  0
VERTEX
  8
LC_OH_2021_05_O7
  10
327765.002
  20
4490310.000
  0
VERTEX
  8
LC_OH_2021_05_O7
  10
328484.502
  20
4489960.000
  0
VERTEX
  8
LC_OH_2021_05_O7
  10
328495.502
  20
4489954.500
  0
VERTEX
  8
LC_OH_2021_05_O7
  10
328496.502
  20
4489953.000
  0
VERTEX
  8
LC_OH_2021_05_O7
  10
328554.002
  20
4486903.000
  0
VERTEX
  8
LC_OH_2021_05_O7
  10
328346.002
  20
4486752.500
  0
VERTEX
  8
LC_OH_2021_05_O7
  10
326262.502
  20
4486894.000
  0
VERTEX
  8
LC_OH_2021_05_O7
  10
326114.502
  20
4489879.500
  0
VERTEX
  8
LC_OH_2021_05_O7
  10
327749.502
  20
4490315.000
  0
VERTEX
  8
LC_OH_2021_05_O7
  10
327751.502
  20
4490315.500
  0
SEQEND
  8
LC_OH_2021_05_O7
  0
INSERT
  8
FeatureAttribs
  2
FEATURE
  41
1
  42
1
  43
1
  50
0
  10
325028.114
  20
4488476.501
 66
1
  0
ATTRIB
  8
FeatureAttribs
 70
0
  1
PNOA-H_AMS_1956-57_33k_ES_PAN_21mic_H50_0530_fot_66A-18839_E.tif
  2
NAME
  10
325028.114
  20
4488476.501
 40
34.44982
  0
SEQEND
  0
POLYLINE
  8
LC_OH_2021_05_O7
  70
1
  66
1
  0
VERTEX
  8
LC_OH_2021_05_O7
  10
325284.002
  20
4490227.000
  0
VERTEX
  8
LC_OH_2021_05_O7
  10
325288.002
  20
4490227.000
  0
VERTEX
  8
LC_OH_2021_05_O7
  10
325294.002
  20
4490224.500
  0
VERTEX
  8
LC_OH_2021_05_O7
  10
326114.502
  20
4489879.500
  0
VERTEX
  8
LC_OH_2021_05_O7
  10
326262.502
  20
4486894.000
  0
VERTEX
  8
LC_OH_2021_05_O7
  10
326013.002
  20
4486726.000
  0
VERTEX
  8
LC_OH_2021_05_O7
  10
323965.502
  20
4486790.500
  0
VERTEX
  8
LC_OH_2021_05_O7
  10
323795.002
  20
4489871.000
  0
VERTEX
  8
LC_OH_2021_05_O7
  10
325282.002
  20
4490226.500
  0
VERTEX
  8
LC_OH_2021_05_O7
  10
325284.002
  20
4490227.000
  0
SEQEND
  8
LC_OH_2021_05_O7
  0
INSERT
  8
FeatureAttribs
  2
FEATURE
  41
1
  42
1
  43
1
  50
0
  10
322729.685
  20
4488458.001
 66
1
  0
ATTRIB
  8
FeatureAttribs
 70
0
  1
PNOA-H_AMS_1956-57_33k_ES_PAN_21mic_H50_0530_fot_66A-18840_E.tif
  2
NAME
  10
322729.685
  20
4488458.001
 40
34.44982
  0
SEQEND
  0
POLYLINE
  8
LC_OH_2021_05_O7
  70
1
  66
1
  0
VERTEX
  8
LC_OH_2021_05_O7
  10
322891.002
  20
4490237.500
  0
VERTEX
  8
LC_OH_2021_05_O7
  10
322898.002
  20
4490236.000
  0
VERTEX
  8
LC_OH_2021_05_O7
  10
323795.002
  20
4489871.000
  0
VERTEX
  8
LC_OH_2021_05_O7
  10
323965.502
  20
4486796.500
  0
VERTEX
  8
LC_OH_2021_05_O7
  10
323965.002
  20
4486790.000
  0
VERTEX
  8
LC_OH_2021_05_O7
  10
323891.502
  20
4486736.500
  0
VERTEX
  8
LC_OH_2021_05_O7
  10
321871.002
  20
4486678.500
  0
VERTEX
  8
LC_OH_2021_05_O7
  10
321640.002
  20
4486829.000
  0
VERTEX
  8
LC_OH_2021_05_O7
  10
321539.502
  20
4489861.000
  0
VERTEX
  8
LC_OH_2021_05_O7
  10
322889.502
  20
4490237.000
  0
VERTEX
  8
LC_OH_2021_05_O7
  10
322891.002
  20
4490237.500
  0
SEQEND
  8
LC_OH_2021_05_O7
  0
INSERT
  8
FeatureAttribs
  2
FEATURE
  41
1
  42
1
  43
1
  50
0
  10
320475.108
  20
4488406.249
 66
1
  0
ATTRIB
  8
FeatureAttribs
 70
0
  1
PNOA-H_AMS_1956-57_33k_ES_PAN_21mic_H50_0530_fot_66A-18841_E.tif
  2
NAME
  10
320475.108
  20
4488406.249
 40
34.44982
  0
SEQEND
  0
POLYLINE
  8
LC_OH_2021_05_O7
  70
1
  66
1
  0
VERTEX
  8
LC_OH_2021_05_O7
  10
320623.502
  20
4490163.000
  0
VERTEX
  8
LC_OH_2021_05_O7
  10
321539.502
  20
4489860.500
  0
VERTEX
  8
LC_OH_2021_05_O7
  10
321640.002
  20
4486829.000
  0
VERTEX
  8
LC_OH_2021_05_O7
  10
319852.502
  20
4486595.500
  0
VERTEX
  8
LC_OH_2021_05_O7
  10
319390.002
  20
4486893.000
  0
VERTEX
  8
LC_OH_2021_05_O7
  10
319336.002
  20
4489865.000
  0
VERTEX
  8
LC_OH_2021_05_O7
  10
320458.002
  20
4490217.000
  0
VERTEX
  8
LC_OH_2021_05_O7
  10
320461.002
  20
4490217.000
  0
VERTEX
  8
LC_OH_2021_05_O7
  10
320482.502
  20
4490210.000
  0
VERTEX
  8
LC_OH_2021_05_O7
  10
320621.502
  20
4490163.500
  0
VERTEX
  8
LC_OH_2021_05_O7
  10
320623.502
  20
4490163.000
  0
SEQEND
  8
LC_OH_2021_05_O7
  0
INSERT
  8
FeatureAttribs
  2
FEATURE
  41
1
  42
1
  43
1
  50
0
  10
318231.692
  20
4488388.250
 66
1
  0
ATTRIB
  8
FeatureAttribs
 70
0
  1
PNOA-H_AMS_1956-57_33k_ES_PAN_21mic_H50_0530_fot_66A-18842_E.tif
  2
NAME
  10
318231.692
  20
4488388.250
 40
34.44982
  0
SEQEND
  0
POLYLINE
  8
LC_OH_2021_05_O7
  70
1
  66
1
  0
VERTEX
  8
LC_OH_2021_05_O7
  10
318575.502
  20
4490059.500
  0
VERTEX
  8
LC_OH_2021_05_O7
  10
319336.002
  20
4489865.000
  0
VERTEX
  8
LC_OH_2021_05_O7
  10
319390.002
  20
4486893.500
  0
VERTEX
  8
LC_OH_2021_05_O7
  10
317586.002
  20
4486601.500
  0
VERTEX
  8
LC_OH_2021_05_O7
  10
317582.502
  20
4486602.000
  0
VERTEX
  8
LC_OH_2021_05_O7
  10
317091.002
  20
4486990.500
  0
VERTEX
  8
LC_OH_2021_05_O7
  10
317110.502
  20
4489849.500
  0
VERTEX
  8
LC_OH_2021_05_O7
  10
318121.002
  20
4490175.000
  0
VERTEX
  8
LC_OH_2021_05_O7
  10
318574.002
  20
4490059.500
  0
VERTEX
  8
LC_OH_2021_05_O7
  10
318575.502
  20
4490059.500
  0
SEQEND
  8
LC_OH_2021_05_O7
  0
INSERT
  8
FeatureAttribs
  2
FEATURE
  41
1
  42
1
  43
1
  50
0
  10
315899.550
  20
4488456.500
 66
1
  0
ATTRIB
  8
FeatureAttribs
 70
0
  1
PNOA-H_AMS_1956-57_33k_ES_PAN_21mic_H50_0530_fot_66A-18843_E.tif
  2
NAME
  10
315899.550
  20
4488456.500
 40
34.44982
  0
SEQEND
  0
POLYLINE
  8
LC_OH_2021_05_O7
  70
1
  66
1
  0
VERTEX
  8
LC_OH_2021_05_O7
  10
314744.682
  20
4489870.078
  0
VERTEX
  8
LC_OH_2021_05_O7
  10
315760.502
  20
4490238.500
  0
VERTEX
  8
LC_OH_2021_05_O7
  10
316526.502
  20
4490017.500
  0
VERTEX
  8
LC_OH_2021_05_O7
  10
316527.502
  20
4490017.500
  0
VERTEX
  8
LC_OH_2021_05_O7
  10
317110.502
  20
4489849.500
  0
VERTEX
  8
LC_OH_2021_05_O7
  10
317091.002
  20
4486990.500
  0
VERTEX
  8
LC_OH_2021_05_O7
  10
315023.002
  20
4486674.500
  0
VERTEX
  8
LC_OH_2021_05_O7
  10
315020.002
  20
4486674.500
  0
VERTEX
  8
LC_OH_2021_05_O7
  10
315016.002
  20
4486678.000
  0
VERTEX
  8
LC_OH_2021_05_O7
  10
314685.502
  20
4486977.000
  0
VERTEX
  8
LC_OH_2021_05_O7
  10
314692.088
  20
4487751.292
  0
VERTEX
  8
LC_OH_2021_05_O7
  10
314694.938
  20
4487866.167
  0
SEQEND
  8
LC_OH_2021_05_O7
  0
INSERT
  8
FeatureAttribs
  2
FEATURE
  41
1
  42
1
  43
1
  50
0
  10
342782.228
  20
4488395.416
 66
1
  0
ATTRIB
  8
FeatureAttribs
 70
0
  1
PNOA-H_AMS_1956-57_33k_ES_PAN_21mic_H50_0531_fot_66A-18831_E.tif
  2
NAME
  10
342782.228
  20
4488395.416
 40
34.44982
  0
SEQEND
  0
POLYLINE
  8
LC_OH_2021_05_O7
  70
1
  66
1
  0
VERTEX
  8
LC_OH_2021_05_O7
  10
342922.752
  20
4486703.242
  0
VERTEX
  8
LC_OH_2021_05_O7
  10
342570.503
  20
4486770.000
  0
VERTEX
  8
LC_OH_2021_05_O7
  10
342738.003
  20
4489982.000
  0
VERTEX
  8
LC_OH_2021_05_O7
  10
342993.952
  20
4490087.590
  0
VERTEX
  8
LC_OH_2021_05_O7
  10
342982.247
  20
4489531.480
  0
VERTEX
  8
LC_OH_2021_05_O7
  10
342933.593
  20
4487218.780
  0
SEQEND
  8
LC_OH_2021_05_O7
  0
INSERT
  8
FeatureAttribs
  2
FEATURE
  41
1
  42
1
  43
1
  50
0
  10
315411.067
  20
4503948.118
 66
1
  0
ATTRIB
  8
FeatureAttribs
 70
0
  1
PNOA-H_AMS_1956-57_33k_ES_PAN_21mic_H50_0504_fot_62C-05357_E.tif
  2
NAME
  10
315411.067
  20
4503948.118
 40
34.44982
  0
SEQEND
  0
POLYLINE
  8
LC_OH_2021_05_O7
  70
1
  66
1
  0
VERTEX
  8
LC_OH_2021_05_O7
  10
315729.868
  20
4504040.142
  0
VERTEX
  8
LC_OH_2021_05_O7
  10
315729.502
  20
4503894.000
  0
VERTEX
  8
LC_OH_2021_05_O7
  10
315656.502
  20
4503840.500
  0
VERTEX
  8
LC_OH_2021_05_O7
  10
315092.265
  20
4503852.251
  0
VERTEX
  8
LC_OH_2021_05_O7
  10
315097.329
  20
4504055.737
  0
SEQEND
  8
LC_OH_2021_05_O7
  0
INSERT
  8
FeatureAttribs
  2
FEATURE
  41
1
  42
1
  43
1
  50
0
  10
320040.151
  20
4503778.167
 66
1
  0
ATTRIB
  8
FeatureAttribs
 70
0
  1
PNOA-H_AMS_1956-57_33k_ES_PAN_21mic_H50_0505_fot_62C-05359_E.tif
  2
NAME
  10
320040.151
  20
4503778.167
 40
34.44982
  0
SEQEND
  0
POLYLINE
  8
LC_OH_2021_05_O7
  70
1
  66
1
  0
VERTEX
  8
LC_OH_2021_05_O7
  10
321500.800
  20
4503899.230
  0
VERTEX
  8
LC_OH_2021_05_O7
  10
321500.002
  20
4503830.500
  0
VERTEX
  8
LC_OH_2021_05_O7
  10
321092.002
  20
4503586.500
  0
VERTEX
  8
LC_OH_2021_05_O7
  10
318579.502
  20
4503888.000
  0
VERTEX
  8
LC_OH_2021_05_O7
  10
318581.595
  20
4503969.834
  0
VERTEX
  8
LC_OH_2021_05_O7
  10
318619.538
  20
4503968.898
  0
SEQEND
  8
LC_OH_2021_05_O7
  0
INSERT
  8
FeatureAttribs
  2
FEATURE
  41
1
  42
1
  43
1
  50
0
  10
322904.021
  20
4503692.121
 66
1
  0
ATTRIB
  8
FeatureAttribs
 70
0
  1
PNOA-H_AMS_1956-57_33k_ES_PAN_21mic_H50_0505_fot_62C-05360_E.tif
  2
NAME
  10
322904.021
  20
4503692.121
 40
34.44982
  0
SEQEND
  0
POLYLINE
  8
LC_OH_2021_05_O7
  70
1
  66
1
  0
VERTEX
  8
LC_OH_2021_05_O7
  10
324308.040
  20
4503832.379
  0
VERTEX
  8
LC_OH_2021_05_O7
  10
324307.002
  20
4503790.500
  0
VERTEX
  8
LC_OH_2021_05_O7
  10
323758.502
  20
4503485.000
  0
VERTEX
  8
LC_OH_2021_05_O7
  10
321500.502
  20
4503830.000
  0
VERTEX
  8
LC_OH_2021_05_O7
  10
321500.002
  20
4503873.000
  0
VERTEX
  8
LC_OH_2021_05_O7
  10
321500.310
  20
4503899.241
  0
VERTEX
  8
LC_OH_2021_05_O7
  10
322141.733
  20
4503883.732
  0
SEQEND
  8
LC_OH_2021_05_O7
  0
INSERT
  8
FeatureAttribs
  2
FEATURE
  41
1
  42
1
  43
1
  50
0
  10
328525.110
  20
4503517.860
 66
1
  0
ATTRIB
  8
FeatureAttribs
 70
0
  1
PNOA-H_AMS_1956-57_33k_ES_PAN_21mic_H50_0505_fot_62C-05362_E.tif
  2
NAME
  10
328525.110
  20
4503517.860
 40
34.44982
  0
SEQEND
  0
POLYLINE
  8
LC_OH_2021_05_O7
  70
1
  66
1
  0
VERTEX
  8
LC_OH_2021_05_O7
  10
329945.219
  20
4503701.139
  0
VERTEX
  8
LC_OH_2021_05_O7
  10
329944.003
  20
4503675.000
  0
VERTEX
  8
LC_OH_2021_05_O7
  10
329013.003
  20
4503269.000
  0
VERTEX
  8
LC_OH_2021_05_O7
  10
327107.002
  20
4503724.500
  0
VERTEX
  8
LC_OH_2021_05_O7
  10
327105.002
  20
4503725.000
  0
VERTEX
  8
LC_OH_2021_05_O7
  10
327105.002
  20
4503726.500
  0
VERTEX
  8
LC_OH_2021_05_O7
  10
327106.680
  20
4503766.720
  0
VERTEX
  8
LC_OH_2021_05_O7
  10
329186.079
  20
4503718.414
  0
SEQEND
  8
LC_OH_2021_05_O7
  0
INSERT
  8
FeatureAttribs
  2
FEATURE
  41
1
  42
1
  43
1
  50
0
  10
337132.757
  20
4503251.475
 66
1
  0
ATTRIB
  8
FeatureAttribs
 70
0
  1
PNOA-H_AMS_1956-57_33k_ES_PAN_21mic_H50_0505_fot_62C-05365_E.tif
  2
NAME
  10
337132.757
  20
4503251.475
 40
34.44982
  0
SEQEND
  0
POLYLINE
  8
LC_OH_2021_05_O7
  70
1
  66
1
  0
VERTEX
  8
LC_OH_2021_05_O7
  10
338587.011
  20
4503508.390
  0
VERTEX
  8
LC_OH_2021_05_O7
  10
338579.003
  20
4503305.500
  0
VERTEX
  8
LC_OH_2021_05_O7
  10
338578.503
  20
4503303.000
  0
VERTEX
  8
LC_OH_2021_05_O7
  10
336712.003
  20
4502931.000
  0
VERTEX
  8
LC_OH_2021_05_O7
  10
335678.503
  20
4503480.000
  0
VERTEX
  8
LC_OH_2021_05_O7
  10
335684.244
  20
4503571.951
  0
VERTEX
  8
LC_OH_2021_05_O7
  10
336230.371
  20
4503559.782
  0
SEQEND
  8
LC_OH_2021_05_O7
  0
INSERT
  8
FeatureAttribs
  2
FEATURE
  41
1
  42
1
  43
1
  50
0
  10
342340.556
  20
4503130.418
 66
1
  0
ATTRIB
  8
FeatureAttribs
 70
0
  1
PNOA-H_AMS_1956-57_33k_ES_PAN_21mic_H50_0505_fot_62C-05367_E.tif
  2
NAME
  10
342340.556
  20
4503130.418
 40
34.44982
  0
SEQEND
  0
POLYLINE
  8
LC_OH_2021_05_O7
  70
1
  66
1
  0
VERTEX
  8
LC_OH_2021_05_O7
  10
343262.325
  20
4502825.392
  0
VERTEX
  8
LC_OH_2021_05_O7
  10
341830.503
  20
4502813.500
  0
VERTEX
  8
LC_OH_2021_05_O7
  10
341772.003
  20
4502813.500
  0
VERTEX
  8
LC_OH_2021_05_O7
  10
341406.503
  20
4503076.000
  0
VERTEX
  8
LC_OH_2021_05_O7
  10
341423.007
  20
4503447.336
  0
VERTEX
  8
LC_OH_2021_05_O7
  10
343274.610
  20
4503407.836
  0
SEQEND
  8
LC_OH_2021_05_O7
  0
INSERT
  8
FeatureAttribs
  2
FEATURE
  41
1
  42
1
  43
1
  50
0
  10
331379.915
  20
4503421.569
 66
1
  0
ATTRIB
  8
FeatureAttribs
 70
0
  1
PNOA-H_AMS_1956-57_33k_ES_PAN_21mic_H50_0505_fot_62C-05363_E.tif
  2
NAME
  10
331379.915
  20
4503421.569
 40
34.44982
  0
SEQEND
  0
POLYLINE
  8
LC_OH_2021_05_O7
  70
1
  66
1
  0
VERTEX
  8
LC_OH_2021_05_O7
  10
332815.828
  20
4503635.865
  0
VERTEX
  8
LC_OH_2021_05_O7
  10
332813.503
  20
4503591.500
  0
VERTEX
  8
LC_OH_2021_05_O7
  10
332812.503
  20
4503590.500
  0
VERTEX
  8
LC_OH_2021_05_O7
  10
331546.003
  20
4503142.000
  0
VERTEX
  8
LC_OH_2021_05_O7
  10
329944.003
  20
4503675.000
  0
VERTEX
  8
LC_OH_2021_05_O7
  10
329945.219
  20
4503701.139
  0
VERTEX
  8
LC_OH_2021_05_O7
  10
332708.232
  20
4503638.262
  0
SEQEND
  8
LC_OH_2021_05_O7
  0
INSERT
  8
FeatureAttribs
  2
FEATURE
  41
1
  42
1
  43
1
  50
0
  10
317155.548
  20
4503900.821
 66
1
  0
ATTRIB
  8
FeatureAttribs
 70
0
  1
PNOA-H_AMS_1956-57_33k_ES_PAN_21mic_H50_0505_fot_62C-05358_E.tif
  2
NAME
  10
317155.548
  20
4503900.821
 40
34.44982
  0
SEQEND
  0
POLYLINE
  8
LC_OH_2021_05_O7
  70
1
  66
1
  0
VERTEX
  8
LC_OH_2021_05_O7
  10
318581.595
  20
4503969.834
  0
VERTEX
  8
LC_OH_2021_05_O7
  10
318579.502
  20
4503888.000
  0
VERTEX
  8
LC_OH_2021_05_O7
  10
318393.002
  20
4503761.500
  0
VERTEX
  8
LC_OH_2021_05_O7
  10
315729.502
  20
4503894.000
  0
VERTEX
  8
LC_OH_2021_05_O7
  10
315729.868
  20
4504040.142
  0
SEQEND
  8
LC_OH_2021_05_O7
  0
INSERT
  8
FeatureAttribs
  2
FEATURE
  41
1
  42
1
  43
1
  50
0
  10
340000.745
  20
4503192.199
 66
1
  0
ATTRIB
  8
FeatureAttribs
 70
0
  1
PNOA-H_AMS_1956-57_33k_ES_PAN_21mic_H50_0505_fot_62C-05366_E.tif
  2
NAME
  10
340000.745
  20
4503192.199
 40
34.44982
  0
SEQEND
  0
POLYLINE
  8
LC_OH_2021_05_O7
  70
1
  66
1
  0
VERTEX
  8
LC_OH_2021_05_O7
  10
341422.987
  20
4503447.336
  0
VERTEX
  8
LC_OH_2021_05_O7
  10
341406.503
  20
4503076.500
  0
VERTEX
  8
LC_OH_2021_05_O7
  10
339259.003
  20
4502876.000
  0
VERTEX
  8
LC_OH_2021_05_O7
  10
338578.503
  20
4503303.500
  0
VERTEX
  8
LC_OH_2021_05_O7
  10
338586.590
  20
4503508.399
  0
VERTEX
  8
LC_OH_2021_05_O7
  10
339752.497
  20
4503482.973
  0
SEQEND
  8
LC_OH_2021_05_O7
  0
INSERT
  8
FeatureAttribs
  2
FEATURE
  41
1
  42
1
  43
1
  50
0
  10
325707.088
  20
4503610.689
 66
1
  0
ATTRIB
  8
FeatureAttribs
 70
0
  1
PNOA-H_AMS_1956-57_33k_ES_PAN_21mic_H50_0505_fot_62C-05361_E.tif
  2
NAME
  10
325707.088
  20
4503610.689
 40
34.44982
  0
SEQEND
  0
POLYLINE
  8
LC_OH_2021_05_O7
  70
1
  66
1
  0
VERTEX
  8
LC_OH_2021_05_O7
  10
327107.174
  20
4503766.709
  0
VERTEX
  8
LC_OH_2021_05_O7
  10
327105.502
  20
4503726.500
  0
VERTEX
  8
LC_OH_2021_05_O7
  10
327105.002
  20
4503725.000
  0
VERTEX
  8
LC_OH_2021_05_O7
  10
327099.502
  20
4503722.000
  0
VERTEX
  8
LC_OH_2021_05_O7
  10
326479.002
  20
4503410.000
  0
VERTEX
  8
LC_OH_2021_05_O7
  10
326437.002
  20
4503389.000
  0
VERTEX
  8
LC_OH_2021_05_O7
  10
326434.002
  20
4503389.000
  0
VERTEX
  8
LC_OH_2021_05_O7
  10
324307.002
  20
4503790.500
  0
VERTEX
  8
LC_OH_2021_05_O7
  10
324308.040
  20
4503832.379
  0
VERTEX
  8
LC_OH_2021_05_O7
  10
325663.913
  20
4503800.237
  0
SEQEND
  8
LC_OH_2021_05_O7
  0
INSERT
  8
FeatureAttribs
  2
FEATURE
  41
1
  42
1
  43
1
  50
0
  10
334248.626
  20
4503330.937
 66
1
  0
ATTRIB
  8
FeatureAttribs
 70
0
  1
PNOA-H_AMS_1956-57_33k_ES_PAN_21mic_H50_0505_fot_62C-05364_E.tif
  2
NAME
  10
334248.626
  20
4503330.937
 40
34.44982
  0
SEQEND
  0
POLYLINE
  8
LC_OH_2021_05_O7
  70
1
  66
1
  0
VERTEX
  8
LC_OH_2021_05_O7
  10
335684.249
  20
4503571.951
  0
VERTEX
  8
LC_OH_2021_05_O7
  10
335678.503
  20
4503480.000
  0
VERTEX
  8
LC_OH_2021_05_O7
  10
334104.503
  20
4503026.000
  0
VERTEX
  8
LC_OH_2021_05_O7
  10
332813.003
  20
4503591.000
  0
VERTEX
  8
LC_OH_2021_05_O7
  10
332815.368
  20
4503635.875
  0
SEQEND
  8
LC_OH_2021_05_O7
  0
INSERT
  8
FeatureAttribs
  2
FEATURE
  41
1
  42
1
  43
1
  50
0
  10
340846.017
  20
4496343.250
 66
1
  0
ATTRIB
  8
FeatureAttribs
 70
0
  1
PNOA-H_AMS_1956-57_33k_ES_PAN_21mic_H50_0530_fot_64A-30150_W.tif
  2
NAME
  10
340846.017
  20
4496343.250
 40
34.44982
  0
SEQEND
  0
POLYLINE
  8
LC_OH_2021_05_O7
  70
1
  66
1
  0
VERTEX
  8
LC_OH_2021_05_O7
  10
339407.503
  20
4498640.500
  0
VERTEX
  8
LC_OH_2021_05_O7
  10
339408.003
  20
4498652.500
  0
VERTEX
  8
LC_OH_2021_05_O7
  10
339410.003
  20
4498653.000
  0
VERTEX
  8
LC_OH_2021_05_O7
  10
341092.003
  20
4498801.500
  0
VERTEX
  8
LC_OH_2021_05_O7
  10
341098.003
  20
4498802.000
  0
VERTEX
  8
LC_OH_2021_05_O7
  10
341514.503
  20
4498838.500
  0
VERTEX
  8
LC_OH_2021_05_O7
  10
342233.503
  20
4498517.000
  0
VERTEX
  8
LC_OH_2021_05_O7
  10
342351.503
  20
4494298.500
  0
VERTEX
  8
LC_OH_2021_05_O7
  10
341043.003
  20
4493848.000
  0
VERTEX
  8
LC_OH_2021_05_O7
  10
339389.003
  20
4494286.000
  0
SEQEND
  8
LC_OH_2021_05_O7
  0
INSERT
  8
FeatureAttribs
  2
FEATURE
  41
1
  42
1
  43
1
  50
0
  10
332401.750
  20
4496496.000
 66
1
  0
ATTRIB
  8
FeatureAttribs
 70
0
  1
PNOA-H_AMS_1956-57_33k_ES_PAN_21mic_H50_0530_fot_64A-30153_W.tif
  2
NAME
  10
332401.750
  20
4496496.000
 40
34.44982
  0
SEQEND
  0
POLYLINE
  8
LC_OH_2021_05_O7
  70
1
  66
1
  0
VERTEX
  8
LC_OH_2021_05_O7
  10
331441.503
  20
4499059.500
  0
VERTEX
  8
LC_OH_2021_05_O7
  10
333888.003
  20
4498887.500
  0
VERTEX
  8
LC_OH_2021_05_O7
  10
333675.503
  20
4494281.500
  0
VERTEX
  8
LC_OH_2021_05_O7
  10
332776.503
  20
4493932.500
  0
VERTEX
  8
LC_OH_2021_05_O7
  10
330903.003
  20
4494339.000
  0
VERTEX
  8
LC_OH_2021_05_O7
  10
331165.003
  20
4498939.000
  0
VERTEX
  8
LC_OH_2021_05_O7
  10
331166.003
  20
4498941.000
  0
VERTEX
  8
LC_OH_2021_05_O7
  10
331440.003
  20
4499059.000
  0
VERTEX
  8
LC_OH_2021_05_O7
  10
331441.503
  20
4499059.500
  0
SEQEND
  8
LC_OH_2021_05_O7
  0
INSERT
  8
FeatureAttribs
  2
FEATURE
  41
1
  42
1
  43
1
  50
0
  10
335160.180
  20
4496428.250
 66
1
  0
ATTRIB
  8
FeatureAttribs
 70
0
  1
PNOA-H_AMS_1956-57_33k_ES_PAN_21mic_H50_0530_fot_64A-30152_W.tif
  2
NAME
  10
335160.180
  20
4496428.250
 40
34.44982
  0
SEQEND
  0
POLYLINE
  8
LC_OH_2021_05_O7
  70
1
  66
1
  0
VERTEX
  8
LC_OH_2021_05_O7
  10
335862.003
  20
4494014.500
  0
VERTEX
  8
LC_OH_2021_05_O7
  10
335604.003
  20
4493909.500
  0
VERTEX
  8
LC_OH_2021_05_O7
  10
335589.003
  20
4493903.500
  0
VERTEX
  8
LC_OH_2021_05_O7
  10
335586.503
  20
4493903.500
  0
VERTEX
  8
LC_OH_2021_05_O7
  10
333675.503
  20
4494281.500
  0
VERTEX
  8
LC_OH_2021_05_O7
  10
333888.003
  20
4498887.500
  0
VERTEX
  8
LC_OH_2021_05_O7
  10
334030.003
  20
4498953.000
  0
VERTEX
  8
LC_OH_2021_05_O7
  10
336540.003
  20
4498827.500
  0
VERTEX
  8
LC_OH_2021_05_O7
  10
336551.003
  20
4494293.000
  0
VERTEX
  8
LC_OH_2021_05_O7
  10
335863.503
  20
4494014.500
  0
VERTEX
  8
LC_OH_2021_05_O7
  10
335862.003
  20
4494014.500
  0
SEQEND
  8
LC_OH_2021_05_O7
  0
INSERT
  8
FeatureAttribs
  2
FEATURE
  41
1
  42
1
  43
1
  50
0
  10
326916.994
  20
4496765.000
 66
1
  0
ATTRIB
  8
FeatureAttribs
 70
0
  1
PNOA-H_AMS_1956-57_33k_ES_PAN_21mic_H50_0530_fot_64A-30155_W.tif
  2
NAME
  10
326916.994
  20
4496765.000
 40
34.44982
  0
SEQEND
  0
POLYLINE
  8
LC_OH_2021_05_O7
  70
1
  66
1
  0
VERTEX
  8
LC_OH_2021_05_O7
  10
326767.502
  20
4499282.500
  0
VERTEX
  8
LC_OH_2021_05_O7
  10
328385.002
  20
4499017.000
  0
VERTEX
  8
LC_OH_2021_05_O7
  10
328150.002
  20
4494374.500
  0
VERTEX
  8
LC_OH_2021_05_O7
  10
328148.502
  20
4494371.000
  0
VERTEX
  8
LC_OH_2021_05_O7
  10
327667.502
  20
4494170.500
  0
VERTEX
  8
LC_OH_2021_05_O7
  10
325449.002
  20
4494361.000
  0
VERTEX
  8
LC_OH_2021_05_O7
  10
325675.002
  20
4499127.500
  0
VERTEX
  8
LC_OH_2021_05_O7
  10
326297.002
  20
4499359.500
  0
VERTEX
  8
LC_OH_2021_05_O7
  10
326765.502
  20
4499282.500
  0
VERTEX
  8
LC_OH_2021_05_O7
  10
326767.502
  20
4499282.500
  0
SEQEND
  8
LC_OH_2021_05_O7
  0
INSERT
  8
FeatureAttribs
  2
FEATURE
  41
1
  42
1
  43
1
  50
0
  10
318828.172
  20
4497012.000
 66
1
  0
ATTRIB
  8
FeatureAttribs
 70
0
  1
PNOA-H_AMS_1956-57_33k_ES_PAN_21mic_H50_0530_fot_64A-30158_W.tif
  2
NAME
  10
318828.172
  20
4497012.000
 40
34.44982
  0
SEQEND
  0
POLYLINE
  8
LC_OH_2021_05_O7
  70
1
  66
1
  0
VERTEX
  8
LC_OH_2021_05_O7
  10
318575.502
  20
4499566.000
  0
VERTEX
  8
LC_OH_2021_05_O7
  10
320208.502
  20
4499296.500
  0
VERTEX
  8
LC_OH_2021_05_O7
  10
320137.002
  20
4494553.500
  0
VERTEX
  8
LC_OH_2021_05_O7
  10
318185.502
  20
4494398.000
  0
VERTEX
  8
LC_OH_2021_05_O7
  10
318178.502
  20
4494398.000
  0
VERTEX
  8
LC_OH_2021_05_O7
  10
317410.502
  20
4494677.000
  0
VERTEX
  8
LC_OH_2021_05_O7
  10
317555.002
  20
4499377.500
  0
VERTEX
  8
LC_OH_2021_05_O7
  10
318211.002
  20
4499626.000
  0
VERTEX
  8
LC_OH_2021_05_O7
  10
318574.002
  20
4499566.000
  0
VERTEX
  8
LC_OH_2021_05_O7
  10
318575.502
  20
4499566.000
  0
SEQEND
  8
LC_OH_2021_05_O7
  0
INSERT
  8
FeatureAttribs
  2
FEATURE
  41
1
  42
1
  43
1
  50
0
  10
337972.022
  20
4496376.001
 66
1
  0
ATTRIB
  8
FeatureAttribs
 70
0
  1
PNOA-H_AMS_1956-57_33k_ES_PAN_21mic_H50_0530_fot_64A-30151_W.tif
  2
NAME
  10
337972.022
  20
4496376.001
 40
34.44982
  0
SEQEND
  0
POLYLINE
  8
LC_OH_2021_05_O7
  70
1
  66
1
  0
VERTEX
  8
LC_OH_2021_05_O7
  10
336969.503
  20
4498832.500
  0
VERTEX
  8
LC_OH_2021_05_O7
  10
339012.003
  20
4498853.000
  0
VERTEX
  8
LC_OH_2021_05_O7
  10
339408.003
  20
4498652.500
  0
VERTEX
  8
LC_OH_2021_05_O7
  10
339389.003
  20
4494286.000
  0
VERTEX
  8
LC_OH_2021_05_O7
  10
338321.503
  20
4493899.000
  0
VERTEX
  8
LC_OH_2021_05_O7
  10
336551.003
  20
4494293.000
  0
VERTEX
  8
LC_OH_2021_05_O7
  10
336540.003
  20
4498827.500
  0
VERTEX
  8
LC_OH_2021_05_O7
  10
336920.503
  20
4498832.000
  0
VERTEX
  8
LC_OH_2021_05_O7
  10
336969.503
  20
4498832.500
  0
SEQEND
  8
LC_OH_2021_05_O7
  0
INSERT
  8
FeatureAttribs
  2
FEATURE
  41
1
  42
1
  43
1
  50
0
  10
316112.842
  20
4497054.501
 66
1
  0
ATTRIB
  8
FeatureAttribs
 70
0
  1
PNOA-H_AMS_1956-57_33k_ES_PAN_21mic_H50_0530_fot_64A-30159_W.tif
  2
NAME
  10
316112.842
  20
4497054.501
 40
34.44982
  0
SEQEND
  0
POLYLINE
  8
LC_OH_2021_05_O7
  70
1
  66
1
  0
VERTEX
  8
LC_OH_2021_05_O7
  10
314984.445
  20
4499518.868
  0
VERTEX
  8
LC_OH_2021_05_O7
  10
315541.002
  20
4499725.000
  0
VERTEX
  8
LC_OH_2021_05_O7
  10
316526.002
  20
4499555.000
  0
VERTEX
  8
LC_OH_2021_05_O7
  10
316527.502
  20
4499555.000
  0
VERTEX
  8
LC_OH_2021_05_O7
  10
317555.002
  20
4499377.500
  0
VERTEX
  8
LC_OH_2021_05_O7
  10
317410.502
  20
4494677.000
  0
VERTEX
  8
LC_OH_2021_05_O7
  10
315786.002
  20
4494384.000
  0
VERTEX
  8
LC_OH_2021_05_O7
  10
314863.949
  20
4494671.888
  0
VERTEX
  8
LC_OH_2021_05_O7
  10
314867.244
  20
4494804.511
  0
VERTEX
  8
LC_OH_2021_05_O7
  10
314924.728
  20
4497117.307
  0
VERTEX
  8
LC_OH_2021_05_O7
  10
314982.237
  20
4499430.110
  0
SEQEND
  8
LC_OH_2021_05_O7
  0
INSERT
  8
FeatureAttribs
  2
FEATURE
  41
1
  42
1
  43
1
  50
0
  10
324215.306
  20
4496910.500
 66
1
  0
ATTRIB
  8
FeatureAttribs
 70
0
  1
PNOA-H_AMS_1956-57_33k_ES_PAN_21mic_H50_0530_fot_64A-30156_W.tif
  2
NAME
  10
324215.306
  20
4496910.500
 40
34.44982
  0
SEQEND
  0
POLYLINE
  8
LC_OH_2021_05_O7
  70
1
  66
1
  0
VERTEX
  8
LC_OH_2021_05_O7
  10
324719.502
  20
4499291.500
  0
VERTEX
  8
LC_OH_2021_05_O7
  10
325675.002
  20
4499127.500
  0
VERTEX
  8
LC_OH_2021_05_O7
  10
325449.502
  20
4494367.500
  0
VERTEX
  8
LC_OH_2021_05_O7
  10
325448.502
  20
4494360.500
  0
VERTEX
  8
LC_OH_2021_05_O7
  10
325413.502
  20
4494345.500
  0
VERTEX
  8
LC_OH_2021_05_O7
  10
323045.502
  20
4494360.500
  0
VERTEX
  8
LC_OH_2021_05_O7
  10
322805.002
  20
4494482.500
  0
VERTEX
  8
LC_OH_2021_05_O7
  10
322913.002
  20
4499194.500
  0
VERTEX
  8
LC_OH_2021_05_O7
  10
323645.502
  20
4499475.500
  0
VERTEX
  8
LC_OH_2021_05_O7
  10
324718.002
  20
4499291.500
  0
VERTEX
  8
LC_OH_2021_05_O7
  10
324719.502
  20
4499291.500
  0
SEQEND
  8
LC_OH_2021_05_O7
  0
INSERT
  8
FeatureAttribs
  2
FEATURE
  41
1
  42
1
  43
1
  50
0
  10
321517.722
  20
4496970.500
 66
1
  0
ATTRIB
  8
FeatureAttribs
 70
0
  1
PNOA-H_AMS_1956-57_33k_ES_PAN_21mic_H50_0530_fot_64A-30157_W.tif
  2
NAME
  10
321517.722
  20
4496970.500
 40
34.44982
  0
SEQEND
  0
POLYLINE
  8
LC_OH_2021_05_O7
  70
1
  66
1
  0
VERTEX
  8
LC_OH_2021_05_O7
  10
320623.002
  20
4499449.500
  0
VERTEX
  8
LC_OH_2021_05_O7
  10
320911.002
  20
4499555.500
  0
VERTEX
  8
LC_OH_2021_05_O7
  10
320917.002
  20
4499556.000
  0
VERTEX
  8
LC_OH_2021_05_O7
  10
322913.002
  20
4499194.500
  0
VERTEX
  8
LC_OH_2021_05_O7
  10
322805.002
  20
4494482.500
  0
VERTEX
  8
LC_OH_2021_05_O7
  10
320516.502
  20
4494385.000
  0
VERTEX
  8
LC_OH_2021_05_O7
  10
320137.002
  20
4494553.000
  0
VERTEX
  8
LC_OH_2021_05_O7
  10
320208.502
  20
4499296.500
  0
VERTEX
  8
LC_OH_2021_05_O7
  10
320622.002
  20
4499449.000
  0
VERTEX
  8
LC_OH_2021_05_O7
  10
320623.002
  20
4499449.500
  0
SEQEND
  8
LC_OH_2021_05_O7
  0
INSERT
  8
FeatureAttribs
  2
FEATURE
  41
1
  42
1
  43
1
  50
0
  10
329650.191
  20
4496653.250
 66
1
  0
ATTRIB
  8
FeatureAttribs
 70
0
  1
PNOA-H_AMS_1956-57_33k_ES_PAN_21mic_H50_0530_fot_64A-30154_W.tif
  2
NAME
  10
329650.191
  20
4496653.250
 40
34.44982
  0
SEQEND
  0
POLYLINE
  8
LC_OH_2021_05_O7
  70
1
  66
1
  0
VERTEX
  8
LC_OH_2021_05_O7
  10
328814.002
  20
4499184.000
  0
VERTEX
  8
LC_OH_2021_05_O7
  10
328898.503
  20
4499217.000
  0
VERTEX
  8
LC_OH_2021_05_O7
  10
328901.003
  20
4499217.000
  0
VERTEX
  8
LC_OH_2021_05_O7
  10
331165.503
  20
4498940.500
  0
VERTEX
  8
LC_OH_2021_05_O7
  10
330903.503
  20
4494340.500
  0
VERTEX
  8
LC_OH_2021_05_O7
  10
330903.003
  20
4494339.000
  0
VERTEX
  8
LC_OH_2021_05_O7
  10
330898.003
  20
4494337.000
  0
VERTEX
  8
LC_OH_2021_05_O7
  10
330214.503
  20
4494089.500
  0
VERTEX
  8
LC_OH_2021_05_O7
  10
328149.502
  20
4494372.000
  0
VERTEX
  8
LC_OH_2021_05_O7
  10
328385.002
  20
4499016.500
  0
VERTEX
  8
LC_OH_2021_05_O7
  10
328812.502
  20
4499183.500
  0
VERTEX
  8
LC_OH_2021_05_O7
  10
328814.002
  20
4499184.000
  0
SEQEND
  8
LC_OH_2021_05_O7
  0
INSERT
  8
FeatureAttribs
  2
FEATURE
  41
1
  42
1
  43
1
  50
0
  10
318642.337
  20
4485477.251
 66
1
  0
ATTRIB
  8
FeatureAttribs
 70
0
  1
PNOA-H_AMS_1956-57_33k_ES_PAN_21mic_H50_0530_fot_000-51034_R.tif
  2
NAME
  10
318642.337
  20
4485477.251
 40
34.44982
  0
SEQEND
  0
POLYLINE
  8
LC_OH_2021_05_O7
  70
1
  66
1
  0
VERTEX
  8
LC_OH_2021_05_O7
  10
319775.902
  20
4485427.906
  0
VERTEX
  8
LC_OH_2021_05_O7
  10
318168.529
  20
4485466.640
  0
VERTEX
  8
LC_OH_2021_05_O7
  10
317505.925
  20
4485482.921
  0
VERTEX
  8
LC_OH_2021_05_O7
  10
317583.502
  20
4486600.500
  0
VERTEX
  8
LC_OH_2021_05_O7
  10
317584.002
  20
4486601.500
  0
VERTEX
  8
LC_OH_2021_05_O7
  10
317592.002
  20
4486603.000
  0
VERTEX
  8
LC_OH_2021_05_O7
  10
318569.502
  20
4486761.000
  0
VERTEX
  8
LC_OH_2021_05_O7
  10
318572.502
  20
4486761.500
  0
VERTEX
  8
LC_OH_2021_05_O7
  10
319390.002
  20
4486893.500
  0
VERTEX
  8
LC_OH_2021_05_O7
  10
319852.502
  20
4486596.000
  0
SEQEND
  8
LC_OH_2021_05_O7
  0
INSERT
  8
FeatureAttribs
  2
FEATURE
  41
1
  42
1
  43
1
  50
0
  10
316254.380
  20
4485572.750
 66
1
  0
ATTRIB
  8
FeatureAttribs
 70
0
  1
PNOA-H_AMS_1956-57_33k_ES_PAN_21mic_H50_0530_fot_000-51033_R.tif
  2
NAME
  10
316254.380
  20
4485572.750
 40
34.44982
  0
SEQEND
  0
POLYLINE
  8
LC_OH_2021_05_O7
  70
1
  66
1
  0
VERTEX
  8
LC_OH_2021_05_O7
  10
317506.109
  20
4485482.916
  0
VERTEX
  8
LC_OH_2021_05_O7
  10
314995.780
  20
4485544.598
  0
VERTEX
  8
LC_OH_2021_05_O7
  10
315020.502
  20
4486674.500
  0
VERTEX
  8
LC_OH_2021_05_O7
  10
316522.502
  20
4486904.000
  0
VERTEX
  8
LC_OH_2021_05_O7
  10
316525.502
  20
4486904.500
  0
VERTEX
  8
LC_OH_2021_05_O7
  10
317091.502
  20
4486990.500
  0
VERTEX
  8
LC_OH_2021_05_O7
  10
317584.002
  20
4486601.500
  0
SEQEND
  8
LC_OH_2021_05_O7
  0
INSERT
  8
FeatureAttribs
  2
FEATURE
  41
1
  42
1
  43
1
  50
0
  10
320823.377
  20
4486103.741
 66
1
  0
ATTRIB
  8
FeatureAttribs
 70
0
  1
PNOA-H_AMS_1956-57_33k_ES_PAN_21mic_H50_0530_fot_000-51035_R.tif
  2
NAME
  10
320823.377
  20
4486103.741
 40
34.44982
  0
SEQEND
  0
POLYLINE
  8
LC_OH_2021_05_O7
  70
1
  66
1
  0
VERTEX
  8
LC_OH_2021_05_O7
  10
321829.348
  20
4485378.483
  0
VERTEX
  8
LC_OH_2021_05_O7
  10
321699.491
  20
4485381.551
  0
VERTEX
  8
LC_OH_2021_05_O7
  10
319775.753
  20
4485427.909
  0
VERTEX
  8
LC_OH_2021_05_O7
  10
319852.002
  20
4486593.000
  0
VERTEX
  8
LC_OH_2021_05_O7
  10
319853.002
  20
4486596.000
  0
VERTEX
  8
LC_OH_2021_05_O7
  10
320618.002
  20
4486696.000
  0
VERTEX
  8
LC_OH_2021_05_O7
  10
320622.002
  20
4486696.500
  0
VERTEX
  8
LC_OH_2021_05_O7
  10
321640.502
  20
4486829.000
  0
VERTEX
  8
LC_OH_2021_05_O7
  10
321871.002
  20
4486679.000
  0
SEQEND
  8
LC_OH_2021_05_O7
  0
INSERT
  8
FeatureAttribs
  2
FEATURE
  41
1
  42
1
  43
1
  50
0
  10
314829.027
  20
4486260.799
 66
1
  0
ATTRIB
  8
FeatureAttribs
 70
0
  1
PNOA-H_AMS_1956-57_33k_ES_PAN_21mic_H50_0530_fot_000-51032_R.tif
  2
NAME
  10
314829.027
  20
4486260.799
 40
34.44982
  0
SEQEND
  0
POLYLINE
  8
LC_OH_2021_05_O7
  70
1
  66
1
  0
VERTEX
  8
LC_OH_2021_05_O7
  10
314995.780
  20
4485544.598
  0
VERTEX
  8
LC_OH_2021_05_O7
  10
314637.552
  20
4485553.400
  0
VERTEX
  8
LC_OH_2021_05_O7
  10
314672.847
  20
4486975.870
  0
VERTEX
  8
LC_OH_2021_05_O7
  10
314686.002
  20
4486977.000
  0
VERTEX
  8
LC_OH_2021_05_O7
  10
315020.502
  20
4486674.500
  0
SEQEND
  8
LC_OH_2021_05_O7
  0
INSERT
  8
FeatureAttribs
  2
FEATURE
  41
1
  42
1
  43
1
  50
0
  10
322860.433
  20
4486033.285
 66
1
  0
ATTRIB
  8
FeatureAttribs
 70
0
  1
PNOA-H_AMS_1956-57_33k_ES_PAN_21mic_H50_0530_fot_000-51036_R.tif
  2
NAME
  10
322860.433
  20
4486033.285
 40
34.44982
  0
SEQEND
  0
POLYLINE
  8
LC_OH_2021_05_O7
  70
1
  66
1
  0
VERTEX
  8
LC_OH_2021_05_O7
  10
323878.607
  20
4485330.069
  0
VERTEX
  8
LC_OH_2021_05_O7
  10
321829.364
  20
4485378.483
  0
VERTEX
  8
LC_OH_2021_05_O7
  10
321871.002
  20
4486678.500
  0
VERTEX
  8
LC_OH_2021_05_O7
  10
323857.002
  20
4486736.000
  0
VERTEX
  8
LC_OH_2021_05_O7
  10
323874.002
  20
4486736.500
  0
VERTEX
  8
LC_OH_2021_05_O7
  10
323891.502
  20
4486736.500
  0
VERTEX
  8
LC_OH_2021_05_O7
  10
323891.502
  20
4486689.000
  0
SEQEND
  8
LC_OH_2021_05_O7
  0
INSERT
  8
FeatureAttribs
  2
FEATURE
  41
1
  42
1
  43
1
  50
0
  10
324953.443
  20
4486035.078
 66
1
  0
ATTRIB
  8
FeatureAttribs
 70
0
  1
PNOA-H_AMS_1956-57_33k_ES_PAN_21mic_H50_0530_fot_000-51037_R.tif
  2
NAME
  10
324953.443
  20
4486035.078
 40
34.44982
  0
SEQEND
  0
POLYLINE
  8
LC_OH_2021_05_O7
  70
1
  66
1
  0
VERTEX
  8
LC_OH_2021_05_O7
  10
326028.481
  20
4485279.656
  0
VERTEX
  8
LC_OH_2021_05_O7
  10
325230.438
  20
4485298.132
  0
VERTEX
  8
LC_OH_2021_05_O7
  10
323878.406
  20
4485330.074
  0
VERTEX
  8
LC_OH_2021_05_O7
  10
323891.502
  20
4486737.000
  0
VERTEX
  8
LC_OH_2021_05_O7
  10
323964.002
  20
4486790.000
  0
VERTEX
  8
LC_OH_2021_05_O7
  10
323965.002
  20
4486790.500
  0
VERTEX
  8
LC_OH_2021_05_O7
  10
326012.502
  20
4486726.000
  0
SEQEND
  8
LC_OH_2021_05_O7
  0
INSERT
  8
FeatureAttribs
  2
FEATURE
  41
1
  42
1
  43
1
  50
0
  10
329593.865
  20
4485295.500
 66
1
  0
ATTRIB
  8
FeatureAttribs
 70
0
  1
PNOA-H_AMS_1956-57_33k_ES_PAN_21mic_H50_0530_fot_000-51039_R.tif
  2
NAME
  10
329593.865
  20
4485295.500
 40
34.44982
  0
SEQEND
  0
POLYLINE
  8
LC_OH_2021_05_O7
  70
1
  66
1
  0
VERTEX
  8
LC_OH_2021_05_O7
  10
330811.779
  20
4485169.881
  0
VERTEX
  8
LC_OH_2021_05_O7
  10
328761.370
  20
4485216.383
  0
VERTEX
  8
LC_OH_2021_05_O7
  10
328380.599
  20
4485225.199
  0
VERTEX
  8
LC_OH_2021_05_O7
  10
328345.502
  20
4486752.500
  0
VERTEX
  8
LC_OH_2021_05_O7
  10
328552.502
  20
4486902.500
  0
VERTEX
  8
LC_OH_2021_05_O7
  10
328553.502
  20
4486903.000
  0
VERTEX
  8
LC_OH_2021_05_O7
  10
330771.003
  20
4486855.500
  0
SEQEND
  8
LC_OH_2021_05_O7
  0
INSERT
  8
FeatureAttribs
  2
FEATURE
  41
1
  42
1
  43
1
  50
0
  10
334164.460
  20
4485414.000
 66
1
  0
ATTRIB
  8
FeatureAttribs
 70
0
  1
PNOA-H_AMS_1956-57_33k_ES_PAN_21mic_H50_0530_fot_000-51041_R.tif
  2
NAME
  10
334164.460
  20
4485414.000
 40
34.44982
  0
SEQEND
  0
POLYLINE
  8
LC_OH_2021_05_O7
  70
1
  66
1
  0
VERTEX
  8
LC_OH_2021_05_O7
  10
335245.793
  20
4485070.718
  0
VERTEX
  8
LC_OH_2021_05_O7
  10
333067.971
  20
4485119.079
  0
VERTEX
  8
LC_OH_2021_05_O7
  10
333071.503
  20
4487008.500
  0
VERTEX
  8
LC_OH_2021_05_O7
  10
333351.503
  20
4487194.500
  0
VERTEX
  8
LC_OH_2021_05_O7
  10
335324.503
  20
4486922.000
  0
SEQEND
  8
LC_OH_2021_05_O7
  0
INSERT
  8
FeatureAttribs
  2
FEATURE
  41
1
  42
1
  43
1
  50
0
  10
338560.077
  20
4485271.999
 66
1
  0
ATTRIB
  8
FeatureAttribs
 70
0
  1
PNOA-H_AMS_1956-57_33k_ES_PAN_21mic_H50_0530_fot_000-51043_R.tif
  2
NAME
  10
338560.077
  20
4485271.999
 40
34.44982
  0
SEQEND
  0
POLYLINE
  8
LC_OH_2021_05_O7
  70
1
  66
1
  0
VERTEX
  8
LC_OH_2021_05_O7
  10
339658.719
  20
4484974.680
  0
VERTEX
  8
LC_OH_2021_05_O7
  10
339354.083
  20
4484981.157
  0
VERTEX
  8
LC_OH_2021_05_O7
  10
337418.062
  20
4485023.234
  0
VERTEX
  8
LC_OH_2021_05_O7
  10
337558.003
  20
4486860.000
  0
VERTEX
  8
LC_OH_2021_05_O7
  10
338080.503
  20
4487065.500
  0
VERTEX
  8
LC_OH_2021_05_O7
  10
339054.503
  20
4486822.500
  0
VERTEX
  8
LC_OH_2021_05_O7
  10
339055.503
  20
4486822.500
  0
VERTEX
  8
LC_OH_2021_05_O7
  10
339794.003
  20
4486639.000
  0
VERTEX
  8
LC_OH_2021_05_O7
  10
339795.003
  20
4486638.500
  0
VERTEX
  8
LC_OH_2021_05_O7
  10
339795.003
  20
4486635.000
  0
SEQEND
  8
LC_OH_2021_05_O7
  0
INSERT
  8
FeatureAttribs
  2
FEATURE
  41
1
  42
1
  43
1
  50
0
  10
331937.882
  20
4485343.749
 66
1
  0
ATTRIB
  8
FeatureAttribs
 70
0
  1
PNOA-H_AMS_1956-57_33k_ES_PAN_21mic_H50_0530_fot_000-51040_R.tif
  2
NAME
  10
331937.882
  20
4485343.749
 40
34.44982
  0
SEQEND
  0
POLYLINE
  8
LC_OH_2021_05_O7
  70
1
  66
1
  0
VERTEX
  8
LC_OH_2021_05_O7
  10
333067.971
  20
4485119.079
  0
VERTEX
  8
LC_OH_2021_05_O7
  10
332292.289
  20
4485136.305
  0
VERTEX
  8
LC_OH_2021_05_O7
  10
330811.557
  20
4485169.887
  0
VERTEX
  8
LC_OH_2021_05_O7
  10
330771.003
  20
4486856.000
  0
VERTEX
  8
LC_OH_2021_05_O7
  10
330937.003
  20
4486976.000
  0
VERTEX
  8
LC_OH_2021_05_O7
  10
330945.503
  20
4486982.000
  0
VERTEX
  8
LC_OH_2021_05_O7
  10
330948.003
  20
4486982.500
  0
VERTEX
  8
LC_OH_2021_05_O7
  10
332993.003
  20
4487007.500
  0
VERTEX
  8
LC_OH_2021_05_O7
  10
333033.503
  20
4487008.000
  0
VERTEX
  8
LC_OH_2021_05_O7
  10
333071.503
  20
4487008.000
  0
SEQEND
  8
LC_OH_2021_05_O7
  0
INSERT
  8
FeatureAttribs
  2
FEATURE
  41
1
  42
1
  43
1
  50
0
  10
340812.192
  20
4485157.000
 66
1
  0
ATTRIB
  8
FeatureAttribs
 70
0
  1
PNOA-H_AMS_1956-57_33k_ES_PAN_21mic_H50_0530_fot_000-51044_R.tif
  2
NAME
  10
340812.192
  20
4485157.000
 40
34.44982
  0
SEQEND
  0
POLYLINE
  8
LC_OH_2021_05_O7
  70
1
  66
1
  0
VERTEX
  8
LC_OH_2021_05_O7
  10
341935.458
  20
4484926.275
  0
VERTEX
  8
LC_OH_2021_05_O7
  10
339658.601
  20
4484974.683
  0
VERTEX
  8
LC_OH_2021_05_O7
  10
339795.003
  20
4486638.500
  0
VERTEX
  8
LC_OH_2021_05_O7
  10
340463.503
  20
4486892.500
  0
VERTEX
  8
LC_OH_2021_05_O7
  10
340475.003
  20
4486891.000
  0
VERTEX
  8
LC_OH_2021_05_O7
  10
341102.003
  20
4486763.000
  0
VERTEX
  8
LC_OH_2021_05_O7
  10
341103.503
  20
4486763.000
  0
VERTEX
  8
LC_OH_2021_05_O7
  10
342045.003
  20
4486571.500
  0
SEQEND
  8
LC_OH_2021_05_O7
  0
INSERT
  8
FeatureAttribs
  2
FEATURE
  41
1
  42
1
  43
1
  50
0
  10
327204.011
  20
4485282.251
 66
1
  0
ATTRIB
  8
FeatureAttribs
 70
0
  1
PNOA-H_AMS_1956-57_33k_ES_PAN_21mic_H50_0530_fot_000-51038_R.tif
  2
NAME
  10
327204.011
  20
4485282.251
 40
34.44982
  0
SEQEND
  0
POLYLINE
  8
LC_OH_2021_05_O7
  70
1
  66
1
  0
VERTEX
  8
LC_OH_2021_05_O7
  10
328380.895
  20
4485225.192
  0
VERTEX
  8
LC_OH_2021_05_O7
  10
326028.478
  20
4485279.656
  0
VERTEX
  8
LC_OH_2021_05_O7
  10
326012.502
  20
4486726.000
  0
VERTEX
  8
LC_OH_2021_05_O7
  10
326261.502
  20
4486893.000
  0
VERTEX
  8
LC_OH_2021_05_O7
  10
326262.002
  20
4486894.000
  0
VERTEX
  8
LC_OH_2021_05_O7
  10
328345.502
  20
4486752.500
  0
SEQEND
  8
LC_OH_2021_05_O7
  0
INSERT
  8
FeatureAttribs
  2
FEATURE
  41
1
  42
1
  43
1
  50
0
  10
336352.193
  20
4485379.499
 66
1
  0
ATTRIB
  8
FeatureAttribs
 70
0
  1
PNOA-H_AMS_1956-57_33k_ES_PAN_21mic_H50_0530_fot_000-51042_R.tif
  2
NAME
  10
336352.193
  20
4485379.499
 40
34.44982
  0
SEQEND
  0
POLYLINE
  8
LC_OH_2021_05_O7
  70
1
  66
1
  0
VERTEX
  8
LC_OH_2021_05_O7
  10
337418.374
  20
4485023.227
  0
VERTEX
  8
LC_OH_2021_05_O7
  10
335823.193
  20
4485057.896
  0
VERTEX
  8
LC_OH_2021_05_O7
  10
335245.793
  20
4485070.718
  0
VERTEX
  8
LC_OH_2021_05_O7
  10
335324.503
  20
4486922.000
  0
VERTEX
  8
LC_OH_2021_05_O7
  10
335854.003
  20
4487179.500
  0
VERTEX
  8
LC_OH_2021_05_O7
  10
337004.003
  20
4486963.500
  0
VERTEX
  8
LC_OH_2021_05_O7
  10
337007.503
  20
4486963.000
  0
VERTEX
  8
LC_OH_2021_05_O7
  10
337558.003
  20
4486860.000
  0
SEQEND
  8
LC_OH_2021_05_O7
  0
INSERT
  8
FeatureAttribs
  2
FEATURE
  41
1
  42
1
  43
1
  50
0
  10
342429.104
  20
4485838.044
 66
1
  0
ATTRIB
  8
FeatureAttribs
 70
0
  1
PNOA-H_AMS_1956-57_33k_ES_PAN_21mic_H50_0531_fot_000-51045_R.tif
  2
NAME
  10
342429.104
  20
4485838.044
 40
34.44982
  0
SEQEND
  0
POLYLINE
  8
LC_OH_2021_05_O7
  70
1
  66
1
  0
VERTEX
  8
LC_OH_2021_05_O7
  10
342922.750
  20
4486703.120
  0
VERTEX
  8
LC_OH_2021_05_O7
  10
342884.960
  20
4484906.088
  0
VERTEX
  8
LC_OH_2021_05_O7
  10
341935.458
  20
4484926.275
  0
VERTEX
  8
LC_OH_2021_05_O7
  10
342045.003
  20
4486571.500
  0
VERTEX
  8
LC_OH_2021_05_O7
  10
342569.503
  20
4486770.000
  0
SEQEND
  8
LC_OH_2021_05_O7
  0
INSERT
  8
FeatureAttribs
  2
FEATURE
  41
1
  42
1
  43
1
  50
0
  10
342704.306
  20
4496389.556
 66
1
  0
ATTRIB
  8
FeatureAttribs
 70
0
  1
PNOA-H_AMS_1956-57_33k_ES_PAN_21mic_H50_0531_fot_000-30149_R.tif
  2
NAME
  10
342704.306
  20
4496389.556
 40
34.44982
  0
SEQEND
  0
POLYLINE
  8
LC_OH_2021_05_O7
  70
1
  66
1
  0
VERTEX
  8
LC_OH_2021_05_O7
  10
343078.208
  20
4494089.911
  0
VERTEX
  8
LC_OH_2021_05_O7
  10
342351.503
  20
4494299.000
  0
VERTEX
  8
LC_OH_2021_05_O7
  10
342233.503
  20
4498517.000
  0
VERTEX
  8
LC_OH_2021_05_O7
  10
343175.109
  20
4498689.200
  0
VERTEX
  8
LC_OH_2021_05_O7
  10
343128.335
  20
4496469.624
  0
VERTEX
  8
LC_OH_2021_05_O7
  10
343079.618
  20
4494156.902
  0
SEQEND
  8
LC_OH_2021_05_O7
  0
INSERT
  8
FeatureAttribs
  2
FEATURE
  41
1
  42
1
  43
1
  50
0
  10
336944.372
  20
4492292.750
 66
1
  0
ATTRIB
  8
FeatureAttribs
 70
0
  1
PNOA-H_AMS_1956-57_33k_ES_PAN_21mic_H50_0530_fot_65B-42130_W.tif
  2
NAME
  10
336944.372
  20
4492292.750
 40
34.44982
  0
SEQEND
  0
POLYLINE
  8
LC_OH_2021_05_O7
  70
1
  66
1
  0
VERTEX
  8
LC_OH_2021_05_O7
  10
337007.503
  20
4494191.000
  0
VERTEX
  8
LC_OH_2021_05_O7
  10
338321.003
  20
4493899.000
  0
VERTEX
  8
LC_OH_2021_05_O7
  10
338267.503
  20
4490348.500
  0
VERTEX
  8
LC_OH_2021_05_O7
  10
335804.003
  20
4490292.500
  0
VERTEX
  8
LC_OH_2021_05_O7
  10
335596.503
  20
4490451.000
  0
VERTEX
  8
LC_OH_2021_05_O7
  10
335588.003
  20
4493903.500
  0
VERTEX
  8
LC_OH_2021_05_O7
  10
336550.503
  20
4494293.000
  0
VERTEX
  8
LC_OH_2021_05_O7
  10
337005.503
  20
4494191.500
  0
VERTEX
  8
LC_OH_2021_05_O7
  10
337007.503
  20
4494191.000
  0
SEQEND
  8
LC_OH_2021_05_O7
  0
ENDSEC
  0
EOF
