  0
SECTION
  2
HEADER
  9
$ACADVER
  1
AC1009
  9
$LUNITS
  70
2
  9
$LIMMIN
  10
286389.152
  20
4485553.400
  9
$LIMMAX
  10
315097.329
  20
4504810.647
  9
$EXTMIN
  10
286389.152
  20
4485553.400
  9
$EXTMAX
  10
315097.329
  20
4504810.647
  999
Created by Global Mapper
  999
Projection: UTM
  999
Datum: ETRS89
  999
Ground Units: meters
  999
ZONE: 30
  0
ENDSEC
  0
SECTION
  2
TABLES
  0
ENDSEC
  0
SECTION
  2
BLOCKS
  0
BLOCK
  8
FeatureAttribs
  70
0
  2
FEATURE
  3
FEATURE
  10
0.00000000
  20
0.00000000
  0
ATTDEF
  8
FeatureAttribs
  70
0
  1
 
  2
NAME
  3
NAME
  10
0.00000000
  20
0.00000000
  40
1.00000000
  0
ENDBLK
  0
ENDSEC
  0
SECTION
  2
ENTITIES
  0
INSERT
  8
FeatureAttribs
  2
FEATURE
  41
1
  42
1
  43
1
  50
0
  10
287454.641
  20
4501991.051
 66
1
  0
ATTRIB
  8
FeatureAttribs
 70
0
  1
PNOA-H_AMS_1956-57_33k_ES_PAN_21mic_H50_0528_fot_63B-34893_W.tif
  2
NAME
  10
287454.641
  20
4501991.051
 40
34.56879
  0
SEQEND
  0
POLYLINE
  8
LC_OH_2021_05_O7
  70
1
  66
1
  0
VERTEX
  8
LC_OH_2021_05_O7
  10
286899.693
  20
4504134.237
  0
VERTEX
  8
LC_OH_2021_05_O7
  10
287691.001
  20
4504023.000
  0
VERTEX
  8
LC_OH_2021_05_O7
  10
288132.501
  20
4503877.000
  0
VERTEX
  8
LC_OH_2021_05_O7
  10
288080.501
  20
4500179.500
  0
VERTEX
  8
LC_OH_2021_05_O7
  10
288080.501
  20
4500158.500
  0
VERTEX
  8
LC_OH_2021_05_O7
  10
288077.501
  20
4499929.000
  0
VERTEX
  8
LC_OH_2021_05_O7
  10
288077.001
  20
4499912.500
  0
VERTEX
  8
LC_OH_2021_05_O7
  10
288073.501
  20
4499912.000
  0
VERTEX
  8
LC_OH_2021_05_O7
  10
286776.782
  20
4499847.865
  0
VERTEX
  8
LC_OH_2021_05_O7
  10
286786.439
  20
4500184.851
  0
VERTEX
  8
LC_OH_2021_05_O7
  10
286852.753
  20
4502497.745
  0
SEQEND
  8
LC_OH_2021_05_O7
  0
INSERT
  8
FeatureAttribs
  2
FEATURE
  41
1
  42
1
  43
1
  50
0
  10
314234.505
  20
4501681.501
 66
1
  0
ATTRIB
  8
FeatureAttribs
 70
0
  1
PNOA-H_AMS_1956-57_33k_ES_PAN_21mic_H50_0529_fot_63B-34883_W.tif
  2
NAME
  10
314234.505
  20
4501681.501
 40
34.56879
  0
SEQEND
  0
POLYLINE
  8
LC_OH_2021_05_O7
  70
1
  66
1
  0
VERTEX
  8
LC_OH_2021_05_O7
  10
315092.264
  20
4503852.239
  0
VERTEX
  8
LC_OH_2021_05_O7
  10
315039.771
  20
4501742.920
  0
VERTEX
  8
LC_OH_2021_05_O7
  10
314984.439
  20
4499518.604
  0
VERTEX
  8
LC_OH_2021_05_O7
  10
314839.502
  20
4499465.000
  0
VERTEX
  8
LC_OH_2021_05_O7
  10
312844.502
  20
4499819.000
  0
VERTEX
  8
LC_OH_2021_05_O7
  10
312906.002
  20
4503897.500
  0
VERTEX
  8
LC_OH_2021_05_O7
  10
312919.502
  20
4503898.000
  0
VERTEX
  8
LC_OH_2021_05_O7
  10
314477.502
  20
4503865.000
  0
VERTEX
  8
LC_OH_2021_05_O7
  10
314479.502
  20
4503865.000
  0
SEQEND
  8
LC_OH_2021_05_O7
  0
INSERT
  8
FeatureAttribs
  2
FEATURE
  41
1
  42
1
  43
1
  50
0
  10
308833.396
  20
4501839.251
 66
1
  0
ATTRIB
  8
FeatureAttribs
 70
0
  1
PNOA-H_AMS_1956-57_33k_ES_PAN_21mic_H50_0529_fot_63B-34885_W.tif
  2
NAME
  10
308833.396
  20
4501839.251
 40
34.56879
  0
SEQEND
  0
POLYLINE
  8
LC_OH_2021_05_O7
  70
1
  66
1
  0
VERTEX
  8
LC_OH_2021_05_O7
  10
308323.502
  20
4503909.500
  0
VERTEX
  8
LC_OH_2021_05_O7
  10
309879.502
  20
4504094.000
  0
VERTEX
  8
LC_OH_2021_05_O7
  10
309883.502
  20
4504094.500
  0
VERTEX
  8
LC_OH_2021_05_O7
  10
310199.002
  20
4503862.000
  0
VERTEX
  8
LC_OH_2021_05_O7
  10
310131.502
  20
4499895.500
  0
VERTEX
  8
LC_OH_2021_05_O7
  10
309287.002
  20
4499584.000
  0
VERTEX
  8
LC_OH_2021_05_O7
  10
307523.002
  20
4499996.500
  0
VERTEX
  8
LC_OH_2021_05_O7
  10
307486.502
  20
4503232.500
  0
SEQEND
  8
LC_OH_2021_05_O7
  0
INSERT
  8
FeatureAttribs
  2
FEATURE
  41
1
  42
1
  43
1
  50
0
  10
306170.018
  20
4501658.000
 66
1
  0
ATTRIB
  8
FeatureAttribs
 70
0
  1
PNOA-H_AMS_1956-57_33k_ES_PAN_21mic_H50_0529_fot_63B-34886_W.tif
  2
NAME
  10
306170.018
  20
4501658.000
 40
34.56879
  0
SEQEND
  0
POLYLINE
  8
LC_OH_2021_05_O7
  70
1
  66
1
  0
VERTEX
  8
LC_OH_2021_05_O7
  10
306287.501
  20
4503499.000
  0
VERTEX
  8
LC_OH_2021_05_O7
  10
307487.002
  20
4503232.000
  0
VERTEX
  8
LC_OH_2021_05_O7
  10
307523.002
  20
4500038.500
  0
VERTEX
  8
LC_OH_2021_05_O7
  10
307522.502
  20
4499996.000
  0
VERTEX
  8
LC_OH_2021_05_O7
  10
306288.501
  20
4499584.500
  0
VERTEX
  8
LC_OH_2021_05_O7
  10
304890.001
  20
4499993.500
  0
VERTEX
  8
LC_OH_2021_05_O7
  10
304780.001
  20
4503341.000
  0
VERTEX
  8
LC_OH_2021_05_O7
  10
304780.501
  20
4503355.500
  0
VERTEX
  8
LC_OH_2021_05_O7
  10
305242.501
  20
4503731.500
  0
VERTEX
  8
LC_OH_2021_05_O7
  10
306286.501
  20
4503499.000
  0
VERTEX
  8
LC_OH_2021_05_O7
  10
306287.501
  20
4503499.000
  0
SEQEND
  8
LC_OH_2021_05_O7
  0
INSERT
  8
FeatureAttribs
  2
FEATURE
  41
1
  42
1
  43
1
  50
0
  10
300744.429
  20
4501662.750
 66
1
  0
ATTRIB
  8
FeatureAttribs
 70
0
  1
PNOA-H_AMS_1956-57_33k_ES_PAN_21mic_H50_0529_fot_63B-34888_W.tif
  2
NAME
  10
300744.429
  20
4501662.750
 40
34.56879
  0
SEQEND
  0
POLYLINE
  8
LC_OH_2021_05_O7
  70
1
  66
1
  0
VERTEX
  8
LC_OH_2021_05_O7
  10
300143.501
  20
4503686.500
  0
VERTEX
  8
LC_OH_2021_05_O7
  10
302141.501
  20
4503495.000
  0
VERTEX
  8
LC_OH_2021_05_O7
  10
302114.501
  20
4499993.000
  0
VERTEX
  8
LC_OH_2021_05_O7
  10
300425.001
  20
4499587.000
  0
VERTEX
  8
LC_OH_2021_05_O7
  10
300418.501
  20
4499588.500
  0
VERTEX
  8
LC_OH_2021_05_O7
  10
299323.501
  20
4500005.500
  0
VERTEX
  8
LC_OH_2021_05_O7
  10
299405.501
  20
4503584.500
  0
VERTEX
  8
LC_OH_2021_05_O7
  10
299601.501
  20
4503738.500
  0
VERTEX
  8
LC_OH_2021_05_O7
  10
300140.001
  20
4503686.500
  0
VERTEX
  8
LC_OH_2021_05_O7
  10
300143.501
  20
4503686.500
  0
SEQEND
  8
LC_OH_2021_05_O7
  0
INSERT
  8
FeatureAttribs
  2
FEATURE
  41
1
  42
1
  43
1
  50
0
  10
311518.253
  20
4501737.751
 66
1
  0
ATTRIB
  8
FeatureAttribs
 70
0
  1
PNOA-H_AMS_1956-57_33k_ES_PAN_21mic_H50_0529_fot_63B-34884_W.tif
  2
NAME
  10
311518.253
  20
4501737.751
 40
34.56879
  0
SEQEND
  0
POLYLINE
  8
LC_OH_2021_05_O7
  70
1
  66
1
  0
VERTEX
  8
LC_OH_2021_05_O7
  10
310199.002
  20
4503861.500
  0
VERTEX
  8
LC_OH_2021_05_O7
  10
310359.002
  20
4503866.500
  0
VERTEX
  8
LC_OH_2021_05_O7
  10
310376.502
  20
4503867.000
  0
VERTEX
  8
LC_OH_2021_05_O7
  10
312842.002
  20
4503937.500
  0
VERTEX
  8
LC_OH_2021_05_O7
  10
312857.502
  20
4503937.500
  0
VERTEX
  8
LC_OH_2021_05_O7
  10
312906.502
  20
4503898.000
  0
VERTEX
  8
LC_OH_2021_05_O7
  10
312844.502
  20
4499819.000
  0
VERTEX
  8
LC_OH_2021_05_O7
  10
312106.002
  20
4499538.000
  0
VERTEX
  8
LC_OH_2021_05_O7
  10
310131.502
  20
4499895.500
  0
SEQEND
  8
LC_OH_2021_05_O7
  0
INSERT
  8
FeatureAttribs
  2
FEATURE
  41
1
  42
1
  43
1
  50
0
  10
303481.754
  20
4501621.749
 66
1
  0
ATTRIB
  8
FeatureAttribs
 70
0
  1
PNOA-H_AMS_1956-57_33k_ES_PAN_21mic_H50_0529_fot_63B-34887_W.tif
  2
NAME
  10
303481.754
  20
4501621.749
 40
34.56879
  0
SEQEND
  0
POLYLINE
  8
LC_OH_2021_05_O7
  70
1
  66
1
  0
VERTEX
  8
LC_OH_2021_05_O7
  10
302191.001
  20
4503534.000
  0
VERTEX
  8
LC_OH_2021_05_O7
  10
302390.501
  20
4503690.000
  0
VERTEX
  8
LC_OH_2021_05_O7
  10
304780.001
  20
4503354.500
  0
VERTEX
  8
LC_OH_2021_05_O7
  10
304889.501
  20
4499993.500
  0
VERTEX
  8
LC_OH_2021_05_O7
  10
303361.501
  20
4499553.500
  0
VERTEX
  8
LC_OH_2021_05_O7
  10
302114.501
  20
4499993.000
  0
VERTEX
  8
LC_OH_2021_05_O7
  10
302141.501
  20
4503495.500
  0
VERTEX
  8
LC_OH_2021_05_O7
  10
302190.001
  20
4503533.500
  0
VERTEX
  8
LC_OH_2021_05_O7
  10
302191.001
  20
4503534.000
  0
SEQEND
  8
LC_OH_2021_05_O7
  0
INSERT
  8
FeatureAttribs
  2
FEATURE
  41
1
  42
1
  43
1
  50
0
  10
297960.713
  20
4501726.500
 66
1
  0
ATTRIB
  8
FeatureAttribs
 70
0
  1
PNOA-H_AMS_1956-57_33k_ES_PAN_21mic_H50_0529_fot_63B-34889_W.tif
  2
NAME
  10
297960.713
  20
4501726.500
 40
34.56879
  0
SEQEND
  0
POLYLINE
  8
LC_OH_2021_05_O7
  70
1
  66
1
  0
VERTEX
  8
LC_OH_2021_05_O7
  10
296591.001
  20
4503715.000
  0
VERTEX
  8
LC_OH_2021_05_O7
  10
296765.001
  20
4503846.000
  0
VERTEX
  8
LC_OH_2021_05_O7
  10
296774.001
  20
4503849.500
  0
VERTEX
  8
LC_OH_2021_05_O7
  10
298094.501
  20
4503716.500
  0
VERTEX
  8
LC_OH_2021_05_O7
  10
298095.501
  20
4503716.500
  0
VERTEX
  8
LC_OH_2021_05_O7
  10
299405.501
  20
4503584.500
  0
VERTEX
  8
LC_OH_2021_05_O7
  10
299323.501
  20
4500005.500
  0
VERTEX
  8
LC_OH_2021_05_O7
  10
297563.001
  20
4499603.500
  0
VERTEX
  8
LC_OH_2021_05_O7
  10
297559.501
  20
4499603.500
  0
VERTEX
  8
LC_OH_2021_05_O7
  10
297508.001
  20
4499624.000
  0
VERTEX
  8
LC_OH_2021_05_O7
  10
296530.501
  20
4500014.500
  0
SEQEND
  8
LC_OH_2021_05_O7
  0
INSERT
  8
FeatureAttribs
  2
FEATURE
  41
1
  42
1
  43
1
  50
0
  10
292313.424
  20
4501846.748
 66
1
  0
ATTRIB
  8
FeatureAttribs
 70
0
  1
PNOA-H_AMS_1956-57_33k_ES_PAN_21mic_H50_0529_fot_63B-34891_W.tif
  2
NAME
  10
292313.424
  20
4501846.748
 40
34.56879
  0
SEQEND
  0
POLYLINE
  8
LC_OH_2021_05_O7
  70
1
  66
1
  0
VERTEX
  8
LC_OH_2021_05_O7
  10
290913.001
  20
4503853.500
  0
VERTEX
  8
LC_OH_2021_05_O7
  10
291456.501
  20
4504070.500
  0
VERTEX
  8
LC_OH_2021_05_O7
  10
291948.501
  20
4504010.000
  0
VERTEX
  8
LC_OH_2021_05_O7
  10
291951.501
  20
4504010.000
  0
VERTEX
  8
LC_OH_2021_05_O7
  10
293756.001
  20
4503788.000
  0
VERTEX
  8
LC_OH_2021_05_O7
  10
293707.501
  20
4500026.000
  0
VERTEX
  8
LC_OH_2021_05_O7
  10
293706.501
  20
4500023.000
  0
VERTEX
  8
LC_OH_2021_05_O7
  10
293701.501
  20
4500022.000
  0
VERTEX
  8
LC_OH_2021_05_O7
  10
291682.001
  20
4499623.000
  0
VERTEX
  8
LC_OH_2021_05_O7
  10
291674.001
  20
4499625.500
  0
VERTEX
  8
LC_OH_2021_05_O7
  10
290880.001
  20
4499991.000
  0
SEQEND
  8
LC_OH_2021_05_O7
  0
INSERT
  8
FeatureAttribs
  2
FEATURE
  41
1
  42
1
  43
1
  50
0
  10
295144.800
  20
4501792.499
 66
1
  0
ATTRIB
  8
FeatureAttribs
 70
0
  1
PNOA-H_AMS_1956-57_33k_ES_PAN_21mic_H50_0529_fot_63B-34890_W.tif
  2
NAME
  10
295144.800
  20
4501792.499
 40
34.56879
  0
SEQEND
  0
POLYLINE
  8
LC_OH_2021_05_O7
  70
1
  66
1
  0
VERTEX
  8
LC_OH_2021_05_O7
  10
293756.001
  20
4503788.000
  0
VERTEX
  8
LC_OH_2021_05_O7
  10
293817.001
  20
4503831.500
  0
VERTEX
  8
LC_OH_2021_05_O7
  10
293997.001
  20
4503897.500
  0
VERTEX
  8
LC_OH_2021_05_O7
  10
293998.001
  20
4503898.000
  0
VERTEX
  8
LC_OH_2021_05_O7
  10
294117.001
  20
4503941.000
  0
VERTEX
  8
LC_OH_2021_05_O7
  10
296591.001
  20
4503714.500
  0
VERTEX
  8
LC_OH_2021_05_O7
  10
296530.501
  20
4500014.500
  0
VERTEX
  8
LC_OH_2021_05_O7
  10
294645.501
  20
4499644.000
  0
VERTEX
  8
LC_OH_2021_05_O7
  10
293707.001
  20
4500023.500
  0
SEQEND
  8
LC_OH_2021_05_O7
  0
INSERT
  8
FeatureAttribs
  2
FEATURE
  41
1
  42
1
  43
1
  50
0
  10
311983.698
  20
4492319.750
 66
1
  0
ATTRIB
  8
FeatureAttribs
 70
0
  1
PNOA-H_AMS_1956-57_33k_ES_PAN_21mic_H50_0529_fot_65B-42140_W.tif
  2
NAME
  10
311983.698
  20
4492319.750
 40
34.56879
  0
SEQEND
  0
POLYLINE
  8
LC_OH_2021_05_O7
  70
1
  66
1
  0
VERTEX
  8
LC_OH_2021_05_O7
  10
313255.502
  20
4491966.500
  0
VERTEX
  8
LC_OH_2021_05_O7
  10
313259.502
  20
4490248.000
  0
VERTEX
  8
LC_OH_2021_05_O7
  10
312222.002
  20
4489851.000
  0
VERTEX
  8
LC_OH_2021_05_O7
  10
312204.002
  20
4489845.000
  0
VERTEX
  8
LC_OH_2021_05_O7
  10
310650.502
  20
4490298.500
  0
VERTEX
  8
LC_OH_2021_05_O7
  10
310780.002
  20
4494507.000
  0
VERTEX
  8
LC_OH_2021_05_O7
  10
311902.502
  20
4494794.500
  0
VERTEX
  8
LC_OH_2021_05_O7
  10
313249.502
  20
4494437.000
  0
VERTEX
  8
LC_OH_2021_05_O7
  10
313255.502
  20
4491988.500
  0
VERTEX
  8
LC_OH_2021_05_O7
  10
313255.502
  20
4491966.500
  0
SEQEND
  8
LC_OH_2021_05_O7
  0
INSERT
  8
FeatureAttribs
  2
FEATURE
  41
1
  42
1
  43
1
  50
0
  10
314513.775
  20
4492298.250
 66
1
  0
ATTRIB
  8
FeatureAttribs
 70
0
  1
PNOA-H_AMS_1956-57_33k_ES_PAN_21mic_H50_0529_fot_65B-42139_W.tif
  2
NAME
  10
314513.775
  20
4492298.250
 40
34.56879
  0
SEQEND
  0
POLYLINE
  8
LC_OH_2021_05_O7
  70
1
  66
1
  0
VERTEX
  8
LC_OH_2021_05_O7
  10
314863.959
  20
4494672.288
  0
VERTEX
  8
LC_OH_2021_05_O7
  10
314809.784
  20
4492491.723
  0
VERTEX
  8
LC_OH_2021_05_O7
  10
314752.349
  20
4490178.941
  0
VERTEX
  8
LC_OH_2021_05_O7
  10
314744.690
  20
4489870.420
  0
VERTEX
  8
LC_OH_2021_05_O7
  10
314709.002
  20
4489857.500
  0
VERTEX
  8
LC_OH_2021_05_O7
  10
313271.502
  20
4490244.500
  0
VERTEX
  8
LC_OH_2021_05_O7
  10
313260.502
  20
4490247.500
  0
VERTEX
  8
LC_OH_2021_05_O7
  10
313259.002
  20
4490250.500
  0
VERTEX
  8
LC_OH_2021_05_O7
  10
313249.502
  20
4494437.000
  0
VERTEX
  8
LC_OH_2021_05_O7
  10
314646.502
  20
4494739.000
  0
VERTEX
  8
LC_OH_2021_05_O7
  10
314655.502
  20
4494737.500
  0
SEQEND
  8
LC_OH_2021_05_O7
  0
INSERT
  8
FeatureAttribs
  2
FEATURE
  41
1
  42
1
  43
1
  50
0
  10
306836.045
  20
4492495.749
 66
1
  0
ATTRIB
  8
FeatureAttribs
 70
0
  1
PNOA-H_AMS_1956-57_33k_ES_PAN_21mic_H50_0529_fot_65B-42142_W.tif
  2
NAME
  10
306836.045
  20
4492495.749
 40
34.56879
  0
SEQEND
  0
POLYLINE
  8
LC_OH_2021_05_O7
  70
1
  66
1
  0
VERTEX
  8
LC_OH_2021_05_O7
  10
306287.502
  20
4495023.000
  0
VERTEX
  8
LC_OH_2021_05_O7
  10
308310.502
  20
4494673.500
  0
VERTEX
  8
LC_OH_2021_05_O7
  10
307982.502
  20
4490360.000
  0
VERTEX
  8
LC_OH_2021_05_O7
  10
307979.502
  20
4490358.000
  0
VERTEX
  8
LC_OH_2021_05_O7
  10
306747.502
  20
4489959.000
  0
VERTEX
  8
LC_OH_2021_05_O7
  10
306740.002
  20
4489960.500
  0
VERTEX
  8
LC_OH_2021_05_O7
  10
305287.001
  20
4490467.500
  0
VERTEX
  8
LC_OH_2021_05_O7
  10
305808.001
  20
4494867.500
  0
VERTEX
  8
LC_OH_2021_05_O7
  10
306233.001
  20
4495032.500
  0
VERTEX
  8
LC_OH_2021_05_O7
  10
306286.502
  20
4495023.000
  0
VERTEX
  8
LC_OH_2021_05_O7
  10
306287.502
  20
4495023.000
  0
SEQEND
  8
LC_OH_2021_05_O7
  0
INSERT
  8
FeatureAttribs
  2
FEATURE
  41
1
  42
1
  43
1
  50
0
  10
301554.309
  20
4492757.749
 66
1
  0
ATTRIB
  8
FeatureAttribs
 70
0
  1
PNOA-H_AMS_1956-57_33k_ES_PAN_21mic_H50_0529_fot_65B-42144_W.tif
  2
NAME
  10
301554.309
  20
4492757.749
 40
34.56879
  0
SEQEND
  0
POLYLINE
  8
LC_OH_2021_05_O7
  70
1
  66
1
  0
VERTEX
  8
LC_OH_2021_05_O7
  10
300143.001
  20
4492164.000
  0
VERTEX
  8
LC_OH_2021_05_O7
  10
300394.501
  20
4495142.000
  0
VERTEX
  8
LC_OH_2021_05_O7
  10
300396.001
  20
4495159.500
  0
VERTEX
  8
LC_OH_2021_05_O7
  10
300397.001
  20
4495160.500
  0
VERTEX
  8
LC_OH_2021_05_O7
  10
300487.001
  20
4495209.000
  0
VERTEX
  8
LC_OH_2021_05_O7
  10
303088.001
  20
4495064.000
  0
VERTEX
  8
LC_OH_2021_05_O7
  10
302756.001
  20
4490626.000
  0
VERTEX
  8
LC_OH_2021_05_O7
  10
301367.501
  20
4490306.500
  0
VERTEX
  8
LC_OH_2021_05_O7
  10
300024.001
  20
4490743.500
  0
VERTEX
  8
LC_OH_2021_05_O7
  10
300023.501
  20
4490749.000
  0
VERTEX
  8
LC_OH_2021_05_O7
  10
300026.501
  20
4490785.000
  0
VERTEX
  8
LC_OH_2021_05_O7
  10
300143.001
  20
4492158.000
  0
VERTEX
  8
LC_OH_2021_05_O7
  10
300143.001
  20
4492164.000
  0
SEQEND
  8
LC_OH_2021_05_O7
  0
INSERT
  8
FeatureAttribs
  2
FEATURE
  41
1
  42
1
  43
1
  50
0
  10
289500.886
  20
4501927.250
 66
1
  0
ATTRIB
  8
FeatureAttribs
 70
0
  1
PNOA-H_AMS_1956-57_33k_ES_PAN_21mic_H50_0529_fot_63B-34892_W.tif
  2
NAME
  10
289500.886
  20
4501927.250
 40
34.56879
  0
SEQEND
  0
POLYLINE
  8
LC_OH_2021_05_O7
  70
1
  66
1
  0
VERTEX
  8
LC_OH_2021_05_O7
  10
288132.501
  20
4503877.500
  0
VERTEX
  8
LC_OH_2021_05_O7
  10
288817.501
  20
4504163.500
  0
VERTEX
  8
LC_OH_2021_05_O7
  10
289900.501
  20
4504010.500
  0
VERTEX
  8
LC_OH_2021_05_O7
  10
289903.501
  20
4504010.500
  0
VERTEX
  8
LC_OH_2021_05_O7
  10
290842.001
  20
4503878.000
  0
VERTEX
  8
LC_OH_2021_05_O7
  10
290913.001
  20
4503853.500
  0
VERTEX
  8
LC_OH_2021_05_O7
  10
290880.001
  20
4499991.000
  0
VERTEX
  8
LC_OH_2021_05_O7
  10
288503.001
  20
4499691.000
  0
VERTEX
  8
LC_OH_2021_05_O7
  10
288498.001
  20
4499692.500
  0
VERTEX
  8
LC_OH_2021_05_O7
  10
288077.001
  20
4499912.500
  0
SEQEND
  8
LC_OH_2021_05_O7
  0
INSERT
  8
FeatureAttribs
  2
FEATURE
  41
1
  42
1
  43
1
  50
0
  10
295983.365
  20
4492992.999
 66
1
  0
ATTRIB
  8
FeatureAttribs
 70
0
  1
PNOA-H_AMS_1956-57_33k_ES_PAN_21mic_H50_0529_fot_65B-42146_W.tif
  2
NAME
  10
295983.365
  20
4492992.999
 40
34.56879
  0
SEQEND
  0
POLYLINE
  8
LC_OH_2021_05_O7
  70
1
  66
1
  0
VERTEX
  8
LC_OH_2021_05_O7
  10
296047.501
  20
4495403.500
  0
VERTEX
  8
LC_OH_2021_05_O7
  10
297564.501
  20
4495375.000
  0
VERTEX
  8
LC_OH_2021_05_O7
  10
297664.001
  20
4495303.000
  0
VERTEX
  8
LC_OH_2021_05_O7
  10
297126.501
  20
4490840.000
  0
VERTEX
  8
LC_OH_2021_05_O7
  10
297125.501
  20
4490838.000
  0
VERTEX
  8
LC_OH_2021_05_O7
  10
297118.501
  20
4490836.000
  0
VERTEX
  8
LC_OH_2021_05_O7
  10
296092.001
  20
4490558.000
  0
VERTEX
  8
LC_OH_2021_05_O7
  10
294422.501
  20
4490964.000
  0
VERTEX
  8
LC_OH_2021_05_O7
  10
294771.001
  20
4495428.000
  0
VERTEX
  8
LC_OH_2021_05_O7
  10
296044.501
  20
4495403.500
  0
VERTEX
  8
LC_OH_2021_05_O7
  10
296047.501
  20
4495403.500
  0
SEQEND
  8
LC_OH_2021_05_O7
  0
INSERT
  8
FeatureAttribs
  2
FEATURE
  41
1
  42
1
  43
1
  50
0
  10
304227.349
  20
4492659.500
 66
1
  0
ATTRIB
  8
FeatureAttribs
 70
0
  1
PNOA-H_AMS_1956-57_33k_ES_PAN_21mic_H50_0529_fot_65B-42143_W.tif
  2
NAME
  10
304227.349
  20
4492659.500
 40
34.56879
  0
SEQEND
  0
POLYLINE
  8
LC_OH_2021_05_O7
  70
1
  66
1
  0
VERTEX
  8
LC_OH_2021_05_O7
  10
304239.501
  20
4495056.500
  0
VERTEX
  8
LC_OH_2021_05_O7
  10
305801.001
  20
4494868.500
  0
VERTEX
  8
LC_OH_2021_05_O7
  10
305808.001
  20
4494867.500
  0
VERTEX
  8
LC_OH_2021_05_O7
  10
305808.001
  20
4494863.500
  0
VERTEX
  8
LC_OH_2021_05_O7
  10
305287.001
  20
4490467.500
  0
VERTEX
  8
LC_OH_2021_05_O7
  10
304097.001
  20
4490150.500
  0
VERTEX
  8
LC_OH_2021_05_O7
  10
304080.001
  20
4490155.500
  0
VERTEX
  8
LC_OH_2021_05_O7
  10
302762.001
  20
4490623.500
  0
VERTEX
  8
LC_OH_2021_05_O7
  10
302756.001
  20
4490626.000
  0
VERTEX
  8
LC_OH_2021_05_O7
  10
302756.001
  20
4490632.000
  0
VERTEX
  8
LC_OH_2021_05_O7
  10
303088.001
  20
4495064.000
  0
VERTEX
  8
LC_OH_2021_05_O7
  10
303311.501
  20
4495168.500
  0
VERTEX
  8
LC_OH_2021_05_O7
  10
304236.501
  20
4495056.500
  0
VERTEX
  8
LC_OH_2021_05_O7
  10
304239.501
  20
4495056.500
  0
SEQEND
  8
LC_OH_2021_05_O7
  0
INSERT
  8
FeatureAttribs
  2
FEATURE
  41
1
  42
1
  43
1
  50
0
  10
290431.433
  20
4493222.749
 66
1
  0
ATTRIB
  8
FeatureAttribs
 70
0
  1
PNOA-H_AMS_1956-57_33k_ES_PAN_21mic_H50_0529_fot_65B-42148_W.tif
  2
NAME
  10
290431.433
  20
4493222.749
 40
34.56879
  0
SEQEND
  0
POLYLINE
  8
LC_OH_2021_05_O7
  70
1
  66
1
  0
VERTEX
  8
LC_OH_2021_05_O7
  10
291668.501
  20
4495638.500
  0
VERTEX
  8
LC_OH_2021_05_O7
  10
291672.001
  20
4495638.500
  0
VERTEX
  8
LC_OH_2021_05_O7
  10
291674.501
  20
4495637.000
  0
VERTEX
  8
LC_OH_2021_05_O7
  10
291852.001
  20
4495508.000
  0
VERTEX
  8
LC_OH_2021_05_O7
  10
291798.501
  20
4491078.500
  0
VERTEX
  8
LC_OH_2021_05_O7
  10
290904.001
  20
4490807.000
  0
VERTEX
  8
LC_OH_2021_05_O7
  10
288950.501
  20
4491204.500
  0
VERTEX
  8
LC_OH_2021_05_O7
  10
289134.001
  20
4495415.000
  0
VERTEX
  8
LC_OH_2021_05_O7
  10
291663.001
  20
4495638.000
  0
VERTEX
  8
LC_OH_2021_05_O7
  10
291668.501
  20
4495638.500
  0
SEQEND
  8
LC_OH_2021_05_O7
  0
INSERT
  8
FeatureAttribs
  2
FEATURE
  41
1
  42
1
  43
1
  50
0
  10
309425.440
  20
4492387.249
 66
1
  0
ATTRIB
  8
FeatureAttribs
 70
0
  1
PNOA-H_AMS_1956-57_33k_ES_PAN_21mic_H50_0529_fot_65B-42141_W.tif
  2
NAME
  10
309425.440
  20
4492387.249
 40
34.56879
  0
SEQEND
  0
POLYLINE
  8
LC_OH_2021_05_O7
  70
1
  66
1
  0
VERTEX
  8
LC_OH_2021_05_O7
  10
308335.002
  20
4494681.500
  0
VERTEX
  8
LC_OH_2021_05_O7
  10
309061.002
  20
4494906.500
  0
VERTEX
  8
LC_OH_2021_05_O7
  10
310779.502
  20
4494506.500
  0
VERTEX
  8
LC_OH_2021_05_O7
  10
310650.502
  20
4490298.500
  0
VERTEX
  8
LC_OH_2021_05_O7
  10
309517.002
  20
4489868.000
  0
VERTEX
  8
LC_OH_2021_05_O7
  10
309511.002
  20
4489869.000
  0
VERTEX
  8
LC_OH_2021_05_O7
  10
307982.002
  20
4490359.000
  0
VERTEX
  8
LC_OH_2021_05_O7
  10
308310.002
  20
4494669.500
  0
VERTEX
  8
LC_OH_2021_05_O7
  10
308311.002
  20
4494674.000
  0
VERTEX
  8
LC_OH_2021_05_O7
  10
308333.502
  20
4494681.000
  0
VERTEX
  8
LC_OH_2021_05_O7
  10
308335.002
  20
4494681.500
  0
SEQEND
  8
LC_OH_2021_05_O7
  0
INSERT
  8
FeatureAttribs
  2
FEATURE
  41
1
  42
1
  43
1
  50
0
  10
298784.357
  20
4492844.499
 66
1
  0
ATTRIB
  8
FeatureAttribs
 70
0
  1
PNOA-H_AMS_1956-57_33k_ES_PAN_21mic_H50_0529_fot_65B-42145_W.tif
  2
NAME
  10
298784.357
  20
4492844.499
 40
34.56879
  0
SEQEND
  0
POLYLINE
  8
LC_OH_2021_05_O7
  70
1
  66
1
  0
VERTEX
  8
LC_OH_2021_05_O7
  10
297664.001
  20
4495302.500
  0
VERTEX
  8
LC_OH_2021_05_O7
  10
300396.501
  20
4495160.000
  0
VERTEX
  8
LC_OH_2021_05_O7
  10
300023.501
  20
4490744.000
  0
VERTEX
  8
LC_OH_2021_05_O7
  10
298731.501
  20
4490386.500
  0
VERTEX
  8
LC_OH_2021_05_O7
  10
297126.001
  20
4490838.500
  0
VERTEX
  8
LC_OH_2021_05_O7
  10
297663.501
  20
4495298.000
  0
VERTEX
  8
LC_OH_2021_05_O7
  10
297664.001
  20
4495302.500
  0
SEQEND
  8
LC_OH_2021_05_O7
  0
INSERT
  8
FeatureAttribs
  2
FEATURE
  41
1
  42
1
  43
1
  50
0
  10
287633.616
  20
4493368.250
 66
1
  0
ATTRIB
  8
FeatureAttribs
 70
0
  1
PNOA-H_AMS_1956-57_33k_ES_PAN_21mic_H50_0529_fot_65B-42149_W.tif
  2
NAME
  10
287633.616
  20
4493368.250
 40
34.56879
  0
SEQEND
  0
POLYLINE
  8
LC_OH_2021_05_O7
  70
1
  66
1
  0
VERTEX
  8
LC_OH_2021_05_O7
  10
286650.103
  20
4495426.565
  0
VERTEX
  8
LC_OH_2021_05_O7
  10
288553.001
  20
4495788.500
  0
VERTEX
  8
LC_OH_2021_05_O7
  10
288556.001
  20
4495789.000
  0
VERTEX
  8
LC_OH_2021_05_O7
  10
288559.501
  20
4495788.500
  0
VERTEX
  8
LC_OH_2021_05_O7
  10
289134.501
  20
4495415.500
  0
VERTEX
  8
LC_OH_2021_05_O7
  10
288951.001
  20
4491210.000
  0
VERTEX
  8
LC_OH_2021_05_O7
  10
288950.501
  20
4491204.500
  0
VERTEX
  8
LC_OH_2021_05_O7
  10
288949.501
  20
4491204.000
  0
VERTEX
  8
LC_OH_2021_05_O7
  10
288166.501
  20
4490947.500
  0
VERTEX
  8
LC_OH_2021_05_O7
  10
286530.859
  20
4491261.452
  0
VERTEX
  8
LC_OH_2021_05_O7
  10
286587.668
  20
4493246.207
  0
SEQEND
  8
LC_OH_2021_05_O7
  0
INSERT
  8
FeatureAttribs
  2
FEATURE
  41
1
  42
1
  43
1
  50
0
  10
293206.409
  20
4493106.749
 66
1
  0
ATTRIB
  8
FeatureAttribs
 70
0
  1
PNOA-H_AMS_1956-57_33k_ES_PAN_21mic_H50_0529_fot_65B-42147_W.tif
  2
NAME
  10
293206.409
  20
4493106.749
 40
34.56879
  0
SEQEND
  0
POLYLINE
  8
LC_OH_2021_05_O7
  70
1
  66
1
  0
VERTEX
  8
LC_OH_2021_05_O7
  10
291852.001
  20
4495508.000
  0
VERTEX
  8
LC_OH_2021_05_O7
  10
294697.001
  20
4495482.500
  0
VERTEX
  8
LC_OH_2021_05_O7
  10
294771.001
  20
4495428.000
  0
VERTEX
  8
LC_OH_2021_05_O7
  10
294422.501
  20
4490964.000
  0
VERTEX
  8
LC_OH_2021_05_O7
  10
293515.501
  20
4490705.500
  0
VERTEX
  8
LC_OH_2021_05_O7
  10
293512.501
  20
4490705.500
  0
VERTEX
  8
LC_OH_2021_05_O7
  10
291798.501
  20
4491078.500
  0
VERTEX
  8
LC_OH_2021_05_O7
  10
291852.001
  20
4495506.000
  0
VERTEX
  8
LC_OH_2021_05_O7
  10
291852.001
  20
4495508.000
  0
SEQEND
  8
LC_OH_2021_05_O7
  0
INSERT
  8
FeatureAttribs
  2
FEATURE
  41
1
  42
1
  43
1
  50
0
  10
306783.002
  20
4503768.478
 66
1
  0
ATTRIB
  8
FeatureAttribs
 70
0
  1
PNOA-H_AMS_1956-57_33k_ES_PAN_21mic_H50_0504_fot_000-04137_R.tif
  2
NAME
  10
306783.002
  20
4503768.478
 40
34.56879
  0
SEQEND
  0
POLYLINE
  8
LC_OH_2021_05_O7
  70
1
  66
1
  0
VERTEX
  8
LC_OH_2021_05_O7
  10
308143.030
  20
4504232.122
  0
VERTEX
  8
LC_OH_2021_05_O7
  10
308323.502
  20
4503909.000
  0
VERTEX
  8
LC_OH_2021_05_O7
  10
307487.002
  20
4503232.500
  0
VERTEX
  8
LC_OH_2021_05_O7
  10
305242.501
  20
4503731.500
  0
VERTEX
  8
LC_OH_2021_05_O7
  10
305271.501
  20
4504181.000
  0
VERTEX
  8
LC_OH_2021_05_O7
  10
305367.640
  20
4504304.457
  0
VERTEX
  8
LC_OH_2021_05_O7
  10
308052.865
  20
4504234.430
  0
SEQEND
  8
LC_OH_2021_05_O7
  0
INSERT
  8
FeatureAttribs
  2
FEATURE
  41
1
  42
1
  43
1
  50
0
  10
303830.751
  20
4503866.294
 66
1
  0
ATTRIB
  8
FeatureAttribs
 70
0
  1
PNOA-H_AMS_1956-57_33k_ES_PAN_21mic_H50_0504_fot_000-04138_R.tif
  2
NAME
  10
303830.751
  20
4503866.294
 40
34.56879
  0
SEQEND
  0
POLYLINE
  8
LC_OH_2021_05_O7
  70
1
  66
1
  0
VERTEX
  8
LC_OH_2021_05_O7
  10
305206.530
  20
4504308.658
  0
VERTEX
  8
LC_OH_2021_05_O7
  10
305271.001
  20
4504180.000
  0
VERTEX
  8
LC_OH_2021_05_O7
  10
305242.501
  20
4503731.000
  0
VERTEX
  8
LC_OH_2021_05_O7
  10
304784.001
  20
4503357.500
  0
VERTEX
  8
LC_OH_2021_05_O7
  10
304778.501
  20
4503354.500
  0
VERTEX
  8
LC_OH_2021_05_O7
  10
302390.501
  20
4503689.500
  0
VERTEX
  8
LC_OH_2021_05_O7
  10
302418.501
  20
4504123.000
  0
VERTEX
  8
LC_OH_2021_05_O7
  10
302501.501
  20
4504253.500
  0
VERTEX
  8
LC_OH_2021_05_O7
  10
302501.501
  20
4504254.500
  0
VERTEX
  8
LC_OH_2021_05_O7
  10
302579.680
  20
4504378.088
  0
VERTEX
  8
LC_OH_2021_05_O7
  10
304530.611
  20
4504326.285
  0
SEQEND
  8
LC_OH_2021_05_O7
  0
INSERT
  8
FeatureAttribs
  2
FEATURE
  41
1
  42
1
  43
1
  50
0
  10
301010.001
  20
4503973.595
 66
1
  0
ATTRIB
  8
FeatureAttribs
 70
0
  1
PNOA-H_AMS_1956-57_33k_ES_PAN_21mic_H50_0504_fot_000-04139_R.tif
  2
NAME
  10
301010.001
  20
4503973.595
 40
34.56879
  0
SEQEND
  0
POLYLINE
  8
LC_OH_2021_05_O7
  70
1
  66
1
  0
VERTEX
  8
LC_OH_2021_05_O7
  10
302298.894
  20
4504385.544
  0
VERTEX
  8
LC_OH_2021_05_O7
  10
302417.501
  20
4504125.500
  0
VERTEX
  8
LC_OH_2021_05_O7
  10
302418.501
  20
4504119.000
  0
VERTEX
  8
LC_OH_2021_05_O7
  10
302390.001
  20
4503689.500
  0
VERTEX
  8
LC_OH_2021_05_O7
  10
302141.501
  20
4503495.000
  0
VERTEX
  8
LC_OH_2021_05_O7
  10
299601.501
  20
4503738.500
  0
VERTEX
  8
LC_OH_2021_05_O7
  10
299618.501
  20
4504074.000
  0
VERTEX
  8
LC_OH_2021_05_O7
  10
299810.369
  20
4504452.191
  0
VERTEX
  8
LC_OH_2021_05_O7
  10
301008.340
  20
4504419.812
  0
SEQEND
  8
LC_OH_2021_05_O7
  0
INSERT
  8
FeatureAttribs
  2
FEATURE
  41
1
  42
1
  43
1
  50
0
  10
295440.751
  20
4504158.466
 66
1
  0
ATTRIB
  8
FeatureAttribs
 70
0
  1
PNOA-H_AMS_1956-57_33k_ES_PAN_21mic_H50_0504_fot_000-04141_R.tif
  2
NAME
  10
295440.751
  20
4504158.466
 40
34.56879
  0
SEQEND
  0
POLYLINE
  8
LC_OH_2021_05_O7
  70
1
  66
1
  0
VERTEX
  8
LC_OH_2021_05_O7
  10
296504.079
  20
4504542.019
  0
VERTEX
  8
LC_OH_2021_05_O7
  10
296612.001
  20
4504256.000
  0
VERTEX
  8
LC_OH_2021_05_O7
  10
296612.501
  20
4504254.500
  0
VERTEX
  8
LC_OH_2021_05_O7
  10
296766.001
  20
4503846.000
  0
VERTEX
  8
LC_OH_2021_05_O7
  10
296591.001
  20
4503714.500
  0
VERTEX
  8
LC_OH_2021_05_O7
  10
294115.501
  20
4503941.000
  0
VERTEX
  8
LC_OH_2021_05_O7
  10
294307.448
  20
4504602.431
  0
SEQEND
  8
LC_OH_2021_05_O7
  0
INSERT
  8
FeatureAttribs
  2
FEATURE
  41
1
  42
1
  43
1
  50
0
  10
287295.347
  20
4504416.823
 66
1
  0
ATTRIB
  8
FeatureAttribs
 70
0
  1
PNOA-H_AMS_1956-57_33k_ES_PAN_21mic_H50_0504_fot_62B-04144_W.tif
  2
NAME
  10
287295.347
  20
4504416.823
 40
34.56879
  0
SEQEND
  0
POLYLINE
  8
LC_OH_2021_05_O7
  70
1
  66
1
  0
VERTEX
  8
LC_OH_2021_05_O7
  10
287650.760
  20
4504789.829
  0
VERTEX
  8
LC_OH_2021_05_O7
  10
287691.001
  20
4504023.000
  0
VERTEX
  8
LC_OH_2021_05_O7
  10
286899.693
  20
4504134.237
  0
VERTEX
  8
LC_OH_2021_05_O7
  10
286919.095
  20
4504810.647
  0
SEQEND
  8
LC_OH_2021_05_O7
  0
INSERT
  8
FeatureAttribs
  2
FEATURE
  41
1
  42
1
  43
1
  50
0
  10
289831.501
  20
4504316.321
 66
1
  0
ATTRIB
  8
FeatureAttribs
 70
0
  1
PNOA-H_AMS_1956-57_33k_ES_PAN_21mic_H50_0504_fot_000-04143_R.tif
  2
NAME
  10
289831.501
  20
4504316.321
 40
34.56879
  0
SEQEND
  0
POLYLINE
  8
LC_OH_2021_05_O7
  70
1
  66
1
  0
VERTEX
  8
LC_OH_2021_05_O7
  10
290663.184
  20
4504704.225
  0
VERTEX
  8
LC_OH_2021_05_O7
  10
290761.501
  20
4504257.000
  0
VERTEX
  8
LC_OH_2021_05_O7
  10
290762.001
  20
4504254.500
  0
VERTEX
  8
LC_OH_2021_05_O7
  10
290844.501
  20
4503877.500
  0
VERTEX
  8
LC_OH_2021_05_O7
  10
288818.501
  20
4504163.500
  0
VERTEX
  8
LC_OH_2021_05_O7
  10
288869.907
  20
4504755.142
  0
VERTEX
  8
LC_OH_2021_05_O7
  10
290441.431
  20
4504710.429
  0
SEQEND
  8
LC_OH_2021_05_O7
  0
INSERT
  8
FeatureAttribs
  2
FEATURE
  41
1
  42
1
  43
1
  50
0
  10
292637.251
  20
4504233.508
 66
1
  0
ATTRIB
  8
FeatureAttribs
 70
0
  1
PNOA-H_AMS_1956-57_33k_ES_PAN_21mic_H50_0504_fot_000-04142_R.tif
  2
NAME
  10
292637.251
  20
4504233.508
 40
34.56879
  0
SEQEND
  0
POLYLINE
  8
LC_OH_2021_05_O7
  70
1
  66
1
  0
VERTEX
  8
LC_OH_2021_05_O7
  10
293591.783
  20
4504622.291
  0
VERTEX
  8
LC_OH_2021_05_O7
  10
293817.001
  20
4503832.500
  0
VERTEX
  8
LC_OH_2021_05_O7
  10
293817.001
  20
4503831.000
  0
VERTEX
  8
LC_OH_2021_05_O7
  10
293814.501
  20
4503829.000
  0
VERTEX
  8
LC_OH_2021_05_O7
  10
293756.501
  20
4503788.000
  0
VERTEX
  8
LC_OH_2021_05_O7
  10
291457.501
  20
4504070.500
  0
VERTEX
  8
LC_OH_2021_05_O7
  10
291564.201
  20
4504679.017
  0
SEQEND
  8
LC_OH_2021_05_O7
  0
INSERT
  8
FeatureAttribs
  2
FEATURE
  41
1
  42
1
  43
1
  50
0
  10
298197.001
  20
4504055.798
 66
1
  0
ATTRIB
  8
FeatureAttribs
 70
0
  1
PNOA-H_AMS_1956-57_33k_ES_PAN_21mic_H50_0504_fot_000-04140_R.tif
  2
NAME
  10
298197.001
  20
4504055.798
 40
34.56879
  0
SEQEND
  0
POLYLINE
  8
LC_OH_2021_05_O7
  70
1
  66
1
  0
VERTEX
  8
LC_OH_2021_05_O7
  10
299444.979
  20
4504462.066
  0
VERTEX
  8
LC_OH_2021_05_O7
  10
299618.501
  20
4504074.000
  0
VERTEX
  8
LC_OH_2021_05_O7
  10
299601.501
  20
4503738.000
  0
VERTEX
  8
LC_OH_2021_05_O7
  10
299408.001
  20
4503586.000
  0
VERTEX
  8
LC_OH_2021_05_O7
  10
299404.001
  20
4503584.500
  0
VERTEX
  8
LC_OH_2021_05_O7
  10
296775.501
  20
4503849.500
  0
VERTEX
  8
LC_OH_2021_05_O7
  10
297046.676
  20
4504527.096
  0
VERTEX
  8
LC_OH_2021_05_O7
  10
297486.054
  20
4504515.012
  0
SEQEND
  8
LC_OH_2021_05_O7
  0
INSERT
  8
FeatureAttribs
  2
FEATURE
  41
1
  42
1
  43
1
  50
0
  10
286657.549
  20
4488621.000
 66
1
  0
ATTRIB
  8
FeatureAttribs
 70
0
  1
PNOA-H_AMS_1956-57_33k_ES_PAN_21mic_H50_0528_fot_66A-18854_E.tif
  2
NAME
  10
286657.549
  20
4488621.000
 40
34.56879
  0
SEQEND
  0
POLYLINE
  8
LC_OH_2021_05_O7
  70
1
  66
1
  0
VERTEX
  8
LC_OH_2021_05_O7
  10
287925.787
  20
4486264.052
  0
VERTEX
  8
LC_OH_2021_05_O7
  10
286389.152
  20
4486307.624
  0
VERTEX
  8
LC_OH_2021_05_O7
  10
286455.296
  20
4488620.478
  0
VERTEX
  8
LC_OH_2021_05_O7
  10
286521.468
  20
4490933.339
  0
VERTEX
  8
LC_OH_2021_05_O7
  10
286530.863
  20
4491261.572
  0
VERTEX
  8
LC_OH_2021_05_O7
  10
288165.501
  20
4490947.500
  0
SEQEND
  8
LC_OH_2021_05_O7
  0
INSERT
  8
FeatureAttribs
  2
FEATURE
  41
1
  42
1
  43
1
  50
0
  10
313441.684
  20
4488517.998
 66
1
  0
ATTRIB
  8
FeatureAttribs
 70
0
  1
PNOA-H_AMS_1956-57_33k_ES_PAN_21mic_H50_0529_fot_66A-18844_E.tif
  2
NAME
  10
313441.684
  20
4488517.998
 40
34.56879
  0
SEQEND
  0
POLYLINE
  8
LC_OH_2021_05_O7
  70
1
  66
1
  0
VERTEX
  8
LC_OH_2021_05_O7
  10
314692.088
  20
4487751.292
  0
VERTEX
  8
LC_OH_2021_05_O7
  10
314672.848
  20
4486975.886
  0
VERTEX
  8
LC_OH_2021_05_O7
  10
312539.002
  20
4486788.000
  0
VERTEX
  8
LC_OH_2021_05_O7
  10
312163.002
  20
4487092.000
  0
VERTEX
  8
LC_OH_2021_05_O7
  10
312205.002
  20
4489845.000
  0
VERTEX
  8
LC_OH_2021_05_O7
  10
312429.502
  20
4489931.000
  0
VERTEX
  8
LC_OH_2021_05_O7
  10
312431.002
  20
4489931.500
  0
VERTEX
  8
LC_OH_2021_05_O7
  10
313245.002
  20
4490243.000
  0
VERTEX
  8
LC_OH_2021_05_O7
  10
313260.502
  20
4490248.000
  0
VERTEX
  8
LC_OH_2021_05_O7
  10
314710.002
  20
4489857.500
  0
SEQEND
  8
LC_OH_2021_05_O7
  0
INSERT
  8
FeatureAttribs
  2
FEATURE
  41
1
  42
1
  43
1
  50
0
  10
310851.855
  20
4488414.499
 66
1
  0
ATTRIB
  8
FeatureAttribs
 70
0
  1
PNOA-H_AMS_1956-57_33k_ES_PAN_21mic_H50_0529_fot_66A-18845_E.tif
  2
NAME
  10
310851.855
  20
4488414.499
 40
34.56879
  0
SEQEND
  0
POLYLINE
  8
LC_OH_2021_05_O7
  70
1
  66
1
  0
VERTEX
  8
LC_OH_2021_05_O7
  10
310649.002
  20
4490298.500
  0
VERTEX
  8
LC_OH_2021_05_O7
  10
310656.002
  20
4490297.500
  0
VERTEX
  8
LC_OH_2021_05_O7
  10
312205.002
  20
4489845.000
  0
VERTEX
  8
LC_OH_2021_05_O7
  10
312163.002
  20
4487092.000
  0
VERTEX
  8
LC_OH_2021_05_O7
  10
309527.002
  20
4486530.500
  0
VERTEX
  8
LC_OH_2021_05_O7
  10
309515.502
  20
4489868.000
  0
VERTEX
  8
LC_OH_2021_05_O7
  10
310648.002
  20
4490298.000
  0
VERTEX
  8
LC_OH_2021_05_O7
  10
310649.002
  20
4490298.500
  0
SEQEND
  8
LC_OH_2021_05_O7
  0
INSERT
  8
FeatureAttribs
  2
FEATURE
  41
1
  42
1
  43
1
  50
0
  10
308148.243
  20
4487974.500
 66
1
  0
ATTRIB
  8
FeatureAttribs
 70
0
  1
PNOA-H_AMS_1956-57_33k_ES_PAN_21mic_H50_0529_fot_66A-18846_E.tif
  2
NAME
  10
308148.243
  20
4487974.500
 40
34.56879
  0
SEQEND
  0
POLYLINE
  8
LC_OH_2021_05_O7
  70
1
  66
1
  0
VERTEX
  8
LC_OH_2021_05_O7
  10
308438.202
  20
4485709.918
  0
VERTEX
  8
LC_OH_2021_05_O7
  10
307575.551
  20
4485731.930
  0
VERTEX
  8
LC_OH_2021_05_O7
  10
307444.594
  20
4485735.334
  0
VERTEX
  8
LC_OH_2021_05_O7
  10
306813.002
  20
4485976.000
  0
VERTEX
  8
LC_OH_2021_05_O7
  10
306804.002
  20
4485979.500
  0
VERTEX
  8
LC_OH_2021_05_O7
  10
306803.002
  20
4485981.000
  0
VERTEX
  8
LC_OH_2021_05_O7
  10
306746.002
  20
4489959.000
  0
VERTEX
  8
LC_OH_2021_05_O7
  10
307979.502
  20
4490358.500
  0
VERTEX
  8
LC_OH_2021_05_O7
  10
307981.002
  20
4490359.000
  0
VERTEX
  8
LC_OH_2021_05_O7
  10
307990.002
  20
4490357.000
  0
VERTEX
  8
LC_OH_2021_05_O7
  10
309515.502
  20
4489868.000
  0
VERTEX
  8
LC_OH_2021_05_O7
  10
309527.002
  20
4486530.500
  0
VERTEX
  8
LC_OH_2021_05_O7
  10
308967.002
  20
4485813.500
  0
SEQEND
  8
LC_OH_2021_05_O7
  0
INSERT
  8
FeatureAttribs
  2
FEATURE
  41
1
  42
1
  43
1
  50
0
  10
302708.113
  20
4488169.999
 66
1
  0
ATTRIB
  8
FeatureAttribs
 70
0
  1
PNOA-H_AMS_1956-57_33k_ES_PAN_21mic_H50_0529_fot_66A-18848_E.tif
  2
NAME
  10
302708.113
  20
4488169.999
 40
34.56879
  0
SEQEND
  0
POLYLINE
  8
LC_OH_2021_05_O7
  70
1
  66
1
  0
VERTEX
  8
LC_OH_2021_05_O7
  10
302991.712
  20
4485851.562
  0
VERTEX
  8
LC_OH_2021_05_O7
  10
301920.346
  20
4485879.914
  0
VERTEX
  8
LC_OH_2021_05_O7
  10
301416.501
  20
4486077.000
  0
VERTEX
  8
LC_OH_2021_05_O7
  10
301368.501
  20
4490306.500
  0
VERTEX
  8
LC_OH_2021_05_O7
  10
302188.001
  20
4490495.500
  0
VERTEX
  8
LC_OH_2021_05_O7
  10
302190.001
  20
4490496.000
  0
VERTEX
  8
LC_OH_2021_05_O7
  10
302756.501
  20
4490626.000
  0
VERTEX
  8
LC_OH_2021_05_O7
  10
304095.501
  20
4490150.500
  0
VERTEX
  8
LC_OH_2021_05_O7
  10
303946.501
  20
4486054.500
  0
SEQEND
  8
LC_OH_2021_05_O7
  0
INSERT
  8
FeatureAttribs
  2
FEATURE
  41
1
  42
1
  43
1
  50
0
  10
300082.830
  20
4488259.750
 66
1
  0
ATTRIB
  8
FeatureAttribs
 70
0
  1
PNOA-H_AMS_1956-57_33k_ES_PAN_21mic_H50_0529_fot_66A-18849_E.tif
  2
NAME
  10
300082.830
  20
4488259.750
 40
34.56879
  0
SEQEND
  0
POLYLINE
  8
LC_OH_2021_05_O7
  70
1
  66
1
  0
VERTEX
  8
LC_OH_2021_05_O7
  10
300470.040
  20
4485918.314
  0
VERTEX
  8
LC_OH_2021_05_O7
  10
299207.498
  20
4485952.322
  0
VERTEX
  8
LC_OH_2021_05_O7
  10
298815.501
  20
4486122.000
  0
VERTEX
  8
LC_OH_2021_05_O7
  10
298732.501
  20
4490374.000
  0
VERTEX
  8
LC_OH_2021_05_O7
  10
298732.501
  20
4490386.500
  0
VERTEX
  8
LC_OH_2021_05_O7
  10
298733.501
  20
4490387.000
  0
VERTEX
  8
LC_OH_2021_05_O7
  10
300024.001
  20
4490744.000
  0
VERTEX
  8
LC_OH_2021_05_O7
  10
301368.501
  20
4490306.500
  0
VERTEX
  8
LC_OH_2021_05_O7
  10
301396.001
  20
4487898.000
  0
VERTEX
  8
LC_OH_2021_05_O7
  10
301396.001
  20
4487870.500
  0
VERTEX
  8
LC_OH_2021_05_O7
  10
301416.001
  20
4486076.500
  0
SEQEND
  8
LC_OH_2021_05_O7
  0
INSERT
  8
FeatureAttribs
  2
FEATURE
  41
1
  42
1
  43
1
  50
0
  10
297431.605
  20
4488304.249
 66
1
  0
ATTRIB
  8
FeatureAttribs
 70
0
  1
PNOA-H_AMS_1956-57_33k_ES_PAN_21mic_H50_0529_fot_66A-18850_E.tif
  2
NAME
  10
297431.605
  20
4488304.249
 40
34.56879
  0
SEQEND
  0
POLYLINE
  8
LC_OH_2021_05_O7
  70
1
  66
1
  0
VERTEX
  8
LC_OH_2021_05_O7
  10
298044.030
  20
4485983.662
  0
VERTEX
  8
LC_OH_2021_05_O7
  10
296982.428
  20
4486012.257
  0
VERTEX
  8
LC_OH_2021_05_O7
  10
296296.526
  20
4486031.057
  0
VERTEX
  8
LC_OH_2021_05_O7
  10
296089.001
  20
4486128.500
  0
VERTEX
  8
LC_OH_2021_05_O7
  10
296091.001
  20
4490486.500
  0
VERTEX
  8
LC_OH_2021_05_O7
  10
296092.001
  20
4490558.500
  0
VERTEX
  8
LC_OH_2021_05_O7
  10
297126.501
  20
4490838.500
  0
VERTEX
  8
LC_OH_2021_05_O7
  10
298732.501
  20
4490386.500
  0
VERTEX
  8
LC_OH_2021_05_O7
  10
298781.501
  20
4487880.000
  0
VERTEX
  8
LC_OH_2021_05_O7
  10
298781.501
  20
4487870.500
  0
VERTEX
  8
LC_OH_2021_05_O7
  10
298815.501
  20
4486122.000
  0
SEQEND
  8
LC_OH_2021_05_O7
  0
INSERT
  8
FeatureAttribs
  2
FEATURE
  41
1
  42
1
  43
1
  50
0
  10
292079.287
  20
4488488.000
 66
1
  0
ATTRIB
  8
FeatureAttribs
 70
0
  1
PNOA-H_AMS_1956-57_33k_ES_PAN_21mic_H50_0529_fot_66A-18852_E.tif
  2
NAME
  10
292079.287
  20
4488488.000
 40
34.56879
  0
SEQEND
  0
POLYLINE
  8
LC_OH_2021_05_O7
  70
1
  66
1
  0
VERTEX
  8
LC_OH_2021_05_O7
  10
292906.967
  20
4486124.220
  0
VERTEX
  8
LC_OH_2021_05_O7
  10
290636.591
  20
4486187.524
  0
VERTEX
  8
LC_OH_2021_05_O7
  10
290577.501
  20
4486217.000
  0
VERTEX
  8
LC_OH_2021_05_O7
  10
290902.501
  20
4490804.500
  0
VERTEX
  8
LC_OH_2021_05_O7
  10
290903.001
  20
4490807.000
  0
VERTEX
  8
LC_OH_2021_05_O7
  10
290905.501
  20
4490808.000
  0
VERTEX
  8
LC_OH_2021_05_O7
  10
291797.501
  20
4491078.500
  0
VERTEX
  8
LC_OH_2021_05_O7
  10
291949.501
  20
4491045.500
  0
VERTEX
  8
LC_OH_2021_05_O7
  10
291951.501
  20
4491045.000
  0
VERTEX
  8
LC_OH_2021_05_O7
  10
293514.001
  20
4490705.500
  0
VERTEX
  8
LC_OH_2021_05_O7
  10
293322.501
  20
4486180.000
  0
SEQEND
  8
LC_OH_2021_05_O7
  0
INSERT
  8
FeatureAttribs
  2
FEATURE
  41
1
  42
1
  43
1
  50
0
  10
289396.824
  20
4488614.750
 66
1
  0
ATTRIB
  8
FeatureAttribs
 70
0
  1
PNOA-H_AMS_1956-57_33k_ES_PAN_21mic_H50_0529_fot_66A-18853_E.tif
  2
NAME
  10
289396.824
  20
4488614.750
 40
34.56879
  0
SEQEND
  0
POLYLINE
  8
LC_OH_2021_05_O7
  70
1
  66
1
  0
VERTEX
  8
LC_OH_2021_05_O7
  10
290357.418
  20
4486195.308
  0
VERTEX
  8
LC_OH_2021_05_O7
  10
289920.261
  20
4486207.497
  0
VERTEX
  8
LC_OH_2021_05_O7
  10
287925.787
  20
4486264.052
  0
VERTEX
  8
LC_OH_2021_05_O7
  10
288165.501
  20
4490947.500
  0
VERTEX
  8
LC_OH_2021_05_O7
  10
288949.501
  20
4491204.500
  0
VERTEX
  8
LC_OH_2021_05_O7
  10
289902.001
  20
4491010.500
  0
VERTEX
  8
LC_OH_2021_05_O7
  10
289903.501
  20
4491010.500
  0
VERTEX
  8
LC_OH_2021_05_O7
  10
290903.001
  20
4490807.000
  0
VERTEX
  8
LC_OH_2021_05_O7
  10
290577.501
  20
4486217.000
  0
SEQEND
  8
LC_OH_2021_05_O7
  0
INSERT
  8
FeatureAttribs
  2
FEATURE
  41
1
  42
1
  43
1
  50
0
  10
294753.138
  20
4488392.998
 66
1
  0
ATTRIB
  8
FeatureAttribs
 70
0
  1
PNOA-H_AMS_1956-57_33k_ES_PAN_21mic_H50_0529_fot_66A-18851_E.tif
  2
NAME
  10
294753.138
  20
4488392.998
 40
34.56879
  0
SEQEND
  0
POLYLINE
  8
LC_OH_2021_05_O7
  70
1
  66
1
  0
VERTEX
  8
LC_OH_2021_05_O7
  10
295571.892
  20
4486050.919
  0
VERTEX
  8
LC_OH_2021_05_O7
  10
293466.105
  20
4486108.637
  0
VERTEX
  8
LC_OH_2021_05_O7
  10
293322.001
  20
4486179.500
  0
VERTEX
  8
LC_OH_2021_05_O7
  10
293514.001
  20
4490705.500
  0
VERTEX
  8
LC_OH_2021_05_O7
  10
293997.001
  20
4490843.000
  0
VERTEX
  8
LC_OH_2021_05_O7
  10
293998.501
  20
4490843.500
  0
VERTEX
  8
LC_OH_2021_05_O7
  10
294423.001
  20
4490964.000
  0
VERTEX
  8
LC_OH_2021_05_O7
  10
296091.501
  20
4490558.000
  0
VERTEX
  8
LC_OH_2021_05_O7
  10
296089.501
  20
4486747.000
  0
VERTEX
  8
LC_OH_2021_05_O7
  10
296089.001
  20
4486129.000
  0
VERTEX
  8
LC_OH_2021_05_O7
  10
296088.001
  20
4486128.500
  0
SEQEND
  8
LC_OH_2021_05_O7
  0
INSERT
  8
FeatureAttribs
  2
FEATURE
  41
1
  42
1
  43
1
  50
0
  10
314718.385
  20
4488810.685
 66
1
  0
ATTRIB
  8
FeatureAttribs
 70
0
  1
PNOA-H_AMS_1956-57_33k_ES_PAN_21mic_H50_0530_fot_66A-18843_E.tif
  2
NAME
  10
314718.385
  20
4488810.685
 40
34.56879
  0
SEQEND
  0
POLYLINE
  8
LC_OH_2021_05_O7
  70
1
  66
1
  0
VERTEX
  8
LC_OH_2021_05_O7
  10
314744.682
  20
4489870.078
  0
VERTEX
  8
LC_OH_2021_05_O7
  10
314694.938
  20
4487866.167
  0
VERTEX
  8
LC_OH_2021_05_O7
  10
314692.088
  20
4487751.292
  0
VERTEX
  8
LC_OH_2021_05_O7
  10
314710.002
  20
4489857.500
  0
SEQEND
  8
LC_OH_2021_05_O7
  0
INSERT
  8
FeatureAttribs
  2
FEATURE
  41
1
  42
1
  43
1
  50
0
  10
305396.267
  20
4488042.998
 66
1
  0
ATTRIB
  8
FeatureAttribs
 70
0
  1
PNOA-H_AMS_1956-57_33k_ES_PAN_21mic_H50_0529_fot_66A-18847_E.tif
  2
NAME
  10
305396.267
  20
4488042.998
 40
34.56879
  0
SEQEND
  0
POLYLINE
  8
LC_OH_2021_05_O7
  70
1
  66
1
  0
VERTEX
  8
LC_OH_2021_05_O7
  10
305840.054
  20
4485777.036
  0
VERTEX
  8
LC_OH_2021_05_O7
  10
304587.419
  20
4485809.592
  0
VERTEX
  8
LC_OH_2021_05_O7
  10
303946.501
  20
4486054.500
  0
VERTEX
  8
LC_OH_2021_05_O7
  10
304095.501
  20
4490150.500
  0
VERTEX
  8
LC_OH_2021_05_O7
  10
304236.501
  20
4490188.000
  0
VERTEX
  8
LC_OH_2021_05_O7
  10
304238.001
  20
4490188.500
  0
VERTEX
  8
LC_OH_2021_05_O7
  10
305287.501
  20
4490467.500
  0
VERTEX
  8
LC_OH_2021_05_O7
  10
306746.002
  20
4489959.000
  0
VERTEX
  8
LC_OH_2021_05_O7
  10
306803.502
  20
4485980.000
  0
SEQEND
  8
LC_OH_2021_05_O7
  0
INSERT
  8
FeatureAttribs
  2
FEATURE
  41
1
  42
1
  43
1
  50
0
  10
291113.495
  20
4504278.869
 66
1
  0
ATTRIB
  8
FeatureAttribs
 70
0
  1
PNOA-H_AMS_1956-57_33k_ES_PAN_21mic_H50_0504_fot_62C-05349_E.tif
  2
NAME
  10
291113.495
  20
4504278.869
 40
34.56879
  0
SEQEND
  0
POLYLINE
  8
LC_OH_2021_05_O7
  70
1
  66
1
  0
VERTEX
  8
LC_OH_2021_05_O7
  10
291564.269
  20
4504679.015
  0
VERTEX
  8
LC_OH_2021_05_O7
  10
291457.501
  20
4504070.500
  0
VERTEX
  8
LC_OH_2021_05_O7
  10
290914.001
  20
4503853.500
  0
VERTEX
  8
LC_OH_2021_05_O7
  10
290845.001
  20
4503877.000
  0
VERTEX
  8
LC_OH_2021_05_O7
  10
290844.001
  20
4503879.500
  0
VERTEX
  8
LC_OH_2021_05_O7
  10
290662.721
  20
4504704.238
  0
SEQEND
  8
LC_OH_2021_05_O7
  0
INSERT
  8
FeatureAttribs
  2
FEATURE
  41
1
  42
1
  43
1
  50
0
  10
288260.105
  20
4504333.421
 66
1
  0
ATTRIB
  8
FeatureAttribs
 70
0
  1
PNOA-H_AMS_1956-57_33k_ES_PAN_21mic_H50_0504_fot_62C-05348_E.tif
  2
NAME
  10
288260.105
  20
4504333.421
 40
34.56879
  0
SEQEND
  0
POLYLINE
  8
LC_OH_2021_05_O7
  70
1
  66
1
  0
VERTEX
  8
LC_OH_2021_05_O7
  10
288869.907
  20
4504755.142
  0
VERTEX
  8
LC_OH_2021_05_O7
  10
288818.501
  20
4504163.500
  0
VERTEX
  8
LC_OH_2021_05_O7
  10
288132.001
  20
4503877.000
  0
VERTEX
  8
LC_OH_2021_05_O7
  10
287701.501
  20
4504019.000
  0
VERTEX
  8
LC_OH_2021_05_O7
  10
287691.001
  20
4504022.500
  0
VERTEX
  8
LC_OH_2021_05_O7
  10
287690.501
  20
4504024.000
  0
VERTEX
  8
LC_OH_2021_05_O7
  10
287650.303
  20
4504789.842
  0
SEQEND
  8
LC_OH_2021_05_O7
  0
INSERT
  8
FeatureAttribs
  2
FEATURE
  41
1
  42
1
  43
1
  50
0
  10
293949.239
  20
4504226.903
 66
1
  0
ATTRIB
  8
FeatureAttribs
 70
0
  1
PNOA-H_AMS_1956-57_33k_ES_PAN_21mic_H50_0504_fot_62C-05350_E.tif
  2
NAME
  10
293949.239
  20
4504226.903
 40
34.56879
  0
SEQEND
  0
POLYLINE
  8
LC_OH_2021_05_O7
  70
1
  66
1
  0
VERTEX
  8
LC_OH_2021_05_O7
  10
294307.218
  20
4504602.438
  0
VERTEX
  8
LC_OH_2021_05_O7
  10
294115.001
  20
4503940.500
  0
VERTEX
  8
LC_OH_2021_05_O7
  10
293821.501
  20
4503832.500
  0
VERTEX
  8
LC_OH_2021_05_O7
  10
293818.501
  20
4503831.500
  0
VERTEX
  8
LC_OH_2021_05_O7
  10
293816.501
  20
4503832.500
  0
VERTEX
  8
LC_OH_2021_05_O7
  10
293591.260
  20
4504622.305
  0
VERTEX
  8
LC_OH_2021_05_O7
  10
293963.751
  20
4504611.884
  0
SEQEND
  8
LC_OH_2021_05_O7
  0
INSERT
  8
FeatureAttribs
  2
FEATURE
  41
1
  42
1
  43
1
  50
0
  10
299627.689
  20
4504268.039
 66
1
  0
ATTRIB
  8
FeatureAttribs
 70
0
  1
PNOA-H_AMS_1956-57_33k_ES_PAN_21mic_H50_0504_fot_62C-05352_E.tif
  2
NAME
  10
299627.689
  20
4504268.039
 40
34.56879
  0
SEQEND
  0
POLYLINE
  8
LC_OH_2021_05_O7
  70
1
  66
1
  0
VERTEX
  8
LC_OH_2021_05_O7
  10
299810.845
  20
4504452.178
  0
VERTEX
  8
LC_OH_2021_05_O7
  10
299630.001
  20
4504095.500
  0
VERTEX
  8
LC_OH_2021_05_O7
  10
299619.001
  20
4504074.000
  0
VERTEX
  8
LC_OH_2021_05_O7
  10
299618.001
  20
4504074.000
  0
VERTEX
  8
LC_OH_2021_05_O7
  10
299444.533
  20
4504462.078
  0
SEQEND
  8
LC_OH_2021_05_O7
  0
INSERT
  8
FeatureAttribs
  2
FEATURE
  41
1
  42
1
  43
1
  50
0
  10
296775.362
  20
4504194.259
 66
1
  0
ATTRIB
  8
FeatureAttribs
 70
0
  1
PNOA-H_AMS_1956-57_33k_ES_PAN_21mic_H50_0504_fot_62C-05351_E.tif
  2
NAME
  10
296775.362
  20
4504194.259
 40
34.56879
  0
SEQEND
  0
POLYLINE
  8
LC_OH_2021_05_O7
  70
1
  66
1
  0
VERTEX
  8
LC_OH_2021_05_O7
  10
297046.657
  20
4504527.096
  0
VERTEX
  8
LC_OH_2021_05_O7
  10
296775.501
  20
4503849.500
  0
VERTEX
  8
LC_OH_2021_05_O7
  10
296766.501
  20
4503846.500
  0
VERTEX
  8
LC_OH_2021_05_O7
  10
296504.067
  20
4504542.019
  0
SEQEND
  8
LC_OH_2021_05_O7
  0
INSERT
  8
FeatureAttribs
  2
FEATURE
  41
1
  42
1
  43
1
  50
0
  10
302439.457
  20
4504254.276
 66
1
  0
ATTRIB
  8
FeatureAttribs
 70
0
  1
PNOA-H_AMS_1956-57_33k_ES_PAN_21mic_H50_0504_fot_62C-05353_E.tif
  2
NAME
  10
302439.457
  20
4504254.276
 40
34.56879
  0
SEQEND
  0
POLYLINE
  8
LC_OH_2021_05_O7
  70
1
  66
1
  0
VERTEX
  8
LC_OH_2021_05_O7
  10
302580.309
  20
4504378.071
  0
VERTEX
  8
LC_OH_2021_05_O7
  10
302502.501
  20
4504255.000
  0
VERTEX
  8
LC_OH_2021_05_O7
  10
302501.501
  20
4504254.500
  0
VERTEX
  8
LC_OH_2021_05_O7
  10
302424.501
  20
4504131.500
  0
VERTEX
  8
LC_OH_2021_05_O7
  10
302419.001
  20
4504123.000
  0
VERTEX
  8
LC_OH_2021_05_O7
  10
302418.001
  20
4504123.000
  0
VERTEX
  8
LC_OH_2021_05_O7
  10
302298.606
  20
4504385.552
  0
SEQEND
  8
LC_OH_2021_05_O7
  0
INSERT
  8
FeatureAttribs
  2
FEATURE
  41
1
  42
1
  43
1
  50
0
  10
313977.165
  20
4503982.131
 66
1
  0
ATTRIB
  8
FeatureAttribs
 70
0
  1
PNOA-H_AMS_1956-57_33k_ES_PAN_21mic_H50_0504_fot_62C-05357_E.tif
  2
NAME
  10
313977.165
  20
4503982.131
 40
34.56879
  0
SEQEND
  0
POLYLINE
  8
LC_OH_2021_05_O7
  70
1
  66
1
  0
VERTEX
  8
LC_OH_2021_05_O7
  10
315092.265
  20
4503852.251
  0
VERTEX
  8
LC_OH_2021_05_O7
  10
312919.502
  20
4503897.500
  0
VERTEX
  8
LC_OH_2021_05_O7
  10
312906.002
  20
4503898.000
  0
VERTEX
  8
LC_OH_2021_05_O7
  10
312857.002
  20
4503937.500
  0
VERTEX
  8
LC_OH_2021_05_O7
  10
312857.923
  20
4504112.011
  0
VERTEX
  8
LC_OH_2021_05_O7
  10
315097.329
  20
4504055.737
  0
SEQEND
  8
LC_OH_2021_05_O7
  0
INSERT
  8
FeatureAttribs
  2
FEATURE
  41
1
  42
1
  43
1
  50
0
  10
305287.142
  20
4504244.337
 66
1
  0
ATTRIB
  8
FeatureAttribs
 70
0
  1
PNOA-H_AMS_1956-57_33k_ES_PAN_21mic_H50_0504_fot_62C-05354_E.tif
  2
NAME
  10
305287.142
  20
4504244.337
 40
34.56879
  0
SEQEND
  0
POLYLINE
  8
LC_OH_2021_05_O7
  70
1
  66
1
  0
VERTEX
  8
LC_OH_2021_05_O7
  10
305368.372
  20
4504304.437
  0
VERTEX
  8
LC_OH_2021_05_O7
  10
305271.501
  20
4504180.000
  0
VERTEX
  8
LC_OH_2021_05_O7
  10
305270.501
  20
4504180.000
  0
VERTEX
  8
LC_OH_2021_05_O7
  10
305207.001
  20
4504306.500
  0
VERTEX
  8
LC_OH_2021_05_O7
  10
305205.912
  20
4504308.674
  0
SEQEND
  8
LC_OH_2021_05_O7
  0
INSERT
  8
FeatureAttribs
  2
FEATURE
  41
1
  42
1
  43
1
  50
0
  10
309014.503
  20
4504070.812
 66
1
  0
ATTRIB
  8
FeatureAttribs
 70
0
  1
PNOA-H_AMS_1956-57_33k_ES_PAN_21mic_H50_0504_fot_62C-05355_E.tif
  2
NAME
  10
309014.503
  20
4504070.812
 40
34.56879
  0
SEQEND
  0
POLYLINE
  8
LC_OH_2021_05_O7
  70
1
  66
1
  0
VERTEX
  8
LC_OH_2021_05_O7
  10
309886.057
  20
4504187.493
  0
VERTEX
  8
LC_OH_2021_05_O7
  10
309884.502
  20
4504094.500
  0
VERTEX
  8
LC_OH_2021_05_O7
  10
308327.502
  20
4503909.500
  0
VERTEX
  8
LC_OH_2021_05_O7
  10
308323.502
  20
4503909.500
  0
VERTEX
  8
LC_OH_2021_05_O7
  10
308321.002
  20
4503913.500
  0
VERTEX
  8
LC_OH_2021_05_O7
  10
308142.949
  20
4504232.124
  0
SEQEND
  8
LC_OH_2021_05_O7
  0
INSERT
  8
FeatureAttribs
  2
FEATURE
  41
1
  42
1
  43
1
  50
0
  10
311371.212
  20
4504024.497
 66
1
  0
ATTRIB
  8
FeatureAttribs
 70
0
  1
PNOA-H_AMS_1956-57_33k_ES_PAN_21mic_H50_0504_fot_62C-05356_E.tif
  2
NAME
  10
311371.212
  20
4504024.497
 40
34.56879
  0
SEQEND
  0
POLYLINE
  8
LC_OH_2021_05_O7
  70
1
  66
1
  0
VERTEX
  8
LC_OH_2021_05_O7
  10
312857.923
  20
4504112.011
  0
VERTEX
  8
LC_OH_2021_05_O7
  10
312857.002
  20
4503937.500
  0
VERTEX
  8
LC_OH_2021_05_O7
  10
310199.002
  20
4503861.500
  0
VERTEX
  8
LC_OH_2021_05_O7
  10
309884.502
  20
4504094.000
  0
VERTEX
  8
LC_OH_2021_05_O7
  10
309886.060
  20
4504187.493
  0
VERTEX
  8
LC_OH_2021_05_O7
  10
311575.105
  20
4504144.247
  0
SEQEND
  8
LC_OH_2021_05_O7
  0
INSERT
  8
FeatureAttribs
  2
FEATURE
  41
1
  42
1
  43
1
  50
0
  10
290497.069
  20
4486202.254
 66
1
  0
ATTRIB
  8
FeatureAttribs
 70
0
  1
PNOA-H_AMS_1956-57_33k_ES_PAN_21mic_H50_0554_fot_67B-18342_E.tif
  2
NAME
  10
290497.069
  20
4486202.254
 40
34.56879
  0
SEQEND
  0
POLYLINE
  8
LC_OH_2021_05_O7
  70
1
  66
1
  0
VERTEX
  8
LC_OH_2021_05_O7
  10
290637.170
  20
4486187.508
  0
VERTEX
  8
LC_OH_2021_05_O7
  10
290356.968
  20
4486195.320
  0
VERTEX
  8
LC_OH_2021_05_O7
  10
290578.001
  20
4486217.000
  0
SEQEND
  8
LC_OH_2021_05_O7
  0
INSERT
  8
FeatureAttribs
  2
FEATURE
  41
1
  42
1
  43
1
  50
0
  10
295934.094
  20
4486080.013
 66
1
  0
ATTRIB
  8
FeatureAttribs
 70
0
  1
PNOA-H_AMS_1956-57_33k_ES_PAN_21mic_H50_0554_fot_67B-18344_E.tif
  2
NAME
  10
295934.094
  20
4486080.013
 40
34.56879
  0
SEQEND
  0
POLYLINE
  8
LC_OH_2021_05_O7
  70
1
  66
1
  0
VERTEX
  8
LC_OH_2021_05_O7
  10
296297.656
  20
4486031.026
  0
VERTEX
  8
LC_OH_2021_05_O7
  10
295570.532
  20
4486050.956
  0
VERTEX
  8
LC_OH_2021_05_O7
  10
296089.001
  20
4486129.000
  0
SEQEND
  8
LC_OH_2021_05_O7
  0
INSERT
  8
FeatureAttribs
  2
FEATURE
  41
1
  42
1
  43
1
  50
0
  10
298625.688
  20
4486037.150
 66
1
  0
ATTRIB
  8
FeatureAttribs
 70
0
  1
PNOA-H_AMS_1956-57_33k_ES_PAN_21mic_H50_0554_fot_67B-18345_E.tif
  2
NAME
  10
298625.688
  20
4486037.150
 40
34.56879
  0
SEQEND
  0
POLYLINE
  8
LC_OH_2021_05_O7
  70
1
  66
1
  0
VERTEX
  8
LC_OH_2021_05_O7
  10
299208.344
  20
4485952.299
  0
VERTEX
  8
LC_OH_2021_05_O7
  10
298043.031
  20
4485983.689
  0
VERTEX
  8
LC_OH_2021_05_O7
  10
298810.501
  20
4486121.500
  0
VERTEX
  8
LC_OH_2021_05_O7
  10
298813.001
  20
4486122.000
  0
VERTEX
  8
LC_OH_2021_05_O7
  10
298816.501
  20
4486122.000
  0
VERTEX
  8
LC_OH_2021_05_O7
  10
298823.501
  20
4486119.000
  0
SEQEND
  8
LC_OH_2021_05_O7
  0
INSERT
  8
FeatureAttribs
  2
FEATURE
  41
1
  42
1
  43
1
  50
0
  10
303789.920
  20
4485932.036
 66
1
  0
ATTRIB
  8
FeatureAttribs
 70
0
  1
PNOA-H_AMS_1956-57_33k_ES_PAN_21mic_H50_0554_fot_67B-18347_E.tif
  2
NAME
  10
303789.920
  20
4485932.036
 40
34.56879
  0
SEQEND
  0
POLYLINE
  8
LC_OH_2021_05_O7
  70
1
  66
1
  0
VERTEX
  8
LC_OH_2021_05_O7
  10
304588.190
  20
4485809.572
  0
VERTEX
  8
LC_OH_2021_05_O7
  10
304044.526
  20
4485823.702
  0
VERTEX
  8
LC_OH_2021_05_O7
  10
302991.649
  20
4485851.564
  0
VERTEX
  8
LC_OH_2021_05_O7
  10
303942.501
  20
4486054.000
  0
VERTEX
  8
LC_OH_2021_05_O7
  10
303944.501
  20
4486054.500
  0
VERTEX
  8
LC_OH_2021_05_O7
  10
303947.501
  20
4486054.500
  0
SEQEND
  8
LC_OH_2021_05_O7
  0
INSERT
  8
FeatureAttribs
  2
FEATURE
  41
1
  42
1
  43
1
  50
0
  10
293188.354
  20
4486144.055
 66
1
  0
ATTRIB
  8
FeatureAttribs
 70
0
  1
PNOA-H_AMS_1956-57_33k_ES_PAN_21mic_H50_0554_fot_67B-18343_E.tif
  2
NAME
  10
293188.354
  20
4486144.055
 40
34.56879
  0
SEQEND
  0
POLYLINE
  8
LC_OH_2021_05_O7
  70
1
  66
1
  0
VERTEX
  8
LC_OH_2021_05_O7
  10
293467.059
  20
4486108.611
  0
VERTEX
  8
LC_OH_2021_05_O7
  10
293451.353
  20
4486109.041
  0
VERTEX
  8
LC_OH_2021_05_O7
  10
292909.648
  20
4486124.146
  0
VERTEX
  8
LC_OH_2021_05_O7
  10
293323.001
  20
4486179.500
  0
SEQEND
  8
LC_OH_2021_05_O7
  0
INSERT
  8
FeatureAttribs
  2
FEATURE
  41
1
  42
1
  43
1
  50
0
  10
306642.059
  20
4485857.655
 66
1
  0
ATTRIB
  8
FeatureAttribs
 70
0
  1
PNOA-H_AMS_1956-57_33k_ES_PAN_21mic_H50_0554_fot_67B-18348_E.tif
  2
NAME
  10
306642.059
  20
4485857.655
 40
34.56879
  0
SEQEND
  0
POLYLINE
  8
LC_OH_2021_05_O7
  70
1
  66
1
  0
VERTEX
  8
LC_OH_2021_05_O7
  10
307445.529
  20
4485735.310
  0
VERTEX
  8
LC_OH_2021_05_O7
  10
305838.589
  20
4485777.074
  0
VERTEX
  8
LC_OH_2021_05_O7
  10
306284.502
  20
4485871.000
  0
VERTEX
  8
LC_OH_2021_05_O7
  10
306287.002
  20
4485871.500
  0
VERTEX
  8
LC_OH_2021_05_O7
  10
306804.002
  20
4485980.000
  0
SEQEND
  8
LC_OH_2021_05_O7
  0
INSERT
  8
FeatureAttribs
  2
FEATURE
  41
1
  42
1
  43
1
  50
0
  10
301194.828
  20
4485978.446
 66
1
  0
ATTRIB
  8
FeatureAttribs
 70
0
  1
PNOA-H_AMS_1956-57_33k_ES_PAN_21mic_H50_0554_fot_67B-18346_E.tif
  2
NAME
  10
301194.828
  20
4485978.446
 40
34.56879
  0
SEQEND
  0
POLYLINE
  8
LC_OH_2021_05_O7
  70
1
  66
1
  0
VERTEX
  8
LC_OH_2021_05_O7
  10
301921.174
  20
4485879.892
  0
VERTEX
  8
LC_OH_2021_05_O7
  10
300513.485
  20
4485917.144
  0
VERTEX
  8
LC_OH_2021_05_O7
  10
300468.483
  20
4485918.356
  0
VERTEX
  8
LC_OH_2021_05_O7
  10
301417.001
  20
4486077.000
  0
SEQEND
  8
LC_OH_2021_05_O7
  0
INSERT
  8
FeatureAttribs
  2
FEATURE
  41
1
  42
1
  43
1
  50
0
  10
308760.520
  20
4485753.476
 66
1
  0
ATTRIB
  8
FeatureAttribs
 70
0
  1
PNOA-H_AMS_1956-57_33k_ES_PAN_21mic_H50_0554_fot_67B-18349_E.tif
  2
NAME
  10
308760.520
  20
4485753.476
 40
34.56879
  0
SEQEND
  0
POLYLINE
  8
LC_OH_2021_05_O7
  70
1
  66
1
  0
VERTEX
  8
LC_OH_2021_05_O7
  10
309083.475
  20
4485693.453
  0
VERTEX
  8
LC_OH_2021_05_O7
  10
308437.564
  20
4485709.934
  0
VERTEX
  8
LC_OH_2021_05_O7
  10
308967.502
  20
4485813.500
  0
SEQEND
  8
LC_OH_2021_05_O7
  0
INSERT
  8
FeatureAttribs
  2
FEATURE
  41
1
  42
1
  43
1
  50
0
  10
310587.928
  20
4497201.000
 66
1
  0
ATTRIB
  8
FeatureAttribs
 70
0
  1
PNOA-H_AMS_1956-57_33k_ES_PAN_21mic_H50_0529_fot_64A-30161_W.tif
  2
NAME
  10
310587.928
  20
4497201.000
 40
34.56879
  0
SEQEND
  0
POLYLINE
  8
LC_OH_2021_05_O7
  70
1
  66
1
  0
VERTEX
  8
LC_OH_2021_05_O7
  10
310383.502
  20
4499849.500
  0
VERTEX
  8
LC_OH_2021_05_O7
  10
312105.002
  20
4499538.000
  0
VERTEX
  8
LC_OH_2021_05_O7
  10
311902.002
  20
4494794.000
  0
VERTEX
  8
LC_OH_2021_05_O7
  10
310779.002
  20
4494506.500
  0
VERTEX
  8
LC_OH_2021_05_O7
  10
309060.002
  20
4494906.500
  0
VERTEX
  8
LC_OH_2021_05_O7
  10
309286.002
  20
4499584.000
  0
VERTEX
  8
LC_OH_2021_05_O7
  10
310131.002
  20
4499895.500
  0
VERTEX
  8
LC_OH_2021_05_O7
  10
310381.002
  20
4499850.000
  0
VERTEX
  8
LC_OH_2021_05_O7
  10
310383.502
  20
4499849.500
  0
SEQEND
  8
LC_OH_2021_05_O7
  0
INSERT
  8
FeatureAttribs
  2
FEATURE
  41
1
  42
1
  43
1
  50
0
  10
301895.286
  20
4497528.499
 66
1
  0
ATTRIB
  8
FeatureAttribs
 70
0
  1
PNOA-H_AMS_1956-57_33k_ES_PAN_21mic_H50_0529_fot_64A-30164_W.tif
  2
NAME
  10
301895.286
  20
4497528.499
 40
34.56879
  0
SEQEND
  0
POLYLINE
  8
LC_OH_2021_05_O7
  70
1
  66
1
  0
VERTEX
  8
LC_OH_2021_05_O7
  10
302191.501
  20
4499966.000
  0
VERTEX
  8
LC_OH_2021_05_O7
  10
303361.001
  20
4499553.500
  0
VERTEX
  8
LC_OH_2021_05_O7
  10
303310.501
  20
4495168.000
  0
VERTEX
  8
LC_OH_2021_05_O7
  10
303088.501
  20
4495064.000
  0
VERTEX
  8
LC_OH_2021_05_O7
  10
300486.001
  20
4495209.000
  0
VERTEX
  8
LC_OH_2021_05_O7
  10
300423.501
  20
4499587.000
  0
VERTEX
  8
LC_OH_2021_05_O7
  10
302113.001
  20
4499993.000
  0
VERTEX
  8
LC_OH_2021_05_O7
  10
302115.501
  20
4499993.000
  0
VERTEX
  8
LC_OH_2021_05_O7
  10
302190.501
  20
4499966.000
  0
VERTEX
  8
LC_OH_2021_05_O7
  10
302191.501
  20
4499966.000
  0
SEQEND
  8
LC_OH_2021_05_O7
  0
INSERT
  8
FeatureAttribs
  2
FEATURE
  41
1
  42
1
  43
1
  50
0
  10
304799.526
  20
4497430.750
 66
1
  0
ATTRIB
  8
FeatureAttribs
 70
0
  1
PNOA-H_AMS_1956-57_33k_ES_PAN_21mic_H50_0529_fot_64A-30163_W.tif
  2
NAME
  10
304799.526
  20
4497430.750
 40
34.56879
  0
SEQEND
  0
POLYLINE
  8
LC_OH_2021_05_O7
  70
1
  66
1
  0
VERTEX
  8
LC_OH_2021_05_O7
  10
306287.501
  20
4499585.000
  0
VERTEX
  8
LC_OH_2021_05_O7
  10
306288.001
  20
4499543.000
  0
VERTEX
  8
LC_OH_2021_05_O7
  10
306233.501
  20
4495032.500
  0
VERTEX
  8
LC_OH_2021_05_O7
  10
305809.001
  20
4494867.500
  0
VERTEX
  8
LC_OH_2021_05_O7
  10
303310.501
  20
4495168.500
  0
VERTEX
  8
LC_OH_2021_05_O7
  10
303361.001
  20
4499553.500
  0
VERTEX
  8
LC_OH_2021_05_O7
  10
304889.501
  20
4499994.000
  0
VERTEX
  8
LC_OH_2021_05_O7
  10
306286.501
  20
4499585.000
  0
VERTEX
  8
LC_OH_2021_05_O7
  10
306287.501
  20
4499585.000
  0
SEQEND
  8
LC_OH_2021_05_O7
  0
INSERT
  8
FeatureAttribs
  2
FEATURE
  41
1
  42
1
  43
1
  50
0
  10
313373.444
  20
4497128.000
 66
1
  0
ATTRIB
  8
FeatureAttribs
 70
0
  1
PNOA-H_AMS_1956-57_33k_ES_PAN_21mic_H50_0529_fot_64A-30160_W.tif
  2
NAME
  10
313373.444
  20
4497128.000
 40
34.56879
  0
SEQEND
  0
POLYLINE
  8
LC_OH_2021_05_O7
  70
1
  66
1
  0
VERTEX
  8
LC_OH_2021_05_O7
  10
312105.002
  20
4499538.000
  0
VERTEX
  8
LC_OH_2021_05_O7
  10
312429.502
  20
4499661.500
  0
VERTEX
  8
LC_OH_2021_05_O7
  10
312430.502
  20
4499662.000
  0
VERTEX
  8
LC_OH_2021_05_O7
  10
312840.502
  20
4499818.000
  0
VERTEX
  8
LC_OH_2021_05_O7
  10
312847.002
  20
4499819.000
  0
VERTEX
  8
LC_OH_2021_05_O7
  10
314839.002
  20
4499465.500
  0
VERTEX
  8
LC_OH_2021_05_O7
  10
314649.002
  20
4494739.000
  0
VERTEX
  8
LC_OH_2021_05_O7
  10
313263.502
  20
4494439.500
  0
VERTEX
  8
LC_OH_2021_05_O7
  10
313248.002
  20
4494437.000
  0
VERTEX
  8
LC_OH_2021_05_O7
  10
311902.002
  20
4494794.500
  0
SEQEND
  8
LC_OH_2021_05_O7
  0
INSERT
  8
FeatureAttribs
  2
FEATURE
  41
1
  42
1
  43
1
  50
0
  10
296116.135
  20
4497694.750
 66
1
  0
ATTRIB
  8
FeatureAttribs
 70
0
  1
PNOA-H_AMS_1956-57_33k_ES_PAN_21mic_H50_0529_fot_64A-30166_W.tif
  2
NAME
  10
296116.135
  20
4497694.750
 40
34.56879
  0
SEQEND
  0
POLYLINE
  8
LC_OH_2021_05_O7
  70
1
  66
1
  0
VERTEX
  8
LC_OH_2021_05_O7
  10
296528.001
  20
4500014.500
  0
VERTEX
  8
LC_OH_2021_05_O7
  10
296532.001
  20
4500014.500
  0
VERTEX
  8
LC_OH_2021_05_O7
  10
297561.001
  20
4499603.500
  0
VERTEX
  8
LC_OH_2021_05_O7
  10
297564.001
  20
4495375.000
  0
VERTEX
  8
LC_OH_2021_05_O7
  10
294779.501
  20
4495427.500
  0
VERTEX
  8
LC_OH_2021_05_O7
  10
294770.501
  20
4495428.000
  0
VERTEX
  8
LC_OH_2021_05_O7
  10
294697.001
  20
4495482.000
  0
VERTEX
  8
LC_OH_2021_05_O7
  10
294646.001
  20
4499644.500
  0
VERTEX
  8
LC_OH_2021_05_O7
  10
296525.501
  20
4500014.000
  0
VERTEX
  8
LC_OH_2021_05_O7
  10
296528.001
  20
4500014.500
  0
SEQEND
  8
LC_OH_2021_05_O7
  0
INSERT
  8
FeatureAttribs
  2
FEATURE
  41
1
  42
1
  43
1
  50
0
  10
307719.341
  20
4497335.001
 66
1
  0
ATTRIB
  8
FeatureAttribs
 70
0
  1
PNOA-H_AMS_1956-57_33k_ES_PAN_21mic_H50_0529_fot_64A-30162_W.tif
  2
NAME
  10
307719.341
  20
4497335.001
 40
34.56879
  0
SEQEND
  0
POLYLINE
  8
LC_OH_2021_05_O7
  70
1
  66
1
  0
VERTEX
  8
LC_OH_2021_05_O7
  10
306287.001
  20
4499501.000
  0
VERTEX
  8
LC_OH_2021_05_O7
  10
306288.501
  20
4499585.000
  0
VERTEX
  8
LC_OH_2021_05_O7
  10
307522.502
  20
4499996.500
  0
VERTEX
  8
LC_OH_2021_05_O7
  10
309286.002
  20
4499584.000
  0
VERTEX
  8
LC_OH_2021_05_O7
  10
309060.002
  20
4494906.500
  0
VERTEX
  8
LC_OH_2021_05_O7
  10
308311.002
  20
4494673.500
  0
VERTEX
  8
LC_OH_2021_05_O7
  10
306233.501
  20
4495032.500
  0
VERTEX
  8
LC_OH_2021_05_O7
  10
306287.001
  20
4499459.500
  0
VERTEX
  8
LC_OH_2021_05_O7
  10
306287.001
  20
4499501.000
  0
SEQEND
  8
LC_OH_2021_05_O7
  0
INSERT
  8
FeatureAttribs
  2
FEATURE
  41
1
  42
1
  43
1
  50
0
  10
290103.351
  20
4497703.249
 66
1
  0
ATTRIB
  8
FeatureAttribs
 70
0
  1
PNOA-H_AMS_1956-57_33k_ES_PAN_21mic_H50_0529_fot_64A-30168_W.tif
  2
NAME
  10
290103.351
  20
4497703.249
 40
34.56879
  0
SEQEND
  0
POLYLINE
  8
LC_OH_2021_05_O7
  70
1
  66
1
  0
VERTEX
  8
LC_OH_2021_05_O7
  10
290877.001
  20
4499991.000
  0
VERTEX
  8
LC_OH_2021_05_O7
  10
290880.501
  20
4499991.000
  0
VERTEX
  8
LC_OH_2021_05_O7
  10
290889.501
  20
4499987.000
  0
VERTEX
  8
LC_OH_2021_05_O7
  10
291680.501
  20
4499623.000
  0
VERTEX
  8
LC_OH_2021_05_O7
  10
291672.001
  20
4495638.500
  0
VERTEX
  8
LC_OH_2021_05_O7
  10
291668.501
  20
4495638.000
  0
VERTEX
  8
LC_OH_2021_05_O7
  10
289133.501
  20
4495415.500
  0
VERTEX
  8
LC_OH_2021_05_O7
  10
288558.001
  20
4495789.000
  0
VERTEX
  8
LC_OH_2021_05_O7
  10
288501.501
  20
4499691.000
  0
VERTEX
  8
LC_OH_2021_05_O7
  10
290873.001
  20
4499990.500
  0
VERTEX
  8
LC_OH_2021_05_O7
  10
290877.001
  20
4499991.000
  0
SEQEND
  8
LC_OH_2021_05_O7
  0
INSERT
  8
FeatureAttribs
  2
FEATURE
  41
1
  42
1
  43
1
  50
0
  10
286971.758
  20
4497634.999
 66
1
  0
ATTRIB
  8
FeatureAttribs
 70
0
  1
PNOA-H_AMS_1956-57_33k_ES_PAN_21mic_H50_0529_fot_64A-30169_W.tif
  2
NAME
  10
286971.758
  20
4497634.999
 40
34.56879
  0
SEQEND
  0
POLYLINE
  8
LC_OH_2021_05_O7
  70
1
  66
1
  0
VERTEX
  8
LC_OH_2021_05_O7
  10
286776.794
  20
4499848.278
  0
VERTEX
  8
LC_OH_2021_05_O7
  10
288077.501
  20
4499912.500
  0
VERTEX
  8
LC_OH_2021_05_O7
  10
288501.501
  20
4499691.000
  0
VERTEX
  8
LC_OH_2021_05_O7
  10
288558.001
  20
4495789.000
  0
VERTEX
  8
LC_OH_2021_05_O7
  10
286650.087
  20
4495426.008
  0
VERTEX
  8
LC_OH_2021_05_O7
  10
286653.897
  20
4495559.081
  0
VERTEX
  8
LC_OH_2021_05_O7
  10
286720.154
  20
4497871.963
  0
SEQEND
  8
LC_OH_2021_05_O7
  0
INSERT
  8
FeatureAttribs
  2
FEATURE
  41
1
  42
1
  43
1
  50
0
  10
293172.859
  20
4497752.999
 66
1
  0
ATTRIB
  8
FeatureAttribs
 70
0
  1
PNOA-H_AMS_1956-57_33k_ES_PAN_21mic_H50_0529_fot_64A-30167_W.tif
  2
NAME
  10
293172.859
  20
4497752.999
 40
34.56879
  0
SEQEND
  0
POLYLINE
  8
LC_OH_2021_05_O7
  70
1
  66
1
  0
VERTEX
  8
LC_OH_2021_05_O7
  10
291950.501
  20
4499676.500
  0
VERTEX
  8
LC_OH_2021_05_O7
  10
293707.501
  20
4500023.500
  0
VERTEX
  8
LC_OH_2021_05_O7
  10
294646.001
  20
4499644.000
  0
VERTEX
  8
LC_OH_2021_05_O7
  10
294697.001
  20
4495482.500
  0
VERTEX
  8
LC_OH_2021_05_O7
  10
291851.501
  20
4495508.000
  0
VERTEX
  8
LC_OH_2021_05_O7
  10
291672.001
  20
4495638.000
  0
VERTEX
  8
LC_OH_2021_05_O7
  10
291680.501
  20
4499623.000
  0
VERTEX
  8
LC_OH_2021_05_O7
  10
291948.001
  20
4499676.000
  0
VERTEX
  8
LC_OH_2021_05_O7
  10
291950.501
  20
4499676.500
  0
SEQEND
  8
LC_OH_2021_05_O7
  0
INSERT
  8
FeatureAttribs
  2
FEATURE
  41
1
  42
1
  43
1
  50
0
  10
299007.277
  20
4497582.750
 66
1
  0
ATTRIB
  8
FeatureAttribs
 70
0
  1
PNOA-H_AMS_1956-57_33k_ES_PAN_21mic_H50_0529_fot_64A-30165_W.tif
  2
NAME
  10
299007.277
  20
4497582.750
 40
34.56879
  0
SEQEND
  0
POLYLINE
  8
LC_OH_2021_05_O7
  70
1
  66
1
  0
VERTEX
  8
LC_OH_2021_05_O7
  10
298095.001
  20
4499725.500
  0
VERTEX
  8
LC_OH_2021_05_O7
  10
299301.501
  20
4500001.000
  0
VERTEX
  8
LC_OH_2021_05_O7
  10
299325.001
  20
4500005.500
  0
VERTEX
  8
LC_OH_2021_05_O7
  10
300423.501
  20
4499587.000
  0
VERTEX
  8
LC_OH_2021_05_O7
  10
300486.001
  20
4495209.000
  0
VERTEX
  8
LC_OH_2021_05_O7
  10
300397.001
  20
4495160.000
  0
VERTEX
  8
LC_OH_2021_05_O7
  10
297664.001
  20
4495302.500
  0
VERTEX
  8
LC_OH_2021_05_O7
  10
297564.001
  20
4495375.000
  0
VERTEX
  8
LC_OH_2021_05_O7
  10
297561.001
  20
4499603.500
  0
VERTEX
  8
LC_OH_2021_05_O7
  10
298093.001
  20
4499725.000
  0
VERTEX
  8
LC_OH_2021_05_O7
  10
298095.001
  20
4499725.500
  0
SEQEND
  8
LC_OH_2021_05_O7
  0
INSERT
  8
FeatureAttribs
  2
FEATURE
  41
1
  42
1
  43
1
  50
0
  10
314816.723
  20
4497095.378
 66
1
  0
ATTRIB
  8
FeatureAttribs
 70
0
  1
PNOA-H_AMS_1956-57_33k_ES_PAN_21mic_H50_0530_fot_64A-30159_W.tif
  2
NAME
  10
314816.723
  20
4497095.378
 40
34.56879
  0
SEQEND
  0
POLYLINE
  8
LC_OH_2021_05_O7
  70
1
  66
1
  0
VERTEX
  8
LC_OH_2021_05_O7
  10
314863.949
  20
4494671.888
  0
VERTEX
  8
LC_OH_2021_05_O7
  10
314649.002
  20
4494739.000
  0
VERTEX
  8
LC_OH_2021_05_O7
  10
314839.002
  20
4499465.000
  0
VERTEX
  8
LC_OH_2021_05_O7
  10
314984.445
  20
4499518.868
  0
VERTEX
  8
LC_OH_2021_05_O7
  10
314982.237
  20
4499430.110
  0
VERTEX
  8
LC_OH_2021_05_O7
  10
314924.728
  20
4497117.307
  0
VERTEX
  8
LC_OH_2021_05_O7
  10
314867.244
  20
4494804.511
  0
SEQEND
  8
LC_OH_2021_05_O7
  0
INSERT
  8
FeatureAttribs
  2
FEATURE
  41
1
  42
1
  43
1
  50
0
  10
313606.174
  20
4486264.635
 66
1
  0
ATTRIB
  8
FeatureAttribs
 70
0
  1
PNOA-H_AMS_1956-57_33k_ES_PAN_21mic_H50_0530_fot_000-51032_R.tif
  2
NAME
  10
313606.174
  20
4486264.635
 40
34.56879
  0
SEQEND
  0
POLYLINE
  8
LC_OH_2021_05_O7
  70
1
  66
1
  0
VERTEX
  8
LC_OH_2021_05_O7
  10
314672.847
  20
4486975.870
  0
VERTEX
  8
LC_OH_2021_05_O7
  10
314637.552
  20
4485553.400
  0
VERTEX
  8
LC_OH_2021_05_O7
  10
312562.040
  20
4485605.379
  0
VERTEX
  8
LC_OH_2021_05_O7
  10
312539.502
  20
4486788.000
  0
VERTEX
  8
LC_OH_2021_05_O7
  10
314471.002
  20
4486958.500
  0
VERTEX
  8
LC_OH_2021_05_O7
  10
314476.502
  20
4486959.000
  0
SEQEND
  8
LC_OH_2021_05_O7
  0
INSERT
  8
FeatureAttribs
  2
FEATURE
  41
1
  42
1
  43
1
  50
0
  10
310825.330
  20
4485686.251
 66
1
  0
ATTRIB
  8
FeatureAttribs
 70
0
  1
PNOA-H_AMS_1956-57_33k_ES_PAN_21mic_H50_0530_fot_000-51031_R.tif
  2
NAME
  10
310825.330
  20
4485686.251
 40
34.56879
  0
SEQEND
  0
POLYLINE
  8
LC_OH_2021_05_O7
  70
1
  66
1
  0
VERTEX
  8
LC_OH_2021_05_O7
  10
312562.227
  20
4485605.374
  0
VERTEX
  8
LC_OH_2021_05_O7
  10
311106.559
  20
4485641.830
  0
VERTEX
  8
LC_OH_2021_05_O7
  10
309082.964
  20
4485693.466
  0
VERTEX
  8
LC_OH_2021_05_O7
  10
308967.002
  20
4485813.500
  0
VERTEX
  8
LC_OH_2021_05_O7
  10
309515.002
  20
4486516.000
  0
VERTEX
  8
LC_OH_2021_05_O7
  10
309526.002
  20
4486530.000
  0
VERTEX
  8
LC_OH_2021_05_O7
  10
309528.002
  20
4486531.000
  0
VERTEX
  8
LC_OH_2021_05_O7
  10
312162.002
  20
4487092.000
  0
VERTEX
  8
LC_OH_2021_05_O7
  10
312163.502
  20
4487092.000
  0
VERTEX
  8
LC_OH_2021_05_O7
  10
312173.502
  20
4487084.000
  0
VERTEX
  8
LC_OH_2021_05_O7
  10
312431.002
  20
4486876.000
  0
VERTEX
  8
LC_OH_2021_05_O7
  10
312431.502
  20
4486875.000
  0
VERTEX
  8
LC_OH_2021_05_O7
  10
312538.002
  20
4486789.500
  0
VERTEX
  8
LC_OH_2021_05_O7
  10
312539.502
  20
4486788.000
  0
VERTEX
  8
LC_OH_2021_05_O7
  10
312540.002
  20
4486782.500
  0
SEQEND
  8
LC_OH_2021_05_O7
  0
ENDSEC
  0
EOF
