  0
SECTION
  2
HEADER
  9
$ACADVER
  1
AC1009
  9
$LUNITS
  70
2
  9
$LIMMIN
  10
258139.611
  20
4486307.624
  9
$LIMMAX
  10
286919.095
  20
4505672.628
  9
$EXTMIN
  10
258139.611
  20
4486307.624
  9
$EXTMAX
  10
286919.095
  20
4505672.628
  999
Created by Global Mapper
  999
Projection: UTM
  999
Datum: ETRS89
  999
Ground Units: meters
  999
ZONE: 30
  0
ENDSEC
  0
SECTION
  2
TABLES
  0
ENDSEC
  0
SECTION
  2
BLOCKS
  0
BLOCK
  8
FeatureAttribs
  70
0
  2
FEATURE
  3
FEATURE
  10
0.00000000
  20
0.00000000
  0
ATTDEF
  8
FeatureAttribs
  70
0
  1
 
  2
NAME
  3
NAME
  10
0.00000000
  20
0.00000000
  40
1.00000000
  0
ENDBLK
  0
ENDSEC
  0
SECTION
  2
ENTITIES
  0
INSERT
  8
FeatureAttribs
  2
FEATURE
  41
1
  42
1
  43
1
  50
0
  10
259401.056
  20
4487467.727
 66
1
  0
ATTRIB
  8
FeatureAttribs
 70
0
  1
PNOA-H_AMS_1956-57_33k_ES_PAN_21mic_H50_0553_fot_67A-44266_E.tif
  2
NAME
  10
259401.056
  20
4487467.727
 40
34.68807
  0
SEQEND
  0
POLYLINE
  8
LC_OH_2021_05_O7
  70
1
  66
1
  0
VERTEX
  8
LC_OH_2021_05_O7
  10
260655.627
  20
4487087.953
  0
VERTEX
  8
LC_OH_2021_05_O7
  10
258139.611
  20
4487168.824
  0
VERTEX
  8
LC_OH_2021_05_O7
  10
258155.145
  20
4487648.469
  0
VERTEX
  8
LC_OH_2021_05_O7
  10
259536.500
  20
4487847.000
  0
VERTEX
  8
LC_OH_2021_05_O7
  10
259540.000
  20
4487847.500
  0
VERTEX
  8
LC_OH_2021_05_O7
  10
259567.000
  20
4487839.500
  0
VERTEX
  8
LC_OH_2021_05_O7
  10
260662.500
  20
4487479.000
  0
SEQEND
  8
LC_OH_2021_05_O7
  0
INSERT
  8
FeatureAttribs
  2
FEATURE
  41
1
  42
1
  43
1
  50
0
  10
265132.720
  20
4487234.288
 66
1
  0
ATTRIB
  8
FeatureAttribs
 70
0
  1
PNOA-H_AMS_1956-57_33k_ES_PAN_21mic_H50_0553_fot_67A-44268_E.tif
  2
NAME
  10
265132.720
  20
4487234.288
 40
34.68807
  0
SEQEND
  0
POLYLINE
  8
LC_OH_2021_05_O7
  70
1
  66
1
  0
VERTEX
  8
LC_OH_2021_05_O7
  10
266609.826
  20
4486899.577
  0
VERTEX
  8
LC_OH_2021_05_O7
  10
265202.111
  20
4486943.491
  0
VERTEX
  8
LC_OH_2021_05_O7
  10
263646.440
  20
4486992.757
  0
VERTEX
  8
LC_OH_2021_05_O7
  10
263664.000
  20
4487313.000
  0
VERTEX
  8
LC_OH_2021_05_O7
  10
263666.500
  20
4487314.500
  0
VERTEX
  8
LC_OH_2021_05_O7
  10
263696.500
  20
4487320.500
  0
VERTEX
  8
LC_OH_2021_05_O7
  10
264953.000
  20
4487569.000
  0
VERTEX
  8
LC_OH_2021_05_O7
  10
265326.000
  20
4487461.500
  0
VERTEX
  8
LC_OH_2021_05_O7
  10
265327.500
  20
4487461.000
  0
VERTEX
  8
LC_OH_2021_05_O7
  10
266619.000
  20
4487089.500
  0
SEQEND
  8
LC_OH_2021_05_O7
  0
INSERT
  8
FeatureAttribs
  2
FEATURE
  41
1
  42
1
  43
1
  50
0
  10
262159.860
  20
4487369.372
 66
1
  0
ATTRIB
  8
FeatureAttribs
 70
0
  1
PNOA-H_AMS_1956-57_33k_ES_PAN_21mic_H50_0553_fot_67A-44267_E.tif
  2
NAME
  10
262159.860
  20
4487369.372
 40
34.68807
  0
SEQEND
  0
POLYLINE
  8
LC_OH_2021_05_O7
  70
1
  66
1
  0
VERTEX
  8
LC_OH_2021_05_O7
  10
263646.873
  20
4486992.743
  0
VERTEX
  8
LC_OH_2021_05_O7
  10
261670.871
  20
4487055.321
  0
VERTEX
  8
LC_OH_2021_05_O7
  10
260655.220
  20
4487087.966
  0
VERTEX
  8
LC_OH_2021_05_O7
  10
260662.000
  20
4487475.500
  0
VERTEX
  8
LC_OH_2021_05_O7
  10
260662.500
  20
4487479.000
  0
VERTEX
  8
LC_OH_2021_05_O7
  10
260663.500
  20
4487479.500
  0
VERTEX
  8
LC_OH_2021_05_O7
  10
261226.500
  20
4487572.000
  0
VERTEX
  8
LC_OH_2021_05_O7
  10
261229.500
  20
4487572.500
  0
VERTEX
  8
LC_OH_2021_05_O7
  10
262289.000
  20
4487746.000
  0
VERTEX
  8
LC_OH_2021_05_O7
  10
263664.500
  20
4487314.000
  0
SEQEND
  8
LC_OH_2021_05_O7
  0
INSERT
  8
FeatureAttribs
  2
FEATURE
  41
1
  42
1
  43
1
  50
0
  10
279538.110
  20
4486524.981
 66
1
  0
ATTRIB
  8
FeatureAttribs
 70
0
  1
PNOA-H_AMS_1956-57_33k_ES_PAN_21mic_H50_0553_fot_67A-44273_E.tif
  2
NAME
  10
279538.110
  20
4486524.981
 40
34.68807
  0
SEQEND
  0
POLYLINE
  8
LC_OH_2021_05_O7
  70
1
  66
1
  0
VERTEX
  8
LC_OH_2021_05_O7
  10
279716.934
  20
4486501.463
  0
VERTEX
  8
LC_OH_2021_05_O7
  10
279359.285
  20
4486511.943
  0
VERTEX
  8
LC_OH_2021_05_O7
  10
279476.501
  20
4486548.500
  0
VERTEX
  8
LC_OH_2021_05_O7
  10
279661.001
  20
4486512.000
  0
VERTEX
  8
LC_OH_2021_05_O7
  10
279663.501
  20
4486512.000
  0
SEQEND
  8
LC_OH_2021_05_O7
  0
INSERT
  8
FeatureAttribs
  2
FEATURE
  41
1
  42
1
  43
1
  50
0
  10
270926.192
  20
4486926.678
 66
1
  0
ATTRIB
  8
FeatureAttribs
 70
0
  1
PNOA-H_AMS_1956-57_33k_ES_PAN_21mic_H50_0553_fot_67A-44270_E.tif
  2
NAME
  10
270926.192
  20
4486926.678
 40
34.68807
  0
SEQEND
  0
POLYLINE
  8
LC_OH_2021_05_O7
  70
1
  66
1
  0
VERTEX
  8
LC_OH_2021_05_O7
  10
272166.572
  20
4486727.857
  0
VERTEX
  8
LC_OH_2021_05_O7
  10
269685.812
  20
4486804.071
  0
VERTEX
  8
LC_OH_2021_05_O7
  10
269689.000
  20
4486847.500
  0
VERTEX
  8
LC_OH_2021_05_O7
  10
270773.001
  20
4487125.000
  0
VERTEX
  8
LC_OH_2021_05_O7
  10
270775.001
  20
4487125.500
  0
SEQEND
  8
LC_OH_2021_05_O7
  0
INSERT
  8
FeatureAttribs
  2
FEATURE
  41
1
  42
1
  43
1
  50
0
  10
273893.289
  20
4486761.135
 66
1
  0
ATTRIB
  8
FeatureAttribs
 70
0
  1
PNOA-H_AMS_1956-57_33k_ES_PAN_21mic_H50_0553_fot_67A-44271_E.tif
  2
NAME
  10
273893.289
  20
4486761.135
 40
34.68807
  0
SEQEND
  0
POLYLINE
  8
LC_OH_2021_05_O7
  70
1
  66
1
  0
VERTEX
  8
LC_OH_2021_05_O7
  10
274597.742
  20
4486654.271
  0
VERTEX
  8
LC_OH_2021_05_O7
  10
273188.836
  20
4486696.888
  0
VERTEX
  8
LC_OH_2021_05_O7
  10
273516.001
  20
4486785.500
  0
VERTEX
  8
LC_OH_2021_05_O7
  10
273518.001
  20
4486786.000
  0
VERTEX
  8
LC_OH_2021_05_O7
  10
273822.001
  20
4486868.000
  0
SEQEND
  8
LC_OH_2021_05_O7
  0
INSERT
  8
FeatureAttribs
  2
FEATURE
  41
1
  42
1
  43
1
  50
0
  10
268149.413
  20
4487094.535
 66
1
  0
ATTRIB
  8
FeatureAttribs
 70
0
  1
PNOA-H_AMS_1956-57_33k_ES_PAN_21mic_H50_0553_fot_67A-44269_E.tif
  2
NAME
  10
268149.413
  20
4487094.535
 40
34.68807
  0
SEQEND
  0
POLYLINE
  8
LC_OH_2021_05_O7
  70
1
  66
1
  0
VERTEX
  8
LC_OH_2021_05_O7
  10
269685.815
  20
4486804.071
  0
VERTEX
  8
LC_OH_2021_05_O7
  10
268733.332
  20
4486833.333
  0
VERTEX
  8
LC_OH_2021_05_O7
  10
266609.826
  20
4486899.577
  0
VERTEX
  8
LC_OH_2021_05_O7
  10
266619.000
  20
4487089.500
  0
VERTEX
  8
LC_OH_2021_05_O7
  10
267372.500
  20
4487275.000
  0
VERTEX
  8
LC_OH_2021_05_O7
  10
267374.500
  20
4487275.500
  0
VERTEX
  8
LC_OH_2021_05_O7
  10
267820.000
  20
4487385.000
  0
VERTEX
  8
LC_OH_2021_05_O7
  10
269689.000
  20
4486847.500
  0
SEQEND
  8
LC_OH_2021_05_O7
  0
INSERT
  8
FeatureAttribs
  2
FEATURE
  41
1
  42
1
  43
1
  50
0
  10
282443.036
  20
4486438.260
 66
1
  0
ATTRIB
  8
FeatureAttribs
 70
0
  1
PNOA-H_AMS_1956-57_33k_ES_PAN_21mic_H50_0553_fot_67A-44274_E.tif
  2
NAME
  10
282443.036
  20
4486438.260
 40
34.68807
  0
SEQEND
  0
POLYLINE
  8
LC_OH_2021_05_O7
  70
1
  66
1
  0
VERTEX
  8
LC_OH_2021_05_O7
  10
282598.749
  20
4486417.019
  0
VERTEX
  8
LC_OH_2021_05_O7
  10
282287.323
  20
4486426.145
  0
VERTEX
  8
LC_OH_2021_05_O7
  10
282385.001
  20
4486459.500
  0
SEQEND
  8
LC_OH_2021_05_O7
  0
INSERT
  8
FeatureAttribs
  2
FEATURE
  41
1
  42
1
  43
1
  50
0
  10
276885.671
  20
4486636.867
 66
1
  0
ATTRIB
  8
FeatureAttribs
 70
0
  1
PNOA-H_AMS_1956-57_33k_ES_PAN_21mic_H50_0553_fot_67A-44272_E.tif
  2
NAME
  10
276885.671
  20
4486636.867
 40
34.68807
  0
SEQEND
  0
POLYLINE
  8
LC_OH_2021_05_O7
  70
1
  66
1
  0
VERTEX
  8
LC_OH_2021_05_O7
  10
277333.871
  20
4486572.235
  0
VERTEX
  8
LC_OH_2021_05_O7
  10
276437.471
  20
4486598.925
  0
VERTEX
  8
LC_OH_2021_05_O7
  10
276813.001
  20
4486701.500
  0
VERTEX
  8
LC_OH_2021_05_O7
  10
276882.501
  20
4486685.000
  0
SEQEND
  8
LC_OH_2021_05_O7
  0
INSERT
  8
FeatureAttribs
  2
FEATURE
  41
1
  42
1
  43
1
  50
0
  10
259143.923
  20
4503832.764
 66
1
  0
ATTRIB
  8
FeatureAttribs
 70
0
  1
PNOA-H_AMS_1956-57_33k_ES_PAN_21mic_H50_0527_fot_63B-34903_W.tif
  2
NAME
  10
259143.923
  20
4503832.764
 40
34.68807
  0
SEQEND
  0
POLYLINE
  8
LC_OH_2021_05_O7
  70
1
  66
1
  0
VERTEX
  8
LC_OH_2021_05_O7
  10
258725.177
  20
4505223.529
  0
VERTEX
  8
LC_OH_2021_05_O7
  10
259181.000
  20
4505152.000
  0
VERTEX
  8
LC_OH_2021_05_O7
  10
259183.500
  20
4505152.000
  0
VERTEX
  8
LC_OH_2021_05_O7
  10
259650.500
  20
4505079.000
  0
VERTEX
  8
LC_OH_2021_05_O7
  10
259427.500
  20
4502442.000
  0
VERTEX
  8
LC_OH_2021_05_O7
  10
258637.347
  20
4502519.228
  0
VERTEX
  8
LC_OH_2021_05_O7
  10
258664.633
  20
4503359.631
  0
SEQEND
  8
LC_OH_2021_05_O7
  0
INSERT
  8
FeatureAttribs
  2
FEATURE
  41
1
  42
1
  43
1
  50
0
  10
259076.140
  20
4501309.142
 66
1
  0
ATTRIB
  8
FeatureAttribs
 70
0
  1
PNOA-H_AMS_1956-57_33k_ES_PAN_21mic_H50_0527_fot_63A-40296_W.tif
  2
NAME
  10
259076.140
  20
4501309.142
 40
34.68807
  0
SEQEND
  0
POLYLINE
  8
LC_OH_2021_05_O7
  70
1
  66
1
  0
VERTEX
  8
LC_OH_2021_05_O7
  10
258637.347
  20
4502519.228
  0
VERTEX
  8
LC_OH_2021_05_O7
  10
259427.500
  20
4502442.000
  0
VERTEX
  8
LC_OH_2021_05_O7
  10
259593.500
  20
4500365.500
  0
VERTEX
  8
LC_OH_2021_05_O7
  10
259593.000
  20
4500360.500
  0
VERTEX
  8
LC_OH_2021_05_O7
  10
258558.780
  20
4500099.055
  0
VERTEX
  8
LC_OH_2021_05_O7
  10
258589.534
  20
4501046.639
  0
SEQEND
  8
LC_OH_2021_05_O7
  0
INSERT
  8
FeatureAttribs
  2
FEATURE
  41
1
  42
1
  43
1
  50
0
  10
258479.535
  20
4494439.351
 66
1
  0
ATTRIB
  8
FeatureAttribs
 70
0
  1
PNOA-H_AMS_1956-57_33k_ES_PAN_21mic_H50_0527_fot_65A-46662_W.tif
  2
NAME
  10
258479.535
  20
4494439.351
 40
34.68807
  0
SEQEND
  0
POLYLINE
  8
LC_OH_2021_05_O7
  70
1
  66
1
  0
VERTEX
  8
LC_OH_2021_05_O7
  10
258433.816
  20
4496247.493
  0
VERTEX
  8
LC_OH_2021_05_O7
  10
258468.500
  20
4496239.000
  0
VERTEX
  8
LC_OH_2021_05_O7
  10
258642.500
  20
4492635.500
  0
VERTEX
  8
LC_OH_2021_05_O7
  10
258316.570
  20
4492631.209
  0
VERTEX
  8
LC_OH_2021_05_O7
  10
258364.428
  20
4494107.703
  0
SEQEND
  8
LC_OH_2021_05_O7
  0
INSERT
  8
FeatureAttribs
  2
FEATURE
  41
1
  42
1
  43
1
  50
0
  10
283857.686
  20
4502138.749
 66
1
  0
ATTRIB
  8
FeatureAttribs
 70
0
  1
PNOA-H_AMS_1956-57_33k_ES_PAN_21mic_H50_0528_fot_63B-34894_W.tif
  2
NAME
  10
283857.686
  20
4502138.749
 40
34.68807
  0
SEQEND
  0
POLYLINE
  8
LC_OH_2021_05_O7
  70
1
  66
1
  0
VERTEX
  8
LC_OH_2021_05_O7
  10
283157.001
  20
4504377.500
  0
VERTEX
  8
LC_OH_2021_05_O7
  10
284407.501
  20
4504181.500
  0
VERTEX
  8
LC_OH_2021_05_O7
  10
285288.001
  20
4503913.000
  0
VERTEX
  8
LC_OH_2021_05_O7
  10
285287.501
  20
4499900.000
  0
VERTEX
  8
LC_OH_2021_05_O7
  10
282505.001
  20
4499902.500
  0
VERTEX
  8
LC_OH_2021_05_O7
  10
282365.001
  20
4503946.500
  0
VERTEX
  8
LC_OH_2021_05_O7
  10
283156.501
  20
4504376.500
  0
VERTEX
  8
LC_OH_2021_05_O7
  10
283157.001
  20
4504377.500
  0
SEQEND
  8
LC_OH_2021_05_O7
  0
INSERT
  8
FeatureAttribs
  2
FEATURE
  41
1
  42
1
  43
1
  50
0
  10
278084.134
  20
4502105.749
 66
1
  0
ATTRIB
  8
FeatureAttribs
 70
0
  1
PNOA-H_AMS_1956-57_33k_ES_PAN_21mic_H50_0528_fot_63B-34896_W.tif
  2
NAME
  10
278084.134
  20
4502105.749
 40
34.68807
  0
SEQEND
  0
POLYLINE
  8
LC_OH_2021_05_O7
  70
1
  66
1
  0
VERTEX
  8
LC_OH_2021_05_O7
  10
277362.501
  20
4504446.500
  0
VERTEX
  8
LC_OH_2021_05_O7
  10
279449.001
  20
4504062.000
  0
VERTEX
  8
LC_OH_2021_05_O7
  10
279656.001
  20
4500001.500
  0
VERTEX
  8
LC_OH_2021_05_O7
  10
279261.001
  20
4499765.000
  0
VERTEX
  8
LC_OH_2021_05_O7
  10
276608.501
  20
4500075.500
  0
VERTEX
  8
LC_OH_2021_05_O7
  10
276630.501
  20
4504133.000
  0
VERTEX
  8
LC_OH_2021_05_O7
  10
276631.501
  20
4504135.000
  0
VERTEX
  8
LC_OH_2021_05_O7
  10
276642.001
  20
4504139.500
  0
VERTEX
  8
LC_OH_2021_05_O7
  10
277361.001
  20
4504446.000
  0
VERTEX
  8
LC_OH_2021_05_O7
  10
277362.501
  20
4504446.500
  0
SEQEND
  8
LC_OH_2021_05_O7
  0
INSERT
  8
FeatureAttribs
  2
FEATURE
  41
1
  42
1
  43
1
  50
0
  10
275167.668
  20
4502173.499
 66
1
  0
ATTRIB
  8
FeatureAttribs
 70
0
  1
PNOA-H_AMS_1956-57_33k_ES_PAN_21mic_H50_0528_fot_63B-34897_W.tif
  2
NAME
  10
275167.668
  20
4502173.499
 40
34.68807
  0
SEQEND
  0
POLYLINE
  8
LC_OH_2021_05_O7
  70
1
  66
1
  0
VERTEX
  8
LC_OH_2021_05_O7
  10
274556.501
  20
4504590.500
  0
VERTEX
  8
LC_OH_2021_05_O7
  10
276631.001
  20
4504134.500
  0
VERTEX
  8
LC_OH_2021_05_O7
  10
276609.001
  20
4500076.000
  0
VERTEX
  8
LC_OH_2021_05_O7
  10
276059.501
  20
4499757.500
  0
VERTEX
  8
LC_OH_2021_05_O7
  10
276055.501
  20
4499756.500
  0
VERTEX
  8
LC_OH_2021_05_O7
  10
276041.501
  20
4499759.000
  0
VERTEX
  8
LC_OH_2021_05_O7
  10
273661.501
  20
4500198.500
  0
VERTEX
  8
LC_OH_2021_05_O7
  10
273772.501
  20
4504300.000
  0
VERTEX
  8
LC_OH_2021_05_O7
  10
274555.501
  20
4504590.000
  0
VERTEX
  8
LC_OH_2021_05_O7
  10
274556.501
  20
4504590.500
  0
SEQEND
  8
LC_OH_2021_05_O7
  0
INSERT
  8
FeatureAttribs
  2
FEATURE
  41
1
  42
1
  43
1
  50
0
  10
269328.275
  20
4502370.999
 66
1
  0
ATTRIB
  8
FeatureAttribs
 70
0
  1
PNOA-H_AMS_1956-57_33k_ES_PAN_21mic_H50_0528_fot_63B-34899_W.tif
  2
NAME
  10
269328.275
  20
4502370.999
 40
34.68807
  0
SEQEND
  0
POLYLINE
  8
LC_OH_2021_05_O7
  70
1
  66
1
  0
VERTEX
  8
LC_OH_2021_05_O7
  10
268021.500
  20
4504587.500
  0
VERTEX
  8
LC_OH_2021_05_O7
  10
268027.000
  20
4504590.500
  0
VERTEX
  8
LC_OH_2021_05_O7
  10
268872.000
  20
4504879.000
  0
VERTEX
  8
LC_OH_2021_05_O7
  10
268873.500
  20
4504879.500
  0
VERTEX
  8
LC_OH_2021_05_O7
  10
270831.000
  20
4504411.000
  0
VERTEX
  8
LC_OH_2021_05_O7
  10
270749.500
  20
4500286.500
  0
VERTEX
  8
LC_OH_2021_05_O7
  10
269909.500
  20
4499862.500
  0
VERTEX
  8
LC_OH_2021_05_O7
  10
267723.000
  20
4500337.000
  0
SEQEND
  8
LC_OH_2021_05_O7
  0
INSERT
  8
FeatureAttribs
  2
FEATURE
  41
1
  42
1
  43
1
  50
0
  10
263707.671
  20
4502525.750
 66
1
  0
ATTRIB
  8
FeatureAttribs
 70
0
  1
PNOA-H_AMS_1956-57_33k_ES_PAN_21mic_H50_0528_fot_63B-34901_W.tif
  2
NAME
  10
263707.671
  20
4502525.750
 40
34.68807
  0
SEQEND
  0
POLYLINE
  8
LC_OH_2021_05_O7
  70
1
  66
1
  0
VERTEX
  8
LC_OH_2021_05_O7
  10
262403.000
  20
4504909.500
  0
VERTEX
  8
LC_OH_2021_05_O7
  10
263002.000
  20
4505155.500
  0
VERTEX
  8
LC_OH_2021_05_O7
  10
263003.000
  20
4505156.000
  0
VERTEX
  8
LC_OH_2021_05_O7
  10
265160.500
  20
4504769.000
  0
VERTEX
  8
LC_OH_2021_05_O7
  10
265019.500
  20
4500359.500
  0
VERTEX
  8
LC_OH_2021_05_O7
  10
263652.500
  20
4499895.500
  0
VERTEX
  8
LC_OH_2021_05_O7
  10
262257.000
  20
4500356.500
  0
SEQEND
  8
LC_OH_2021_05_O7
  0
INSERT
  8
FeatureAttribs
  2
FEATURE
  41
1
  42
1
  43
1
  50
0
  10
260884.626
  20
4502598.499
 66
1
  0
ATTRIB
  8
FeatureAttribs
 70
0
  1
PNOA-H_AMS_1956-57_33k_ES_PAN_21mic_H50_0528_fot_63B-34902_W.tif
  2
NAME
  10
260884.626
  20
4502598.499
 40
34.68807
  0
SEQEND
  0
POLYLINE
  8
LC_OH_2021_05_O7
  70
1
  66
1
  0
VERTEX
  8
LC_OH_2021_05_O7
  10
259650.000
  20
4505073.500
  0
VERTEX
  8
LC_OH_2021_05_O7
  10
259650.500
  20
4505078.500
  0
VERTEX
  8
LC_OH_2021_05_O7
  10
259653.000
  20
4505080.000
  0
VERTEX
  8
LC_OH_2021_05_O7
  10
260064.500
  20
4505253.000
  0
VERTEX
  8
LC_OH_2021_05_O7
  10
260065.500
  20
4505253.500
  0
VERTEX
  8
LC_OH_2021_05_O7
  10
262403.000
  20
4504909.500
  0
VERTEX
  8
LC_OH_2021_05_O7
  10
262256.500
  20
4500356.500
  0
VERTEX
  8
LC_OH_2021_05_O7
  10
260671.000
  20
4499943.500
  0
VERTEX
  8
LC_OH_2021_05_O7
  10
259593.500
  20
4500361.000
  0
VERTEX
  8
LC_OH_2021_05_O7
  10
259427.500
  20
4502443.500
  0
SEQEND
  8
LC_OH_2021_05_O7
  0
INSERT
  8
FeatureAttribs
  2
FEATURE
  41
1
  42
1
  43
1
  50
0
  10
272253.821
  20
4502294.749
 66
1
  0
ATTRIB
  8
FeatureAttribs
 70
0
  1
PNOA-H_AMS_1956-57_33k_ES_PAN_21mic_H50_0528_fot_63B-34898_W.tif
  2
NAME
  10
272253.821
  20
4502294.749
 40
34.68807
  0
SEQEND
  0
POLYLINE
  8
LC_OH_2021_05_O7
  70
1
  66
1
  0
VERTEX
  8
LC_OH_2021_05_O7
  10
270831.000
  20
4504411.500
  0
VERTEX
  8
LC_OH_2021_05_O7
  10
271754.501
  20
4504754.500
  0
VERTEX
  8
LC_OH_2021_05_O7
  10
273517.501
  20
4504357.000
  0
VERTEX
  8
LC_OH_2021_05_O7
  10
273519.501
  20
4504357.000
  0
VERTEX
  8
LC_OH_2021_05_O7
  10
273772.501
  20
4504300.000
  0
VERTEX
  8
LC_OH_2021_05_O7
  10
273662.001
  20
4500200.000
  0
VERTEX
  8
LC_OH_2021_05_O7
  10
273661.501
  20
4500198.000
  0
VERTEX
  8
LC_OH_2021_05_O7
  10
272928.001
  20
4499835.000
  0
VERTEX
  8
LC_OH_2021_05_O7
  10
270749.500
  20
4500286.500
  0
SEQEND
  8
LC_OH_2021_05_O7
  0
INSERT
  8
FeatureAttribs
  2
FEATURE
  41
1
  42
1
  43
1
  50
0
  10
286697.081
  20
4502020.000
 66
1
  0
ATTRIB
  8
FeatureAttribs
 70
0
  1
PNOA-H_AMS_1956-57_33k_ES_PAN_21mic_H50_0528_fot_63B-34893_W.tif
  2
NAME
  10
286697.081
  20
4502020.000
 40
34.68807
  0
SEQEND
  0
POLYLINE
  8
LC_OH_2021_05_O7
  70
1
  66
1
  0
VERTEX
  8
LC_OH_2021_05_O7
  10
286776.782
  20
4499847.865
  0
VERTEX
  8
LC_OH_2021_05_O7
  10
285485.501
  20
4499784.000
  0
VERTEX
  8
LC_OH_2021_05_O7
  10
285479.501
  20
4499784.500
  0
VERTEX
  8
LC_OH_2021_05_O7
  10
285287.501
  20
4499900.000
  0
VERTEX
  8
LC_OH_2021_05_O7
  10
285288.001
  20
4503913.000
  0
VERTEX
  8
LC_OH_2021_05_O7
  10
286033.501
  20
4504256.000
  0
VERTEX
  8
LC_OH_2021_05_O7
  10
286899.693
  20
4504134.237
  0
VERTEX
  8
LC_OH_2021_05_O7
  10
286852.753
  20
4502497.745
  0
VERTEX
  8
LC_OH_2021_05_O7
  10
286786.439
  20
4500184.851
  0
SEQEND
  8
LC_OH_2021_05_O7
  0
INSERT
  8
FeatureAttribs
  2
FEATURE
  41
1
  42
1
  43
1
  50
0
  10
281919.520
  20
4493695.249
 66
1
  0
ATTRIB
  8
FeatureAttribs
 70
0
  1
PNOA-H_AMS_1956-57_33k_ES_PAN_21mic_H50_0528_fot_65B-42151_W.tif
  2
NAME
  10
281919.520
  20
4493695.249
 40
34.68807
  0
SEQEND
  0
POLYLINE
  8
LC_OH_2021_05_O7
  70
1
  66
1
  0
VERTEX
  8
LC_OH_2021_05_O7
  10
282212.501
  20
4496113.000
  0
VERTEX
  8
LC_OH_2021_05_O7
  10
283467.501
  20
4495430.500
  0
VERTEX
  8
LC_OH_2021_05_O7
  10
283210.501
  20
4491536.000
  0
VERTEX
  8
LC_OH_2021_05_O7
  10
283197.001
  20
4491530.000
  0
VERTEX
  8
LC_OH_2021_05_O7
  10
282531.001
  20
4491278.500
  0
VERTEX
  8
LC_OH_2021_05_O7
  10
282528.001
  20
4491277.500
  0
VERTEX
  8
LC_OH_2021_05_O7
  10
282523.001
  20
4491278.000
  0
VERTEX
  8
LC_OH_2021_05_O7
  10
280382.001
  20
4491655.500
  0
VERTEX
  8
LC_OH_2021_05_O7
  10
280582.001
  20
4495577.000
  0
VERTEX
  8
LC_OH_2021_05_O7
  10
282211.001
  20
4496112.500
  0
VERTEX
  8
LC_OH_2021_05_O7
  10
282212.501
  20
4496113.000
  0
SEQEND
  8
LC_OH_2021_05_O7
  0
INSERT
  8
FeatureAttribs
  2
FEATURE
  41
1
  42
1
  43
1
  50
0
  10
284783.680
  20
4493508.500
 66
1
  0
ATTRIB
  8
FeatureAttribs
 70
0
  1
PNOA-H_AMS_1956-57_33k_ES_PAN_21mic_H50_0528_fot_65B-42150_W.tif
  2
NAME
  10
284783.680
  20
4493508.500
 40
34.68807
  0
SEQEND
  0
POLYLINE
  8
LC_OH_2021_05_O7
  70
1
  66
1
  0
VERTEX
  8
LC_OH_2021_05_O7
  10
283467.001
  20
4495428.000
  0
VERTEX
  8
LC_OH_2021_05_O7
  10
283468.001
  20
4495431.000
  0
VERTEX
  8
LC_OH_2021_05_O7
  10
283757.001
  20
4495505.000
  0
VERTEX
  8
LC_OH_2021_05_O7
  10
283759.001
  20
4495505.500
  0
VERTEX
  8
LC_OH_2021_05_O7
  10
285357.501
  20
4495915.000
  0
VERTEX
  8
LC_OH_2021_05_O7
  10
286287.501
  20
4495357.500
  0
VERTEX
  8
LC_OH_2021_05_O7
  10
286156.001
  20
4491334.500
  0
VERTEX
  8
LC_OH_2021_05_O7
  10
286155.501
  20
4491333.000
  0
VERTEX
  8
LC_OH_2021_05_O7
  10
286144.501
  20
4491329.000
  0
VERTEX
  8
LC_OH_2021_05_O7
  10
285516.001
  20
4491102.000
  0
VERTEX
  8
LC_OH_2021_05_O7
  10
283210.001
  20
4491535.500
  0
SEQEND
  8
LC_OH_2021_05_O7
  0
INSERT
  8
FeatureAttribs
  2
FEATURE
  41
1
  42
1
  43
1
  50
0
  10
280988.125
  20
4502119.249
 66
1
  0
ATTRIB
  8
FeatureAttribs
 70
0
  1
PNOA-H_AMS_1956-57_33k_ES_PAN_21mic_H50_0528_fot_63B-34895_W.tif
  2
NAME
  10
280988.125
  20
4502119.249
 40
34.68807
  0
SEQEND
  0
POLYLINE
  8
LC_OH_2021_05_O7
  70
1
  66
1
  0
VERTEX
  8
LC_OH_2021_05_O7
  10
282496.501
  20
4500158.500
  0
VERTEX
  8
LC_OH_2021_05_O7
  10
282505.001
  20
4499902.500
  0
VERTEX
  8
LC_OH_2021_05_O7
  10
282398.501
  20
4499837.500
  0
VERTEX
  8
LC_OH_2021_05_O7
  10
279656.001
  20
4500001.500
  0
VERTEX
  8
LC_OH_2021_05_O7
  10
279449.001
  20
4504052.000
  0
VERTEX
  8
LC_OH_2021_05_O7
  10
279449.001
  20
4504062.500
  0
VERTEX
  8
LC_OH_2021_05_O7
  10
280120.501
  20
4504395.000
  0
VERTEX
  8
LC_OH_2021_05_O7
  10
280134.501
  20
4504401.000
  0
VERTEX
  8
LC_OH_2021_05_O7
  10
282365.001
  20
4503946.500
  0
VERTEX
  8
LC_OH_2021_05_O7
  10
282496.501
  20
4500159.500
  0
VERTEX
  8
LC_OH_2021_05_O7
  10
282496.501
  20
4500158.500
  0
SEQEND
  8
LC_OH_2021_05_O7
  0
INSERT
  8
FeatureAttribs
  2
FEATURE
  41
1
  42
1
  43
1
  50
0
  10
273245.367
  20
4494061.999
 66
1
  0
ATTRIB
  8
FeatureAttribs
 70
0
  1
PNOA-H_AMS_1956-57_33k_ES_PAN_21mic_H50_0528_fot_65B-42154_W.tif
  2
NAME
  10
273245.367
  20
4494061.999
 40
34.68807
  0
SEQEND
  0
POLYLINE
  8
LC_OH_2021_05_O7
  70
1
  66
1
  0
VERTEX
  8
LC_OH_2021_05_O7
  10
272875.001
  20
4496410.000
  0
VERTEX
  8
LC_OH_2021_05_O7
  10
274736.001
  20
4495828.000
  0
VERTEX
  8
LC_OH_2021_05_O7
  10
274608.001
  20
4491899.500
  0
VERTEX
  8
LC_OH_2021_05_O7
  10
274200.501
  20
4491716.000
  0
VERTEX
  8
LC_OH_2021_05_O7
  10
274196.001
  20
4491714.000
  0
VERTEX
  8
LC_OH_2021_05_O7
  10
274193.001
  20
4491714.000
  0
VERTEX
  8
LC_OH_2021_05_O7
  10
271745.001
  20
4492079.500
  0
VERTEX
  8
LC_OH_2021_05_O7
  10
271875.001
  20
4495912.000
  0
VERTEX
  8
LC_OH_2021_05_O7
  10
272874.001
  20
4496409.500
  0
VERTEX
  8
LC_OH_2021_05_O7
  10
272875.001
  20
4496410.000
  0
SEQEND
  8
LC_OH_2021_05_O7
  0
INSERT
  8
FeatureAttribs
  2
FEATURE
  41
1
  42
1
  43
1
  50
0
  10
266481.132
  20
4502492.000
 66
1
  0
ATTRIB
  8
FeatureAttribs
 70
0
  1
PNOA-H_AMS_1956-57_33k_ES_PAN_21mic_H50_0528_fot_63B-34900_W.tif
  2
NAME
  10
266481.132
  20
4502492.000
 40
34.68807
  0
SEQEND
  0
POLYLINE
  8
LC_OH_2021_05_O7
  70
1
  66
1
  0
VERTEX
  8
LC_OH_2021_05_O7
  10
265160.500
  20
4504769.000
  0
VERTEX
  8
LC_OH_2021_05_O7
  10
265325.000
  20
4504829.000
  0
VERTEX
  8
LC_OH_2021_05_O7
  10
265326.000
  20
4504829.500
  0
VERTEX
  8
LC_OH_2021_05_O7
  10
265973.500
  20
4505065.000
  0
VERTEX
  8
LC_OH_2021_05_O7
  10
268022.000
  20
4504588.500
  0
VERTEX
  8
LC_OH_2021_05_O7
  10
267723.000
  20
4500337.000
  0
VERTEX
  8
LC_OH_2021_05_O7
  10
266772.500
  20
4499920.000
  0
VERTEX
  8
LC_OH_2021_05_O7
  10
266767.000
  20
4499919.000
  0
VERTEX
  8
LC_OH_2021_05_O7
  10
265019.500
  20
4500360.000
  0
SEQEND
  8
LC_OH_2021_05_O7
  0
INSERT
  8
FeatureAttribs
  2
FEATURE
  41
1
  42
1
  43
1
  50
0
  10
261774.695
  20
4494334.999
 66
1
  0
ATTRIB
  8
FeatureAttribs
 70
0
  1
PNOA-H_AMS_1956-57_33k_ES_PAN_21mic_H50_0528_fot_65B-42158_W.tif
  2
NAME
  10
261774.695
  20
4494334.999
 40
34.68807
  0
SEQEND
  0
POLYLINE
  8
LC_OH_2021_05_O7
  70
1
  66
1
  0
VERTEX
  8
LC_OH_2021_05_O7
  10
261231.500
  20
4496248.500
  0
VERTEX
  8
LC_OH_2021_05_O7
  10
263220.500
  20
4496035.500
  0
VERTEX
  8
LC_OH_2021_05_O7
  10
263221.000
  20
4492660.500
  0
VERTEX
  8
LC_OH_2021_05_O7
  10
262577.500
  20
4492353.500
  0
VERTEX
  8
LC_OH_2021_05_O7
  10
260326.500
  20
4492771.000
  0
VERTEX
  8
LC_OH_2021_05_O7
  10
260331.000
  20
4496095.000
  0
VERTEX
  8
LC_OH_2021_05_O7
  10
260593.000
  20
4496316.500
  0
VERTEX
  8
LC_OH_2021_05_O7
  10
261228.500
  20
4496248.500
  0
VERTEX
  8
LC_OH_2021_05_O7
  10
261231.500
  20
4496248.500
  0
SEQEND
  8
LC_OH_2021_05_O7
  0
INSERT
  8
FeatureAttribs
  2
FEATURE
  41
1
  42
1
  43
1
  50
0
  10
267494.336
  20
4494239.749
 66
1
  0
ATTRIB
  8
FeatureAttribs
 70
0
  1
PNOA-H_AMS_1956-57_33k_ES_PAN_21mic_H50_0528_fot_65B-42156_W.tif
  2
NAME
  10
267494.336
  20
4494239.749
 40
34.68807
  0
SEQEND
  0
POLYLINE
  8
LC_OH_2021_05_O7
  70
1
  66
1
  0
VERTEX
  8
LC_OH_2021_05_O7
  10
267375.500
  20
4496346.500
  0
VERTEX
  8
LC_OH_2021_05_O7
  10
268961.000
  20
4495958.000
  0
VERTEX
  8
LC_OH_2021_05_O7
  10
268932.500
  20
4492306.000
  0
VERTEX
  8
LC_OH_2021_05_O7
  10
268277.000
  20
4492012.500
  0
VERTEX
  8
LC_OH_2021_05_O7
  10
265956.000
  20
4492500.500
  0
VERTEX
  8
LC_OH_2021_05_O7
  10
266126.500
  20
4495986.000
  0
VERTEX
  8
LC_OH_2021_05_O7
  10
266883.000
  20
4496467.000
  0
VERTEX
  8
LC_OH_2021_05_O7
  10
267374.500
  20
4496346.500
  0
VERTEX
  8
LC_OH_2021_05_O7
  10
267375.500
  20
4496346.500
  0
SEQEND
  8
LC_OH_2021_05_O7
  0
INSERT
  8
FeatureAttribs
  2
FEATURE
  41
1
  42
1
  43
1
  50
0
  10
276136.245
  20
4493995.499
 66
1
  0
ATTRIB
  8
FeatureAttribs
 70
0
  1
PNOA-H_AMS_1956-57_33k_ES_PAN_21mic_H50_0528_fot_65B-42153_W.tif
  2
NAME
  10
276136.245
  20
4493995.499
 40
34.68807
  0
SEQEND
  0
POLYLINE
  8
LC_OH_2021_05_O7
  70
1
  66
1
  0
VERTEX
  8
LC_OH_2021_05_O7
  10
275567.001
  20
4496220.000
  0
VERTEX
  8
LC_OH_2021_05_O7
  10
275936.001
  20
4496394.000
  0
VERTEX
  8
LC_OH_2021_05_O7
  10
277645.501
  20
4495692.000
  0
VERTEX
  8
LC_OH_2021_05_O7
  10
277533.001
  20
4491822.500
  0
VERTEX
  8
LC_OH_2021_05_O7
  10
277021.001
  20
4491599.000
  0
VERTEX
  8
LC_OH_2021_05_O7
  10
277016.001
  20
4491597.000
  0
VERTEX
  8
LC_OH_2021_05_O7
  10
277012.001
  20
4491597.000
  0
VERTEX
  8
LC_OH_2021_05_O7
  10
274608.001
  20
4491899.500
  0
VERTEX
  8
LC_OH_2021_05_O7
  10
274736.001
  20
4495827.500
  0
VERTEX
  8
LC_OH_2021_05_O7
  10
275566.001
  20
4496219.500
  0
VERTEX
  8
LC_OH_2021_05_O7
  10
275567.001
  20
4496220.000
  0
SEQEND
  8
LC_OH_2021_05_O7
  0
INSERT
  8
FeatureAttribs
  2
FEATURE
  41
1
  42
1
  43
1
  50
0
  10
259443.917
  20
4494361.000
 66
1
  0
ATTRIB
  8
FeatureAttribs
 70
0
  1
PNOA-H_AMS_1956-57_33k_ES_PAN_21mic_H50_0528_fot_65B-42159_W.tif
  2
NAME
  10
259443.917
  20
4494361.000
 40
34.68807
  0
SEQEND
  0
POLYLINE
  8
LC_OH_2021_05_O7
  70
1
  66
1
  0
VERTEX
  8
LC_OH_2021_05_O7
  10
259180.500
  20
4496183.500
  0
VERTEX
  8
LC_OH_2021_05_O7
  10
259183.500
  20
4496183.500
  0
VERTEX
  8
LC_OH_2021_05_O7
  10
260331.000
  20
4496095.000
  0
VERTEX
  8
LC_OH_2021_05_O7
  10
260326.500
  20
4492771.000
  0
VERTEX
  8
LC_OH_2021_05_O7
  10
259815.000
  20
4492483.500
  0
VERTEX
  8
LC_OH_2021_05_O7
  10
258642.500
  20
4492635.500
  0
VERTEX
  8
LC_OH_2021_05_O7
  10
258468.500
  20
4496238.500
  0
SEQEND
  8
LC_OH_2021_05_O7
  0
INSERT
  8
FeatureAttribs
  2
FEATURE
  41
1
  42
1
  43
1
  50
0
  10
279043.694
  20
4493870.249
 66
1
  0
ATTRIB
  8
FeatureAttribs
 70
0
  1
PNOA-H_AMS_1956-57_33k_ES_PAN_21mic_H50_0528_fot_65B-42152_W.tif
  2
NAME
  10
279043.694
  20
4493870.249
 40
34.68807
  0
SEQEND
  0
POLYLINE
  8
LC_OH_2021_05_O7
  70
1
  66
1
  0
VERTEX
  8
LC_OH_2021_05_O7
  10
280398.001
  20
4491966.500
  0
VERTEX
  8
LC_OH_2021_05_O7
  10
280382.001
  20
4491655.500
  0
VERTEX
  8
LC_OH_2021_05_O7
  10
279890.001
  20
4491469.000
  0
VERTEX
  8
LC_OH_2021_05_O7
  10
277533.001
  20
4491822.500
  0
VERTEX
  8
LC_OH_2021_05_O7
  10
277645.501
  20
4495691.500
  0
VERTEX
  8
LC_OH_2021_05_O7
  10
279093.001
  20
4496271.500
  0
VERTEX
  8
LC_OH_2021_05_O7
  10
280582.001
  20
4495577.000
  0
VERTEX
  8
LC_OH_2021_05_O7
  10
280398.001
  20
4491974.000
  0
VERTEX
  8
LC_OH_2021_05_O7
  10
280398.001
  20
4491966.500
  0
SEQEND
  8
LC_OH_2021_05_O7
  0
INSERT
  8
FeatureAttribs
  2
FEATURE
  41
1
  42
1
  43
1
  50
0
  10
270381.672
  20
4494178.749
 66
1
  0
ATTRIB
  8
FeatureAttribs
 70
0
  1
PNOA-H_AMS_1956-57_33k_ES_PAN_21mic_H50_0528_fot_65B-42155_W.tif
  2
NAME
  10
270381.672
  20
4494178.749
 40
34.68807
  0
SEQEND
  0
POLYLINE
  8
LC_OH_2021_05_O7
  70
1
  66
1
  0
VERTEX
  8
LC_OH_2021_05_O7
  10
269886.000
  20
4496481.500
  0
VERTEX
  8
LC_OH_2021_05_O7
  10
271875.001
  20
4495912.000
  0
VERTEX
  8
LC_OH_2021_05_O7
  10
271745.001
  20
4492079.500
  0
VERTEX
  8
LC_OH_2021_05_O7
  10
271282.501
  20
4491878.500
  0
VERTEX
  8
LC_OH_2021_05_O7
  10
271274.501
  20
4491876.000
  0
VERTEX
  8
LC_OH_2021_05_O7
  10
268932.500
  20
4492306.000
  0
VERTEX
  8
LC_OH_2021_05_O7
  10
268961.000
  20
4495958.000
  0
VERTEX
  8
LC_OH_2021_05_O7
  10
269885.000
  20
4496481.000
  0
VERTEX
  8
LC_OH_2021_05_O7
  10
269886.000
  20
4496481.500
  0
SEQEND
  8
LC_OH_2021_05_O7
  0
INSERT
  8
FeatureAttribs
  2
FEATURE
  41
1
  42
1
  43
1
  50
0
  10
264633.918
  20
4494362.749
 66
1
  0
ATTRIB
  8
FeatureAttribs
 70
0
  1
PNOA-H_AMS_1956-57_33k_ES_PAN_21mic_H50_0528_fot_65B-42157_W.tif
  2
NAME
  10
264633.918
  20
4494362.749
 40
34.68807
  0
SEQEND
  0
POLYLINE
  8
LC_OH_2021_05_O7
  70
1
  66
1
  0
VERTEX
  8
LC_OH_2021_05_O7
  10
263279.000
  20
4496080.500
  0
VERTEX
  8
LC_OH_2021_05_O7
  10
263780.500
  20
4496463.500
  0
VERTEX
  8
LC_OH_2021_05_O7
  10
263790.000
  20
4496470.500
  0
VERTEX
  8
LC_OH_2021_05_O7
  10
263792.500
  20
4496470.500
  0
VERTEX
  8
LC_OH_2021_05_O7
  10
266126.500
  20
4495986.000
  0
VERTEX
  8
LC_OH_2021_05_O7
  10
265956.000
  20
4492501.000
  0
VERTEX
  8
LC_OH_2021_05_O7
  10
265405.000
  20
4492255.500
  0
VERTEX
  8
LC_OH_2021_05_O7
  10
265402.000
  20
4492255.000
  0
VERTEX
  8
LC_OH_2021_05_O7
  10
263221.000
  20
4492660.500
  0
VERTEX
  8
LC_OH_2021_05_O7
  10
263220.500
  20
4496036.000
  0
VERTEX
  8
LC_OH_2021_05_O7
  10
263278.500
  20
4496079.500
  0
VERTEX
  8
LC_OH_2021_05_O7
  10
263279.000
  20
4496080.500
  0
SEQEND
  8
LC_OH_2021_05_O7
  0
INSERT
  8
FeatureAttribs
  2
FEATURE
  41
1
  42
1
  43
1
  50
0
  10
286402.802
  20
4493344.009
 66
1
  0
ATTRIB
  8
FeatureAttribs
 70
0
  1
PNOA-H_AMS_1956-57_33k_ES_PAN_21mic_H50_0529_fot_65B-42149_W.tif
  2
NAME
  10
286402.802
  20
4493344.009
 40
34.68807
  0
SEQEND
  0
POLYLINE
  8
LC_OH_2021_05_O7
  70
1
  66
1
  0
VERTEX
  8
LC_OH_2021_05_O7
  10
286650.103
  20
4495426.565
  0
VERTEX
  8
LC_OH_2021_05_O7
  10
286587.668
  20
4493246.207
  0
VERTEX
  8
LC_OH_2021_05_O7
  10
286530.859
  20
4491261.452
  0
VERTEX
  8
LC_OH_2021_05_O7
  10
286155.501
  20
4491333.500
  0
VERTEX
  8
LC_OH_2021_05_O7
  10
286287.001
  20
4495354.500
  0
VERTEX
  8
LC_OH_2021_05_O7
  10
286287.501
  20
4495357.500
  0
VERTEX
  8
LC_OH_2021_05_O7
  10
286297.501
  20
4495359.500
  0
SEQEND
  8
LC_OH_2021_05_O7
  0
INSERT
  8
FeatureAttribs
  2
FEATURE
  41
1
  42
1
  43
1
  50
0
  10
259406.171
  20
4505375.564
 66
1
  0
ATTRIB
  8
FeatureAttribs
 70
0
  1
PNOA-H_AMS_1956-57_33k_ES_PAN_21mic_H50_0502_fot_62B-04154_W.tif
  2
NAME
  10
259406.171
  20
4505375.564
 40
34.68807
  0
SEQEND
  0
POLYLINE
  8
LC_OH_2021_05_O7
  70
1
  66
1
  0
VERTEX
  8
LC_OH_2021_05_O7
  10
260087.162
  20
4505629.173
  0
VERTEX
  8
LC_OH_2021_05_O7
  10
260066.000
  20
4505253.500
  0
VERTEX
  8
LC_OH_2021_05_O7
  10
259651.000
  20
4505078.500
  0
VERTEX
  8
LC_OH_2021_05_O7
  10
258725.180
  20
4505223.626
  0
VERTEX
  8
LC_OH_2021_05_O7
  10
258739.765
  20
4505672.628
  0
SEQEND
  8
LC_OH_2021_05_O7
  0
INSERT
  8
FeatureAttribs
  2
FEATURE
  41
1
  42
1
  43
1
  50
0
  10
283834.472
  20
4504550.699
 66
1
  0
ATTRIB
  8
FeatureAttribs
 70
0
  1
PNOA-H_AMS_1956-57_33k_ES_PAN_21mic_H50_0503_fot_62B-04145_W.tif
  2
NAME
  10
283834.472
  20
4504550.699
 40
34.68807
  0
SEQEND
  0
POLYLINE
  8
LC_OH_2021_05_O7
  70
1
  66
1
  0
VERTEX
  8
LC_OH_2021_05_O7
  10
284522.533
  20
4504879.972
  0
VERTEX
  8
LC_OH_2021_05_O7
  10
284418.501
  20
4504255.500
  0
VERTEX
  8
LC_OH_2021_05_O7
  10
284418.501
  20
4504254.500
  0
VERTEX
  8
LC_OH_2021_05_O7
  10
284407.001
  20
4504183.500
  0
VERTEX
  8
LC_OH_2021_05_O7
  10
284406.501
  20
4504181.500
  0
VERTEX
  8
LC_OH_2021_05_O7
  10
284405.001
  20
4504181.500
  0
VERTEX
  8
LC_OH_2021_05_O7
  10
283157.501
  20
4504377.500
  0
VERTEX
  8
LC_OH_2021_05_O7
  10
283146.411
  20
4504919.898
  0
VERTEX
  8
LC_OH_2021_05_O7
  10
283396.742
  20
4504912.538
  0
SEQEND
  8
LC_OH_2021_05_O7
  0
INSERT
  8
FeatureAttribs
  2
FEATURE
  41
1
  42
1
  43
1
  50
0
  10
267437.509
  20
4505014.537
 66
1
  0
ATTRIB
  8
FeatureAttribs
 70
0
  1
PNOA-H_AMS_1956-57_33k_ES_PAN_21mic_H50_0503_fot_62B-04151_W.tif
  2
NAME
  10
267437.509
  20
4505014.537
 40
34.68807
  0
SEQEND
  0
POLYLINE
  8
LC_OH_2021_05_O7
  70
1
  66
1
  0
VERTEX
  8
LC_OH_2021_05_O7
  10
268901.517
  20
4505349.530
  0
VERTEX
  8
LC_OH_2021_05_O7
  10
268874.000
  20
4504880.500
  0
VERTEX
  8
LC_OH_2021_05_O7
  10
268873.500
  20
4504879.000
  0
VERTEX
  8
LC_OH_2021_05_O7
  10
268857.500
  20
4504873.500
  0
VERTEX
  8
LC_OH_2021_05_O7
  10
268023.000
  20
4504588.500
  0
VERTEX
  8
LC_OH_2021_05_O7
  10
265973.500
  20
4505064.500
  0
VERTEX
  8
LC_OH_2021_05_O7
  10
265992.908
  20
4505440.574
  0
SEQEND
  8
LC_OH_2021_05_O7
  0
INSERT
  8
FeatureAttribs
  2
FEATURE
  41
1
  42
1
  43
1
  50
0
  10
261545.396
  20
4505269.336
 66
1
  0
ATTRIB
  8
FeatureAttribs
 70
0
  1
PNOA-H_AMS_1956-57_33k_ES_PAN_21mic_H50_0503_fot_62B-04153_W.tif
  2
NAME
  10
261545.396
  20
4505269.336
 40
34.68807
  0
SEQEND
  0
POLYLINE
  8
LC_OH_2021_05_O7
  70
1
  66
1
  0
VERTEX
  8
LC_OH_2021_05_O7
  10
263024.792
  20
4505534.792
  0
VERTEX
  8
LC_OH_2021_05_O7
  10
263003.500
  20
4505156.000
  0
VERTEX
  8
LC_OH_2021_05_O7
  10
262404.000
  20
4504909.500
  0
VERTEX
  8
LC_OH_2021_05_O7
  10
260066.000
  20
4505253.500
  0
VERTEX
  8
LC_OH_2021_05_O7
  10
260087.162
  20
4505629.173
  0
VERTEX
  8
LC_OH_2021_05_O7
  10
262262.246
  20
4505559.023
  0
SEQEND
  8
LC_OH_2021_05_O7
  0
INSERT
  8
FeatureAttribs
  2
FEATURE
  41
1
  42
1
  43
1
  50
0
  10
273181.641
  20
4504780.173
 66
1
  0
ATTRIB
  8
FeatureAttribs
 70
0
  1
PNOA-H_AMS_1956-57_33k_ES_PAN_21mic_H50_0503_fot_62B-04149_W.tif
  2
NAME
  10
273181.641
  20
4504780.173
 40
34.68807
  0
SEQEND
  0
POLYLINE
  8
LC_OH_2021_05_O7
  70
1
  66
1
  0
VERTEX
  8
LC_OH_2021_05_O7
  10
274608.782
  20
4505174.248
  0
VERTEX
  8
LC_OH_2021_05_O7
  10
274557.001
  20
4504590.500
  0
VERTEX
  8
LC_OH_2021_05_O7
  10
273781.001
  20
4504302.500
  0
VERTEX
  8
LC_OH_2021_05_O7
  10
273774.001
  20
4504300.000
  0
VERTEX
  8
LC_OH_2021_05_O7
  10
273770.501
  20
4504300.000
  0
VERTEX
  8
LC_OH_2021_05_O7
  10
271754.501
  20
4504754.000
  0
VERTEX
  8
LC_OH_2021_05_O7
  10
271788.397
  20
4505260.345
  0
VERTEX
  8
LC_OH_2021_05_O7
  10
272829.576
  20
4505228.249
  0
SEQEND
  8
LC_OH_2021_05_O7
  0
INSERT
  8
FeatureAttribs
  2
FEATURE
  41
1
  42
1
  43
1
  50
0
  10
275985.000
  20
4504654.376
 66
1
  0
ATTRIB
  8
FeatureAttribs
 70
0
  1
PNOA-H_AMS_1956-57_33k_ES_PAN_21mic_H50_0503_fot_62B-04148_W.tif
  2
NAME
  10
275985.000
  20
4504654.376
 40
34.68807
  0
SEQEND
  0
POLYLINE
  8
LC_OH_2021_05_O7
  70
1
  66
1
  0
VERTEX
  8
LC_OH_2021_05_O7
  10
277412.999
  20
4505089.639
  0
VERTEX
  8
LC_OH_2021_05_O7
  10
277363.001
  20
4504446.500
  0
VERTEX
  8
LC_OH_2021_05_O7
  10
276646.001
  20
4504140.500
  0
VERTEX
  8
LC_OH_2021_05_O7
  10
276633.001
  20
4504135.000
  0
VERTEX
  8
LC_OH_2021_05_O7
  10
276629.001
  20
4504134.500
  0
VERTEX
  8
LC_OH_2021_05_O7
  10
274560.001
  20
4504589.500
  0
VERTEX
  8
LC_OH_2021_05_O7
  10
274557.001
  20
4504590.500
  0
VERTEX
  8
LC_OH_2021_05_O7
  10
274557.501
  20
4504598.000
  0
VERTEX
  8
LC_OH_2021_05_O7
  10
274608.640
  20
4505174.252
  0
VERTEX
  8
LC_OH_2021_05_O7
  10
276351.982
  20
4505121.339
  0
SEQEND
  8
LC_OH_2021_05_O7
  0
INSERT
  8
FeatureAttribs
  2
FEATURE
  41
1
  42
1
  43
1
  50
0
  10
278782.979
  20
4504575.826
 66
1
  0
ATTRIB
  8
FeatureAttribs
 70
0
  1
PNOA-H_AMS_1956-57_33k_ES_PAN_21mic_H50_0503_fot_62B-04147_W.tif
  2
NAME
  10
278782.979
  20
4504575.826
 40
34.68807
  0
SEQEND
  0
POLYLINE
  8
LC_OH_2021_05_O7
  70
1
  66
1
  0
VERTEX
  8
LC_OH_2021_05_O7
  10
280202.958
  20
4505006.441
  0
VERTEX
  8
LC_OH_2021_05_O7
  10
280133.001
  20
4504400.500
  0
VERTEX
  8
LC_OH_2021_05_O7
  10
279448.001
  20
4504062.000
  0
VERTEX
  8
LC_OH_2021_05_O7
  10
277371.501
  20
4504444.500
  0
VERTEX
  8
LC_OH_2021_05_O7
  10
277363.501
  20
4504446.000
  0
VERTEX
  8
LC_OH_2021_05_O7
  10
277363.001
  20
4504452.500
  0
VERTEX
  8
LC_OH_2021_05_O7
  10
277412.545
  20
4505089.653
  0
VERTEX
  8
LC_OH_2021_05_O7
  10
279874.371
  20
4505016.102
  0
SEQEND
  8
LC_OH_2021_05_O7
  0
INSERT
  8
FeatureAttribs
  2
FEATURE
  41
1
  42
1
  43
1
  50
0
  10
270330.729
  20
4504880.272
 66
1
  0
ATTRIB
  8
FeatureAttribs
 70
0
  1
PNOA-H_AMS_1956-57_33k_ES_PAN_21mic_H50_0503_fot_62B-04150_W.tif
  2
NAME
  10
270330.729
  20
4504880.272
 40
34.68807
  0
SEQEND
  0
POLYLINE
  8
LC_OH_2021_05_O7
  70
1
  66
1
  0
VERTEX
  8
LC_OH_2021_05_O7
  10
271787.958
  20
4505260.359
  0
VERTEX
  8
LC_OH_2021_05_O7
  10
271754.001
  20
4504754.000
  0
VERTEX
  8
LC_OH_2021_05_O7
  10
270831.000
  20
4504411.000
  0
VERTEX
  8
LC_OH_2021_05_O7
  10
268873.500
  20
4504879.500
  0
VERTEX
  8
LC_OH_2021_05_O7
  10
268901.089
  20
4505349.544
  0
VERTEX
  8
LC_OH_2021_05_O7
  10
269307.151
  20
4505336.833
  0
SEQEND
  8
LC_OH_2021_05_O7
  0
INSERT
  8
FeatureAttribs
  2
FEATURE
  41
1
  42
1
  43
1
  50
0
  10
264498.212
  20
4505151.896
 66
1
  0
ATTRIB
  8
FeatureAttribs
 70
0
  1
PNOA-H_AMS_1956-57_33k_ES_PAN_21mic_H50_0503_fot_62B-04152_W.tif
  2
NAME
  10
264498.212
  20
4505151.896
 40
34.68807
  0
SEQEND
  0
POLYLINE
  8
LC_OH_2021_05_O7
  70
1
  66
1
  0
VERTEX
  8
LC_OH_2021_05_O7
  10
265992.924
  20
4505440.574
  0
VERTEX
  8
LC_OH_2021_05_O7
  10
265973.500
  20
4505065.000
  0
VERTEX
  8
LC_OH_2021_05_O7
  10
265161.500
  20
4504769.000
  0
VERTEX
  8
LC_OH_2021_05_O7
  10
263003.500
  20
4505156.000
  0
VERTEX
  8
LC_OH_2021_05_O7
  10
263024.771
  20
4505534.792
  0
VERTEX
  8
LC_OH_2021_05_O7
  10
265784.708
  20
4505447.091
  0
SEQEND
  8
LC_OH_2021_05_O7
  0
INSERT
  8
FeatureAttribs
  2
FEATURE
  41
1
  42
1
  43
1
  50
0
  10
286476.298
  20
4504484.853
 66
1
  0
ATTRIB
  8
FeatureAttribs
 70
0
  1
PNOA-H_AMS_1956-57_33k_ES_PAN_21mic_H50_0504_fot_62B-04144_W.tif
  2
NAME
  10
286476.298
  20
4504484.853
 40
34.68807
  0
SEQEND
  0
POLYLINE
  8
LC_OH_2021_05_O7
  70
1
  66
1
  0
VERTEX
  8
LC_OH_2021_05_O7
  10
286899.693
  20
4504134.237
  0
VERTEX
  8
LC_OH_2021_05_O7
  10
286033.501
  20
4504256.000
  0
VERTEX
  8
LC_OH_2021_05_O7
  10
286061.011
  20
4504835.469
  0
VERTEX
  8
LC_OH_2021_05_O7
  10
286919.095
  20
4504810.647
  0
SEQEND
  8
LC_OH_2021_05_O7
  0
INSERT
  8
FeatureAttribs
  2
FEATURE
  41
1
  42
1
  43
1
  50
0
  10
258286.750
  20
4490122.501
 66
1
  0
ATTRIB
  8
FeatureAttribs
 70
0
  1
PNOA-H_AMS_1956-57_33k_ES_PAN_21mic_H50_0527_fot_66A-18864_E.tif
  2
NAME
  10
258286.750
  20
4490122.501
 40
34.68807
  0
SEQEND
  0
POLYLINE
  8
LC_OH_2021_05_O7
  70
1
  66
1
  0
VERTEX
  8
LC_OH_2021_05_O7
  10
258316.569
  20
4492631.166
  0
VERTEX
  8
LC_OH_2021_05_O7
  10
258646.500
  20
4492635.500
  0
VERTEX
  8
LC_OH_2021_05_O7
  10
259181.000
  20
4492565.500
  0
VERTEX
  8
LC_OH_2021_05_O7
  10
259183.500
  20
4492565.500
  0
VERTEX
  8
LC_OH_2021_05_O7
  10
259814.500
  20
4492483.500
  0
VERTEX
  8
LC_OH_2021_05_O7
  10
259541.500
  20
4487847.500
  0
VERTEX
  8
LC_OH_2021_05_O7
  10
258155.138
  20
4487648.252
  0
VERTEX
  8
LC_OH_2021_05_O7
  10
258214.518
  20
4489481.777
  0
VERTEX
  8
LC_OH_2021_05_O7
  10
258289.457
  20
4491794.737
  0
SEQEND
  8
LC_OH_2021_05_O7
  0
INSERT
  8
FeatureAttribs
  2
FEATURE
  41
1
  42
1
  43
1
  50
0
  10
283870.188
  20
4488800.250
 66
1
  0
ATTRIB
  8
FeatureAttribs
 70
0
  1
PNOA-H_AMS_1956-57_33k_ES_PAN_21mic_H50_0528_fot_66A-18855_E.tif
  2
NAME
  10
283870.188
  20
4488800.250
 40
34.68807
  0
SEQEND
  0
POLYLINE
  8
LC_OH_2021_05_O7
  70
1
  66
1
  0
VERTEX
  8
LC_OH_2021_05_O7
  10
285042.674
  20
4486346.441
  0
VERTEX
  8
LC_OH_2021_05_O7
  10
282858.025
  20
4486409.422
  0
VERTEX
  8
LC_OH_2021_05_O7
  10
282597.702
  20
4486417.050
  0
VERTEX
  8
LC_OH_2021_05_O7
  10
282384.001
  20
4486459.500
  0
VERTEX
  8
LC_OH_2021_05_O7
  10
282527.501
  20
4491277.500
  0
VERTEX
  8
LC_OH_2021_05_O7
  10
283210.001
  20
4491535.500
  0
VERTEX
  8
LC_OH_2021_05_O7
  10
283758.501
  20
4491432.000
  0
VERTEX
  8
LC_OH_2021_05_O7
  10
283759.501
  20
4491432.000
  0
VERTEX
  8
LC_OH_2021_05_O7
  10
285515.501
  20
4491102.000
  0
SEQEND
  8
LC_OH_2021_05_O7
  0
INSERT
  8
FeatureAttribs
  2
FEATURE
  41
1
  42
1
  43
1
  50
0
  10
285786.767
  20
4488820.562
 66
1
  0
ATTRIB
  8
FeatureAttribs
 70
0
  1
PNOA-H_AMS_1956-57_33k_ES_PAN_21mic_H50_0528_fot_66A-18854_E.tif
  2
NAME
  10
285786.767
  20
4488820.562
 40
34.68807
  0
SEQEND
  0
POLYLINE
  8
LC_OH_2021_05_O7
  70
1
  66
1
  0
VERTEX
  8
LC_OH_2021_05_O7
  10
286530.863
  20
4491261.572
  0
VERTEX
  8
LC_OH_2021_05_O7
  10
286521.468
  20
4490933.339
  0
VERTEX
  8
LC_OH_2021_05_O7
  10
286455.296
  20
4488620.478
  0
VERTEX
  8
LC_OH_2021_05_O7
  10
286389.152
  20
4486307.624
  0
VERTEX
  8
LC_OH_2021_05_O7
  10
285042.671
  20
4486346.441
  0
VERTEX
  8
LC_OH_2021_05_O7
  10
285515.001
  20
4491100.000
  0
VERTEX
  8
LC_OH_2021_05_O7
  10
285516.001
  20
4491102.500
  0
VERTEX
  8
LC_OH_2021_05_O7
  10
285805.501
  20
4491207.000
  0
VERTEX
  8
LC_OH_2021_05_O7
  10
285806.501
  20
4491207.500
  0
VERTEX
  8
LC_OH_2021_05_O7
  10
286156.501
  20
4491333.500
  0
SEQEND
  8
LC_OH_2021_05_O7
  0
INSERT
  8
FeatureAttribs
  2
FEATURE
  41
1
  42
1
  43
1
  50
0
  10
275455.439
  20
4489136.750
 66
1
  0
ATTRIB
  8
FeatureAttribs
 70
0
  1
PNOA-H_AMS_1956-57_33k_ES_PAN_21mic_H50_0528_fot_66A-18858_E.tif
  2
NAME
  10
275455.439
  20
4489136.750
 40
34.68807
  0
SEQEND
  0
POLYLINE
  8
LC_OH_2021_05_O7
  70
1
  66
1
  0
VERTEX
  8
LC_OH_2021_05_O7
  10
276438.962
  20
4486598.881
  0
VERTEX
  8
LC_OH_2021_05_O7
  10
275795.716
  20
4486618.034
  0
VERTEX
  8
LC_OH_2021_05_O7
  10
274597.069
  20
4486654.291
  0
VERTEX
  8
LC_OH_2021_05_O7
  10
273822.001
  20
4486867.500
  0
VERTEX
  8
LC_OH_2021_05_O7
  10
274195.001
  20
4491714.000
  0
VERTEX
  8
LC_OH_2021_05_O7
  10
274607.001
  20
4491899.500
  0
VERTEX
  8
LC_OH_2021_05_O7
  10
275565.501
  20
4491779.000
  0
VERTEX
  8
LC_OH_2021_05_O7
  10
275567.501
  20
4491779.000
  0
VERTEX
  8
LC_OH_2021_05_O7
  10
277015.001
  20
4491597.000
  0
VERTEX
  8
LC_OH_2021_05_O7
  10
276814.501
  20
4486701.500
  0
SEQEND
  8
LC_OH_2021_05_O7
  0
INSERT
  8
FeatureAttribs
  2
FEATURE
  41
1
  42
1
  43
1
  50
0
  10
281065.393
  20
4488904.000
 66
1
  0
ATTRIB
  8
FeatureAttribs
 70
0
  1
PNOA-H_AMS_1956-57_33k_ES_PAN_21mic_H50_0528_fot_66A-18856_E.tif
  2
NAME
  10
281065.393
  20
4488904.000
 40
34.68807
  0
SEQEND
  0
POLYLINE
  8
LC_OH_2021_05_O7
  70
1
  66
1
  0
VERTEX
  8
LC_OH_2021_05_O7
  10
282286.713
  20
4486426.163
  0
VERTEX
  8
LC_OH_2021_05_O7
  10
279715.782
  20
4486501.496
  0
VERTEX
  8
LC_OH_2021_05_O7
  10
279477.501
  20
4486548.500
  0
VERTEX
  8
LC_OH_2021_05_O7
  10
279663.001
  20
4488767.000
  0
VERTEX
  8
LC_OH_2021_05_O7
  10
279663.001
  20
4488773.000
  0
VERTEX
  8
LC_OH_2021_05_O7
  10
279888.501
  20
4491469.000
  0
VERTEX
  8
LC_OH_2021_05_O7
  10
280367.501
  20
4491650.500
  0
VERTEX
  8
LC_OH_2021_05_O7
  10
280381.001
  20
4491655.500
  0
VERTEX
  8
LC_OH_2021_05_O7
  10
280384.501
  20
4491655.500
  0
VERTEX
  8
LC_OH_2021_05_O7
  10
282527.501
  20
4491277.500
  0
VERTEX
  8
LC_OH_2021_05_O7
  10
282384.001
  20
4486459.500
  0
SEQEND
  8
LC_OH_2021_05_O7
  0
INSERT
  8
FeatureAttribs
  2
FEATURE
  41
1
  42
1
  43
1
  50
0
  10
261056.429
  20
4490125.000
 66
1
  0
ATTRIB
  8
FeatureAttribs
 70
0
  1
PNOA-H_AMS_1956-57_33k_ES_PAN_21mic_H50_0528_fot_66A-18863_E.tif
  2
NAME
  10
261056.429
  20
4490125.000
 40
34.68807
  0
SEQEND
  0
POLYLINE
  8
LC_OH_2021_05_O7
  70
1
  66
1
  0
VERTEX
  8
LC_OH_2021_05_O7
  10
259814.500
  20
4492483.500
  0
VERTEX
  8
LC_OH_2021_05_O7
  10
260325.000
  20
4492770.500
  0
VERTEX
  8
LC_OH_2021_05_O7
  10
260326.000
  20
4492771.000
  0
VERTEX
  8
LC_OH_2021_05_O7
  10
262577.500
  20
4492353.500
  0
VERTEX
  8
LC_OH_2021_05_O7
  10
262287.500
  20
4487746.000
  0
VERTEX
  8
LC_OH_2021_05_O7
  10
260662.000
  20
4487479.000
  0
VERTEX
  8
LC_OH_2021_05_O7
  10
259541.500
  20
4487847.500
  0
SEQEND
  8
LC_OH_2021_05_O7
  0
INSERT
  8
FeatureAttribs
  2
FEATURE
  41
1
  42
1
  43
1
  50
0
  10
263807.043
  20
4489987.249
 66
1
  0
ATTRIB
  8
FeatureAttribs
 70
0
  1
PNOA-H_AMS_1956-57_33k_ES_PAN_21mic_H50_0528_fot_66A-18862_E.tif
  2
NAME
  10
263807.043
  20
4489987.249
 40
34.68807
  0
SEQEND
  0
POLYLINE
  8
LC_OH_2021_05_O7
  70
1
  66
1
  0
VERTEX
  8
LC_OH_2021_05_O7
  10
263220.000
  20
4492660.500
  0
VERTEX
  8
LC_OH_2021_05_O7
  10
263264.500
  20
4492653.000
  0
VERTEX
  8
LC_OH_2021_05_O7
  10
265403.000
  20
4492255.000
  0
VERTEX
  8
LC_OH_2021_05_O7
  10
264954.000
  20
4487569.000
  0
VERTEX
  8
LC_OH_2021_05_O7
  10
263663.000
  20
4487314.000
  0
VERTEX
  8
LC_OH_2021_05_O7
  10
262287.500
  20
4487746.000
  0
VERTEX
  8
LC_OH_2021_05_O7
  10
262577.000
  20
4492351.500
  0
VERTEX
  8
LC_OH_2021_05_O7
  10
262577.500
  20
4492354.000
  0
VERTEX
  8
LC_OH_2021_05_O7
  10
262580.500
  20
4492355.500
  0
VERTEX
  8
LC_OH_2021_05_O7
  10
263219.000
  20
4492660.000
  0
VERTEX
  8
LC_OH_2021_05_O7
  10
263220.000
  20
4492660.500
  0
SEQEND
  8
LC_OH_2021_05_O7
  0
INSERT
  8
FeatureAttribs
  2
FEATURE
  41
1
  42
1
  43
1
  50
0
  10
269535.001
  20
4489576.751
 66
1
  0
ATTRIB
  8
FeatureAttribs
 70
0
  1
PNOA-H_AMS_1956-57_33k_ES_PAN_21mic_H50_0528_fot_66A-18860_E.tif
  2
NAME
  10
269535.001
  20
4489576.751
 40
34.68807
  0
SEQEND
  0
POLYLINE
  8
LC_OH_2021_05_O7
  70
1
  66
1
  0
VERTEX
  8
LC_OH_2021_05_O7
  10
268276.500
  20
4492012.000
  0
VERTEX
  8
LC_OH_2021_05_O7
  10
268289.000
  20
4492018.500
  0
VERTEX
  8
LC_OH_2021_05_O7
  10
268930.500
  20
4492305.500
  0
VERTEX
  8
LC_OH_2021_05_O7
  10
268932.000
  20
4492306.000
  0
VERTEX
  8
LC_OH_2021_05_O7
  10
271276.001
  20
4491876.000
  0
VERTEX
  8
LC_OH_2021_05_O7
  10
270776.501
  20
4487130.000
  0
VERTEX
  8
LC_OH_2021_05_O7
  10
270776.001
  20
4487125.500
  0
VERTEX
  8
LC_OH_2021_05_O7
  10
270775.001
  20
4487125.000
  0
VERTEX
  8
LC_OH_2021_05_O7
  10
269688.500
  20
4486847.500
  0
VERTEX
  8
LC_OH_2021_05_O7
  10
267819.500
  20
4487385.000
  0
SEQEND
  8
LC_OH_2021_05_O7
  0
INSERT
  8
FeatureAttribs
  2
FEATURE
  41
1
  42
1
  43
1
  50
0
  10
266612.648
  20
4489795.250
 66
1
  0
ATTRIB
  8
FeatureAttribs
 70
0
  1
PNOA-H_AMS_1956-57_33k_ES_PAN_21mic_H50_0528_fot_66A-18861_E.tif
  2
NAME
  10
266612.648
  20
4489795.250
 40
34.68807
  0
SEQEND
  0
POLYLINE
  8
LC_OH_2021_05_O7
  70
1
  66
1
  0
VERTEX
  8
LC_OH_2021_05_O7
  10
265403.000
  20
4492255.000
  0
VERTEX
  8
LC_OH_2021_05_O7
  10
265956.000
  20
4492501.000
  0
VERTEX
  8
LC_OH_2021_05_O7
  10
267373.000
  20
4492202.500
  0
VERTEX
  8
LC_OH_2021_05_O7
  10
267375.500
  20
4492202.000
  0
VERTEX
  8
LC_OH_2021_05_O7
  10
268277.000
  20
4492012.500
  0
VERTEX
  8
LC_OH_2021_05_O7
  10
267820.000
  20
4487386.000
  0
VERTEX
  8
LC_OH_2021_05_O7
  10
267819.000
  20
4487384.500
  0
VERTEX
  8
LC_OH_2021_05_O7
  10
267795.000
  20
4487378.500
  0
VERTEX
  8
LC_OH_2021_05_O7
  10
266621.500
  20
4487089.500
  0
VERTEX
  8
LC_OH_2021_05_O7
  10
266617.000
  20
4487089.500
  0
VERTEX
  8
LC_OH_2021_05_O7
  10
264954.000
  20
4487569.000
  0
SEQEND
  8
LC_OH_2021_05_O7
  0
INSERT
  8
FeatureAttribs
  2
FEATURE
  41
1
  42
1
  43
1
  50
0
  10
272509.128
  20
4489324.750
 66
1
  0
ATTRIB
  8
FeatureAttribs
 70
0
  1
PNOA-H_AMS_1956-57_33k_ES_PAN_21mic_H50_0528_fot_66A-18859_E.tif
  2
NAME
  10
272509.128
  20
4489324.750
 40
34.68807
  0
SEQEND
  0
POLYLINE
  8
LC_OH_2021_05_O7
  70
1
  66
1
  0
VERTEX
  8
LC_OH_2021_05_O7
  10
273189.193
  20
4486696.878
  0
VERTEX
  8
LC_OH_2021_05_O7
  10
272264.534
  20
4486724.847
  0
VERTEX
  8
LC_OH_2021_05_O7
  10
272167.692
  20
4486727.823
  0
VERTEX
  8
LC_OH_2021_05_O7
  10
270776.001
  20
4487125.500
  0
VERTEX
  8
LC_OH_2021_05_O7
  10
271275.501
  20
4491874.500
  0
VERTEX
  8
LC_OH_2021_05_O7
  10
271277.501
  20
4491877.000
  0
VERTEX
  8
LC_OH_2021_05_O7
  10
271744.001
  20
4492079.500
  0
VERTEX
  8
LC_OH_2021_05_O7
  10
274195.001
  20
4491714.000
  0
VERTEX
  8
LC_OH_2021_05_O7
  10
273899.001
  20
4487872.000
  0
VERTEX
  8
LC_OH_2021_05_O7
  10
273899.001
  20
4487870.500
  0
VERTEX
  8
LC_OH_2021_05_O7
  10
273822.001
  20
4486868.000
  0
SEQEND
  8
LC_OH_2021_05_O7
  0
INSERT
  8
FeatureAttribs
  2
FEATURE
  41
1
  42
1
  43
1
  50
0
  10
278298.213
  20
4489043.750
 66
1
  0
ATTRIB
  8
FeatureAttribs
 70
0
  1
PNOA-H_AMS_1956-57_33k_ES_PAN_21mic_H50_0528_fot_66A-18857_E.tif
  2
NAME
  10
278298.213
  20
4489043.750
 40
34.68807
  0
SEQEND
  0
POLYLINE
  8
LC_OH_2021_05_O7
  70
1
  66
1
  0
VERTEX
  8
LC_OH_2021_05_O7
  10
279360.447
  20
4486511.909
  0
VERTEX
  8
LC_OH_2021_05_O7
  10
279326.880
  20
4486512.892
  0
VERTEX
  8
LC_OH_2021_05_O7
  10
277333.266
  20
4486572.253
  0
VERTEX
  8
LC_OH_2021_05_O7
  10
276814.501
  20
4486701.500
  0
VERTEX
  8
LC_OH_2021_05_O7
  10
277015.001
  20
4491597.000
  0
VERTEX
  8
LC_OH_2021_05_O7
  10
277530.501
  20
4491822.000
  0
VERTEX
  8
LC_OH_2021_05_O7
  10
277532.001
  20
4491822.500
  0
VERTEX
  8
LC_OH_2021_05_O7
  10
279888.501
  20
4491469.000
  0
VERTEX
  8
LC_OH_2021_05_O7
  10
279483.001
  20
4486612.500
  0
VERTEX
  8
LC_OH_2021_05_O7
  10
279478.001
  20
4486553.000
  0
VERTEX
  8
LC_OH_2021_05_O7
  10
279477.501
  20
4486548.500
  0
VERTEX
  8
LC_OH_2021_05_O7
  10
279476.501
  20
4486548.000
  0
SEQEND
  8
LC_OH_2021_05_O7
  0
INSERT
  8
FeatureAttribs
  2
FEATURE
  41
1
  42
1
  43
1
  50
0
  10
277580.102
  20
4497883.499
 66
1
  0
ATTRIB
  8
FeatureAttribs
 70
0
  1
PNOA-H_AMS_1956-57_33k_ES_PAN_21mic_H50_0528_fot_64A-30172_W.tif
  2
NAME
  10
277580.102
  20
4497883.499
 40
34.68807
  0
SEQEND
  0
POLYLINE
  8
LC_OH_2021_05_O7
  70
1
  66
1
  0
VERTEX
  8
LC_OH_2021_05_O7
  10
277615.501
  20
4499957.500
  0
VERTEX
  8
LC_OH_2021_05_O7
  10
279260.501
  20
4499765.000
  0
VERTEX
  8
LC_OH_2021_05_O7
  10
279093.501
  20
4496271.500
  0
VERTEX
  8
LC_OH_2021_05_O7
  10
277645.501
  20
4495691.500
  0
VERTEX
  8
LC_OH_2021_05_O7
  10
275936.001
  20
4496393.500
  0
VERTEX
  8
LC_OH_2021_05_O7
  10
276057.001
  20
4499756.500
  0
VERTEX
  8
LC_OH_2021_05_O7
  10
276608.001
  20
4500075.500
  0
VERTEX
  8
LC_OH_2021_05_O7
  10
277611.001
  20
4499958.000
  0
VERTEX
  8
LC_OH_2021_05_O7
  10
277615.501
  20
4499957.500
  0
SEQEND
  8
LC_OH_2021_05_O7
  0
INSERT
  8
FeatureAttribs
  2
FEATURE
  41
1
  42
1
  43
1
  50
0
  10
274446.686
  20
4498012.999
 66
1
  0
ATTRIB
  8
FeatureAttribs
 70
0
  1
PNOA-H_AMS_1956-57_33k_ES_PAN_21mic_H50_0528_fot_64A-30173_W.tif
  2
NAME
  10
274446.686
  20
4498012.999
 40
34.68807
  0
SEQEND
  0
POLYLINE
  8
LC_OH_2021_05_O7
  70
1
  66
1
  0
VERTEX
  8
LC_OH_2021_05_O7
  10
273519.001
  20
4500128.000
  0
VERTEX
  8
LC_OH_2021_05_O7
  10
273660.001
  20
4500198.000
  0
VERTEX
  8
LC_OH_2021_05_O7
  10
273663.001
  20
4500198.500
  0
VERTEX
  8
LC_OH_2021_05_O7
  10
276057.001
  20
4499756.500
  0
VERTEX
  8
LC_OH_2021_05_O7
  10
275935.501
  20
4496393.500
  0
VERTEX
  8
LC_OH_2021_05_O7
  10
274736.001
  20
4495827.500
  0
VERTEX
  8
LC_OH_2021_05_O7
  10
272875.001
  20
4496410.000
  0
VERTEX
  8
LC_OH_2021_05_O7
  10
272927.001
  20
4499835.000
  0
VERTEX
  8
LC_OH_2021_05_O7
  10
273518.001
  20
4500127.500
  0
VERTEX
  8
LC_OH_2021_05_O7
  10
273519.001
  20
4500128.000
  0
SEQEND
  8
LC_OH_2021_05_O7
  0
INSERT
  8
FeatureAttribs
  2
FEATURE
  41
1
  42
1
  43
1
  50
0
  10
280731.065
  20
4497789.249
 66
1
  0
ATTRIB
  8
FeatureAttribs
 70
0
  1
PNOA-H_AMS_1956-57_33k_ES_PAN_21mic_H50_0528_fot_64A-30171_W.tif
  2
NAME
  10
280731.065
  20
4497789.249
 40
34.68807
  0
SEQEND
  0
POLYLINE
  8
LC_OH_2021_05_O7
  70
1
  66
1
  0
VERTEX
  8
LC_OH_2021_05_O7
  10
279655.501
  20
4500001.500
  0
VERTEX
  8
LC_OH_2021_05_O7
  10
282397.501
  20
4499837.500
  0
VERTEX
  8
LC_OH_2021_05_O7
  10
282213.001
  20
4496113.000
  0
VERTEX
  8
LC_OH_2021_05_O7
  10
280609.501
  20
4495585.500
  0
VERTEX
  8
LC_OH_2021_05_O7
  10
280583.501
  20
4495577.000
  0
VERTEX
  8
LC_OH_2021_05_O7
  10
280580.501
  20
4495577.000
  0
VERTEX
  8
LC_OH_2021_05_O7
  10
279093.501
  20
4496271.000
  0
VERTEX
  8
LC_OH_2021_05_O7
  10
279260.501
  20
4499765.000
  0
VERTEX
  8
LC_OH_2021_05_O7
  10
279655.001
  20
4500000.500
  0
VERTEX
  8
LC_OH_2021_05_O7
  10
279655.501
  20
4500001.500
  0
SEQEND
  8
LC_OH_2021_05_O7
  0
INSERT
  8
FeatureAttribs
  2
FEATURE
  41
1
  42
1
  43
1
  50
0
  10
283851.616
  20
4497666.499
 66
1
  0
ATTRIB
  8
FeatureAttribs
 70
0
  1
PNOA-H_AMS_1956-57_33k_ES_PAN_21mic_H50_0528_fot_64A-30170_W.tif
  2
NAME
  10
283851.616
  20
4497666.499
 40
34.68807
  0
SEQEND
  0
POLYLINE
  8
LC_OH_2021_05_O7
  70
1
  66
1
  0
VERTEX
  8
LC_OH_2021_05_O7
  10
282397.501
  20
4499837.500
  0
VERTEX
  8
LC_OH_2021_05_O7
  10
282504.501
  20
4499902.500
  0
VERTEX
  8
LC_OH_2021_05_O7
  10
285288.001
  20
4499900.000
  0
VERTEX
  8
LC_OH_2021_05_O7
  10
285481.001
  20
4499784.000
  0
VERTEX
  8
LC_OH_2021_05_O7
  10
285357.501
  20
4495915.000
  0
VERTEX
  8
LC_OH_2021_05_O7
  10
283468.001
  20
4495430.500
  0
VERTEX
  8
LC_OH_2021_05_O7
  10
282213.001
  20
4496112.500
  0
VERTEX
  8
LC_OH_2021_05_O7
  10
282213.001
  20
4496118.000
  0
SEQEND
  8
LC_OH_2021_05_O7
  0
INSERT
  8
FeatureAttribs
  2
FEATURE
  41
1
  42
1
  43
1
  50
0
  10
259120.795
  20
4498227.999
 66
1
  0
ATTRIB
  8
FeatureAttribs
 70
0
  1
PNOA-H_AMS_1956-57_33k_ES_PAN_21mic_H50_0528_fot_64A-30178_W.tif
  2
NAME
  10
259120.795
  20
4498227.999
 40
34.68807
  0
SEQEND
  0
POLYLINE
  8
LC_OH_2021_05_O7
  70
1
  66
1
  0
VERTEX
  8
LC_OH_2021_05_O7
  10
258558.783
  20
4500099.144
  0
VERTEX
  8
LC_OH_2021_05_O7
  10
259591.000
  20
4500360.500
  0
VERTEX
  8
LC_OH_2021_05_O7
  10
259593.000
  20
4500361.000
  0
VERTEX
  8
LC_OH_2021_05_O7
  10
260671.500
  20
4499943.500
  0
VERTEX
  8
LC_OH_2021_05_O7
  10
260594.000
  20
4496319.500
  0
VERTEX
  8
LC_OH_2021_05_O7
  10
260593.500
  20
4496316.500
  0
VERTEX
  8
LC_OH_2021_05_O7
  10
260590.500
  20
4496313.500
  0
VERTEX
  8
LC_OH_2021_05_O7
  10
260331.500
  20
4496095.000
  0
VERTEX
  8
LC_OH_2021_05_O7
  10
258468.500
  20
4496238.500
  0
VERTEX
  8
LC_OH_2021_05_O7
  10
258433.800
  20
4496247.015
  0
VERTEX
  8
LC_OH_2021_05_O7
  10
258439.431
  20
4496420.676
  0
VERTEX
  8
LC_OH_2021_05_O7
  10
258514.467
  20
4498733.654
  0
SEQEND
  8
LC_OH_2021_05_O7
  0
INSERT
  8
FeatureAttribs
  2
FEATURE
  41
1
  42
1
  43
1
  50
0
  10
265274.289
  20
4498173.000
 66
1
  0
ATTRIB
  8
FeatureAttribs
 70
0
  1
PNOA-H_AMS_1956-57_33k_ES_PAN_21mic_H50_0528_fot_64A-30176_W.tif
  2
NAME
  10
265274.289
  20
4498173.000
 40
34.68807
  0
SEQEND
  0
POLYLINE
  8
LC_OH_2021_05_O7
  70
1
  66
1
  0
VERTEX
  8
LC_OH_2021_05_O7
  10
266246.500
  20
4496062.500
  0
VERTEX
  8
LC_OH_2021_05_O7
  10
266126.000
  20
4495986.000
  0
VERTEX
  8
LC_OH_2021_05_O7
  10
263790.500
  20
4496470.500
  0
VERTEX
  8
LC_OH_2021_05_O7
  10
263652.000
  20
4499895.500
  0
VERTEX
  8
LC_OH_2021_05_O7
  10
265019.500
  20
4500360.000
  0
VERTEX
  8
LC_OH_2021_05_O7
  10
266769.000
  20
4499919.000
  0
VERTEX
  8
LC_OH_2021_05_O7
  10
266883.500
  20
4496467.000
  0
VERTEX
  8
LC_OH_2021_05_O7
  10
266247.500
  20
4496062.500
  0
VERTEX
  8
LC_OH_2021_05_O7
  10
266246.500
  20
4496062.500
  0
SEQEND
  8
LC_OH_2021_05_O7
  0
INSERT
  8
FeatureAttribs
  2
FEATURE
  41
1
  42
1
  43
1
  50
0
  10
268362.551
  20
4498147.499
 66
1
  0
ATTRIB
  8
FeatureAttribs
 70
0
  1
PNOA-H_AMS_1956-57_33k_ES_PAN_21mic_H50_0528_fot_64A-30175_W.tif
  2
NAME
  10
268362.551
  20
4498147.499
 40
34.68807
  0
SEQEND
  0
POLYLINE
  8
LC_OH_2021_05_O7
  70
1
  66
1
  0
VERTEX
  8
LC_OH_2021_05_O7
  10
267374.500
  20
4500184.500
  0
VERTEX
  8
LC_OH_2021_05_O7
  10
267722.000
  20
4500337.000
  0
VERTEX
  8
LC_OH_2021_05_O7
  10
267725.000
  20
4500337.000
  0
VERTEX
  8
LC_OH_2021_05_O7
  10
269908.500
  20
4499862.500
  0
VERTEX
  8
LC_OH_2021_05_O7
  10
269886.500
  20
4496481.500
  0
VERTEX
  8
LC_OH_2021_05_O7
  10
268962.000
  20
4495958.000
  0
VERTEX
  8
LC_OH_2021_05_O7
  10
266883.500
  20
4496467.000
  0
VERTEX
  8
LC_OH_2021_05_O7
  10
266769.000
  20
4499919.000
  0
VERTEX
  8
LC_OH_2021_05_O7
  10
267373.500
  20
4500184.000
  0
VERTEX
  8
LC_OH_2021_05_O7
  10
267374.500
  20
4500184.500
  0
SEQEND
  8
LC_OH_2021_05_O7
  0
INSERT
  8
FeatureAttribs
  2
FEATURE
  41
1
  42
1
  43
1
  50
0
  10
271398.842
  20
4498099.249
 66
1
  0
ATTRIB
  8
FeatureAttribs
 70
0
  1
PNOA-H_AMS_1956-57_33k_ES_PAN_21mic_H50_0528_fot_64A-30174_W.tif
  2
NAME
  10
271398.842
  20
4498099.249
 40
34.68807
  0
SEQEND
  0
POLYLINE
  8
LC_OH_2021_05_O7
  70
1
  66
1
  0
VERTEX
  8
LC_OH_2021_05_O7
  10
272177.001
  20
4496062.500
  0
VERTEX
  8
LC_OH_2021_05_O7
  10
271874.001
  20
4495912.000
  0
VERTEX
  8
LC_OH_2021_05_O7
  10
269886.500
  20
4496481.500
  0
VERTEX
  8
LC_OH_2021_05_O7
  10
269908.500
  20
4499862.500
  0
VERTEX
  8
LC_OH_2021_05_O7
  10
270749.000
  20
4500286.500
  0
VERTEX
  8
LC_OH_2021_05_O7
  10
272927.001
  20
4499835.000
  0
VERTEX
  8
LC_OH_2021_05_O7
  10
272875.001
  20
4496409.500
  0
VERTEX
  8
LC_OH_2021_05_O7
  10
272178.001
  20
4496062.500
  0
VERTEX
  8
LC_OH_2021_05_O7
  10
272177.001
  20
4496062.500
  0
SEQEND
  8
LC_OH_2021_05_O7
  0
INSERT
  8
FeatureAttribs
  2
FEATURE
  41
1
  42
1
  43
1
  50
0
  10
262177.329
  20
4498196.250
 66
1
  0
ATTRIB
  8
FeatureAttribs
 70
0
  1
PNOA-H_AMS_1956-57_33k_ES_PAN_21mic_H50_0528_fot_64A-30177_W.tif
  2
NAME
  10
262177.329
  20
4498196.250
 40
34.68807
  0
SEQEND
  0
POLYLINE
  8
LC_OH_2021_05_O7
  70
1
  66
1
  0
VERTEX
  8
LC_OH_2021_05_O7
  10
261230.500
  20
4500089.500
  0
VERTEX
  8
LC_OH_2021_05_O7
  10
262257.000
  20
4500357.000
  0
VERTEX
  8
LC_OH_2021_05_O7
  10
263652.000
  20
4499895.500
  0
VERTEX
  8
LC_OH_2021_05_O7
  10
263790.500
  20
4496470.500
  0
VERTEX
  8
LC_OH_2021_05_O7
  10
263220.500
  20
4496035.500
  0
VERTEX
  8
LC_OH_2021_05_O7
  10
260593.500
  20
4496316.500
  0
VERTEX
  8
LC_OH_2021_05_O7
  10
260671.500
  20
4499943.500
  0
VERTEX
  8
LC_OH_2021_05_O7
  10
261228.500
  20
4500089.000
  0
VERTEX
  8
LC_OH_2021_05_O7
  10
261230.500
  20
4500089.500
  0
SEQEND
  8
LC_OH_2021_05_O7
  0
INSERT
  8
FeatureAttribs
  2
FEATURE
  41
1
  42
1
  43
1
  50
0
  10
286067.147
  20
4497602.889
 66
1
  0
ATTRIB
  8
FeatureAttribs
 70
0
  1
PNOA-H_AMS_1956-57_33k_ES_PAN_21mic_H50_0529_fot_64A-30169_W.tif
  2
NAME
  10
286067.147
  20
4497602.889
 40
34.68807
  0
SEQEND
  0
POLYLINE
  8
LC_OH_2021_05_O7
  70
1
  66
1
  0
VERTEX
  8
LC_OH_2021_05_O7
  10
286650.087
  20
4495426.008
  0
VERTEX
  8
LC_OH_2021_05_O7
  10
286290.001
  20
4495357.500
  0
VERTEX
  8
LC_OH_2021_05_O7
  10
286285.501
  20
4495358.000
  0
VERTEX
  8
LC_OH_2021_05_O7
  10
285357.501
  20
4495915.000
  0
VERTEX
  8
LC_OH_2021_05_O7
  10
285480.501
  20
4499780.000
  0
VERTEX
  8
LC_OH_2021_05_O7
  10
285481.001
  20
4499784.000
  0
VERTEX
  8
LC_OH_2021_05_O7
  10
285485.501
  20
4499784.500
  0
VERTEX
  8
LC_OH_2021_05_O7
  10
285788.501
  20
4499799.500
  0
VERTEX
  8
LC_OH_2021_05_O7
  10
285799.001
  20
4499800.000
  0
VERTEX
  8
LC_OH_2021_05_O7
  10
286776.794
  20
4499848.278
  0
VERTEX
  8
LC_OH_2021_05_O7
  10
286720.154
  20
4497871.963
  0
VERTEX
  8
LC_OH_2021_05_O7
  10
286653.897
  20
4495559.081
  0
SEQEND
  8
LC_OH_2021_05_O7
  0
INSERT
  8
FeatureAttribs
  2
FEATURE
  41
1
  42
1
  43
1
  50
0
  10
281645.501
  20
4504476.472
 66
1
  0
ATTRIB
  8
FeatureAttribs
 70
0
  1
PNOA-H_AMS_1956-57_33k_ES_PAN_21mic_H50_0503_fot_62C-05346_E.tif
  2
NAME
  10
281645.501
  20
4504476.472
 40
34.68807
  0
SEQEND
  0
POLYLINE
  8
LC_OH_2021_05_O7
  70
1
  66
1
  0
VERTEX
  8
LC_OH_2021_05_O7
  10
283146.681
  20
4504919.890
  0
VERTEX
  8
LC_OH_2021_05_O7
  10
283157.501
  20
4504396.000
  0
VERTEX
  8
LC_OH_2021_05_O7
  10
283157.501
  20
4504377.500
  0
VERTEX
  8
LC_OH_2021_05_O7
  10
283156.501
  20
4504376.500
  0
VERTEX
  8
LC_OH_2021_05_O7
  10
282372.501
  20
4503950.000
  0
VERTEX
  8
LC_OH_2021_05_O7
  10
282366.001
  20
4503946.500
  0
VERTEX
  8
LC_OH_2021_05_O7
  10
282362.501
  20
4503946.500
  0
VERTEX
  8
LC_OH_2021_05_O7
  10
280134.501
  20
4504400.500
  0
VERTEX
  8
LC_OH_2021_05_O7
  10
280133.501
  20
4504401.000
  0
VERTEX
  8
LC_OH_2021_05_O7
  10
280134.001
  20
4504409.000
  0
VERTEX
  8
LC_OH_2021_05_O7
  10
280202.854
  20
4505006.444
  0
SEQEND
  8
LC_OH_2021_05_O7
  0
INSERT
  8
FeatureAttribs
  2
FEATURE
  41
1
  42
1
  43
1
  50
0
  10
285233.962
  20
4504396.482
 66
1
  0
ATTRIB
  8
FeatureAttribs
 70
0
  1
PNOA-H_AMS_1956-57_33k_ES_PAN_21mic_H50_0503_fot_62C-05347_E.tif
  2
NAME
  10
285233.962
  20
4504396.482
 40
34.68807
  0
SEQEND
  0
POLYLINE
  8
LC_OH_2021_05_O7
  70
1
  66
1
  0
VERTEX
  8
LC_OH_2021_05_O7
  10
286061.423
  20
4504835.457
  0
VERTEX
  8
LC_OH_2021_05_O7
  10
286034.001
  20
4504256.500
  0
VERTEX
  8
LC_OH_2021_05_O7
  10
286016.501
  20
4504247.500
  0
VERTEX
  8
LC_OH_2021_05_O7
  10
285288.501
  20
4503913.000
  0
VERTEX
  8
LC_OH_2021_05_O7
  10
284406.501
  20
4504181.500
  0
VERTEX
  8
LC_OH_2021_05_O7
  10
284522.822
  20
4504879.964
  0
SEQEND
  8
LC_OH_2021_05_O7
  0
ENDSEC
  0
EOF
