  0
SECTION
  2
HEADER
  9
$ACADVER
  1
AC1009
  9
$LUNITS
  70
2
  9
$LIMMIN
  10
229888.780
  20
4487168.824
  9
$LIMMAX
  10
258739.765
  20
4506641.754
  9
$EXTMIN
  10
229888.780
  20
4487168.824
  9
$EXTMAX
  10
258739.765
  20
4506641.754
  999
Created by Global Mapper
  999
Projection: UTM
  999
Datum: ETRS89
  999
Ground Units: meters
  999
ZONE: 30
  0
ENDSEC
  0
SECTION
  2
TABLES
  0
ENDSEC
  0
SECTION
  2
BLOCKS
  0
BLOCK
  8
FeatureAttribs
  70
0
  2
FEATURE
  3
FEATURE
  10
0.00000000
  20
0.00000000
  0
ATTDEF
  8
FeatureAttribs
  70
0
  1
 
  2
NAME
  3
NAME
  10
0.00000000
  20
0.00000000
  40
1.00000000
  0
ENDBLK
  0
ENDSEC
  0
SECTION
  2
ENTITIES
  0
INSERT
  8
FeatureAttribs
  2
FEATURE
  41
1
  42
1
  43
1
  50
0
  10
234242.318
  20
4488202.575
 66
1
  0
ATTRIB
  8
FeatureAttribs
 70
0
  1
PNOA-H_AMS_1956-57_33k_ES_PAN_21mic_H50_0552_fot_67A-44257_E.tif
  2
NAME
  10
234242.318
  20
4488202.575
 40
34.80768
  0
SEQEND
  0
POLYLINE
  8
LC_OH_2021_05_O7
  70
1
  66
1
  0
VERTEX
  8
LC_OH_2021_05_O7
  10
235451.757
  20
4487938.150
  0
VERTEX
  8
LC_OH_2021_05_O7
  10
233420.210
  20
4488010.184
  0
VERTEX
  8
LC_OH_2021_05_O7
  10
233032.880
  20
4488024.101
  0
VERTEX
  8
LC_OH_2021_05_O7
  10
233047.000
  20
4488355.000
  0
VERTEX
  8
LC_OH_2021_05_O7
  10
233047.500
  20
4488360.000
  0
VERTEX
  8
LC_OH_2021_05_O7
  10
233048.500
  20
4488360.500
  0
VERTEX
  8
LC_OH_2021_05_O7
  10
233281.000
  20
4488466.500
  0
VERTEX
  8
LC_OH_2021_05_O7
  10
233282.000
  20
4488467.000
  0
VERTEX
  8
LC_OH_2021_05_O7
  10
235449.500
  20
4488363.000
  0
SEQEND
  8
LC_OH_2021_05_O7
  0
INSERT
  8
FeatureAttribs
  2
FEATURE
  41
1
  42
1
  43
1
  50
0
  10
239354.750
  20
4488154.903
 66
1
  0
ATTRIB
  8
FeatureAttribs
 70
0
  1
PNOA-H_AMS_1956-57_33k_ES_PAN_21mic_H50_0552_fot_67A-44259_E.tif
  2
NAME
  10
239354.750
  20
4488154.903
 40
34.80768
  0
SEQEND
  0
POLYLINE
  8
LC_OH_2021_05_O7
  70
1
  66
1
  0
VERTEX
  8
LC_OH_2021_05_O7
  10
240689.397
  20
4487754.306
  0
VERTEX
  8
LC_OH_2021_05_O7
  10
240483.002
  20
4487761.429
  0
VERTEX
  8
LC_OH_2021_05_O7
  10
238013.827
  20
4487847.810
  0
VERTEX
  8
LC_OH_2021_05_O7
  10
238008.000
  20
4488430.500
  0
VERTEX
  8
LC_OH_2021_05_O7
  10
238320.000
  20
4488555.000
  0
VERTEX
  8
LC_OH_2021_05_O7
  10
238321.500
  20
4488555.500
  0
VERTEX
  8
LC_OH_2021_05_O7
  10
240701.500
  20
4488444.500
  0
SEQEND
  8
LC_OH_2021_05_O7
  0
INSERT
  8
FeatureAttribs
  2
FEATURE
  41
1
  42
1
  43
1
  50
0
  10
236731.663
  20
4488192.905
 66
1
  0
ATTRIB
  8
FeatureAttribs
 70
0
  1
PNOA-H_AMS_1956-57_33k_ES_PAN_21mic_H50_0552_fot_67A-44258_E.tif
  2
NAME
  10
236731.663
  20
4488192.905
 40
34.80768
  0
SEQEND
  0
POLYLINE
  8
LC_OH_2021_05_O7
  70
1
  66
1
  0
VERTEX
  8
LC_OH_2021_05_O7
  10
238013.827
  20
4487847.810
  0
VERTEX
  8
LC_OH_2021_05_O7
  10
236951.617
  20
4487884.969
  0
VERTEX
  8
LC_OH_2021_05_O7
  10
235451.759
  20
4487938.150
  0
VERTEX
  8
LC_OH_2021_05_O7
  10
235449.500
  20
4488363.500
  0
VERTEX
  8
LC_OH_2021_05_O7
  10
235871.000
  20
4488537.500
  0
VERTEX
  8
LC_OH_2021_05_O7
  10
235872.500
  20
4488538.000
  0
VERTEX
  8
LC_OH_2021_05_O7
  10
238008.000
  20
4488430.500
  0
SEQEND
  8
LC_OH_2021_05_O7
  0
INSERT
  8
FeatureAttribs
  2
FEATURE
  41
1
  42
1
  43
1
  50
0
  10
244953.611
  20
4487992.974
 66
1
  0
ATTRIB
  8
FeatureAttribs
 70
0
  1
PNOA-H_AMS_1956-57_33k_ES_PAN_21mic_H50_0552_fot_67A-44261_E.tif
  2
NAME
  10
244953.611
  20
4487992.974
 40
34.80768
  0
SEQEND
  0
POLYLINE
  8
LC_OH_2021_05_O7
  70
1
  66
1
  0
VERTEX
  8
LC_OH_2021_05_O7
  10
246382.818
  20
4487558.948
  0
VERTEX
  8
LC_OH_2021_05_O7
  10
244014.366
  20
4487639.562
  0
VERTEX
  8
LC_OH_2021_05_O7
  10
243474.222
  20
4487658.202
  0
VERTEX
  8
LC_OH_2021_05_O7
  10
243499.500
  20
4488357.500
  0
VERTEX
  8
LC_OH_2021_05_O7
  10
243659.000
  20
4488426.500
  0
VERTEX
  8
LC_OH_2021_05_O7
  10
243660.000
  20
4488427.000
  0
VERTEX
  8
LC_OH_2021_05_O7
  10
246399.500
  20
4488334.500
  0
VERTEX
  8
LC_OH_2021_05_O7
  10
246406.000
  20
4488334.000
  0
VERTEX
  8
LC_OH_2021_05_O7
  10
246433.000
  20
4488320.500
  0
SEQEND
  8
LC_OH_2021_05_O7
  0
INSERT
  8
FeatureAttribs
  2
FEATURE
  41
1
  42
1
  43
1
  50
0
  10
230219.640
  20
4488229.979
 66
1
  0
ATTRIB
  8
FeatureAttribs
 70
0
  1
PNOA-H_AMS_1956-57_33k_ES_PAN_21mic_H50_0551_fot_67A-44255_E.tif
  2
NAME
  10
230219.640
  20
4488229.979
 40
34.80768
  0
SEQEND
  0
POLYLINE
  8
LC_OH_2021_05_O7
  70
1
  66
1
  0
VERTEX
  8
LC_OH_2021_05_O7
  10
230540.390
  20
4488113.659
  0
VERTEX
  8
LC_OH_2021_05_O7
  10
229888.780
  20
4488137.072
  0
VERTEX
  8
LC_OH_2021_05_O7
  10
229896.349
  20
4488346.299
  0
VERTEX
  8
LC_OH_2021_05_O7
  10
230550.500
  20
4488340.000
  0
SEQEND
  8
LC_OH_2021_05_O7
  0
INSERT
  8
FeatureAttribs
  2
FEATURE
  41
1
  42
1
  43
1
  50
0
  10
247806.957
  20
4487891.870
 66
1
  0
ATTRIB
  8
FeatureAttribs
 70
0
  1
PNOA-H_AMS_1956-57_33k_ES_PAN_21mic_H50_0552_fot_67A-44262_E.tif
  2
NAME
  10
247806.957
  20
4487891.870
 40
34.80768
  0
SEQEND
  0
POLYLINE
  8
LC_OH_2021_05_O7
  70
1
  66
1
  0
VERTEX
  8
LC_OH_2021_05_O7
  10
249203.112
  20
4487463.741
  0
VERTEX
  8
LC_OH_2021_05_O7
  10
247545.709
  20
4487519.368
  0
VERTEX
  8
LC_OH_2021_05_O7
  10
246382.913
  20
4487558.945
  0
VERTEX
  8
LC_OH_2021_05_O7
  10
246433.000
  20
4488320.000
  0
VERTEX
  8
LC_OH_2021_05_O7
  10
248917.000
  20
4488298.000
  0
VERTEX
  8
LC_OH_2021_05_O7
  10
248943.500
  20
4488298.000
  0
VERTEX
  8
LC_OH_2021_05_O7
  10
248970.000
  20
4488298.000
  0
VERTEX
  8
LC_OH_2021_05_O7
  10
249231.000
  20
4488176.000
  0
SEQEND
  8
LC_OH_2021_05_O7
  0
INSERT
  8
FeatureAttribs
  2
FEATURE
  41
1
  42
1
  43
1
  50
0
  10
242094.449
  20
4488084.101
 66
1
  0
ATTRIB
  8
FeatureAttribs
 70
0
  1
PNOA-H_AMS_1956-57_33k_ES_PAN_21mic_H50_0552_fot_67A-44260_E.tif
  2
NAME
  10
242094.449
  20
4488084.101
 40
34.80768
  0
SEQEND
  0
POLYLINE
  8
LC_OH_2021_05_O7
  70
1
  66
1
  0
VERTEX
  8
LC_OH_2021_05_O7
  10
243474.222
  20
4487658.202
  0
VERTEX
  8
LC_OH_2021_05_O7
  10
240689.397
  20
4487754.306
  0
VERTEX
  8
LC_OH_2021_05_O7
  10
240701.500
  20
4488444.500
  0
VERTEX
  8
LC_OH_2021_05_O7
  10
240858.000
  20
4488510.000
  0
VERTEX
  8
LC_OH_2021_05_O7
  10
240866.000
  20
4488510.000
  0
VERTEX
  8
LC_OH_2021_05_O7
  10
242794.500
  20
4488398.000
  0
VERTEX
  8
LC_OH_2021_05_O7
  10
242799.500
  20
4488398.000
  0
VERTEX
  8
LC_OH_2021_05_O7
  10
243499.500
  20
4488357.500
  0
SEQEND
  8
LC_OH_2021_05_O7
  0
INSERT
  8
FeatureAttribs
  2
FEATURE
  41
1
  42
1
  43
1
  50
0
  10
258010.921
  20
4487408.646
 66
1
  0
ATTRIB
  8
FeatureAttribs
 70
0
  1
PNOA-H_AMS_1956-57_33k_ES_PAN_21mic_H50_0553_fot_67A-44266_E.tif
  2
NAME
  10
258010.921
  20
4487408.646
 40
34.80768
  0
SEQEND
  0
POLYLINE
  8
LC_OH_2021_05_O7
  70
1
  66
1
  0
VERTEX
  8
LC_OH_2021_05_O7
  10
258155.145
  20
4487648.469
  0
VERTEX
  8
LC_OH_2021_05_O7
  10
258139.611
  20
4487168.824
  0
VERTEX
  8
LC_OH_2021_05_O7
  10
257866.698
  20
4487177.725
  0
VERTEX
  8
LC_OH_2021_05_O7
  10
257884.000
  20
4487609.500
  0
SEQEND
  8
LC_OH_2021_05_O7
  0
INSERT
  8
FeatureAttribs
  2
FEATURE
  41
1
  42
1
  43
1
  50
0
  10
250674.806
  20
4487797.723
 66
1
  0
ATTRIB
  8
FeatureAttribs
 70
0
  1
PNOA-H_AMS_1956-57_33k_ES_PAN_21mic_H50_0552_fot_67A-44263_E.tif
  2
NAME
  10
250674.806
  20
4487797.723
 40
34.80768
  0
SEQEND
  0
POLYLINE
  8
LC_OH_2021_05_O7
  70
1
  66
1
  0
VERTEX
  8
LC_OH_2021_05_O7
  10
252116.660
  20
4487366.446
  0
VERTEX
  8
LC_OH_2021_05_O7
  10
251077.030
  20
4487400.847
  0
VERTEX
  8
LC_OH_2021_05_O7
  10
249203.112
  20
4487463.741
  0
VERTEX
  8
LC_OH_2021_05_O7
  10
249231.000
  20
4488176.000
  0
VERTEX
  8
LC_OH_2021_05_O7
  10
250967.500
  20
4488215.000
  0
VERTEX
  8
LC_OH_2021_05_O7
  10
250990.000
  20
4488215.500
  0
VERTEX
  8
LC_OH_2021_05_O7
  10
251612.000
  20
4488229.000
  0
VERTEX
  8
LC_OH_2021_05_O7
  10
252146.500
  20
4488006.000
  0
SEQEND
  8
LC_OH_2021_05_O7
  0
INSERT
  8
FeatureAttribs
  2
FEATURE
  41
1
  42
1
  43
1
  50
0
  10
256476.702
  20
4487585.863
 66
1
  0
ATTRIB
  8
FeatureAttribs
 70
0
  1
PNOA-H_AMS_1956-57_33k_ES_PAN_21mic_H50_0552_fot_67A-44265_E.tif
  2
NAME
  10
256476.702
  20
4487585.863
 40
34.80768
  0
SEQEND
  0
POLYLINE
  8
LC_OH_2021_05_O7
  70
1
  66
1
  0
VERTEX
  8
LC_OH_2021_05_O7
  10
257866.662
  20
4487177.726
  0
VERTEX
  8
LC_OH_2021_05_O7
  10
255069.403
  20
4487268.961
  0
VERTEX
  8
LC_OH_2021_05_O7
  10
255104.000
  20
4487782.000
  0
VERTEX
  8
LC_OH_2021_05_O7
  10
256738.500
  20
4487994.000
  0
VERTEX
  8
LC_OH_2021_05_O7
  10
257884.000
  20
4487609.500
  0
SEQEND
  8
LC_OH_2021_05_O7
  0
INSERT
  8
FeatureAttribs
  2
FEATURE
  41
1
  42
1
  43
1
  50
0
  10
253610.330
  20
4487708.230
 66
1
  0
ATTRIB
  8
FeatureAttribs
 70
0
  1
PNOA-H_AMS_1956-57_33k_ES_PAN_21mic_H50_0552_fot_67A-44264_E.tif
  2
NAME
  10
253610.330
  20
4487708.230
 40
34.80768
  0
SEQEND
  0
POLYLINE
  8
LC_OH_2021_05_O7
  70
1
  66
1
  0
VERTEX
  8
LC_OH_2021_05_O7
  10
255069.449
  20
4487268.959
  0
VERTEX
  8
LC_OH_2021_05_O7
  10
254608.331
  20
4487283.999
  0
VERTEX
  8
LC_OH_2021_05_O7
  10
252116.660
  20
4487366.446
  0
VERTEX
  8
LC_OH_2021_05_O7
  10
252146.500
  20
4488006.000
  0
VERTEX
  8
LC_OH_2021_05_O7
  10
253031.000
  20
4488070.500
  0
VERTEX
  8
LC_OH_2021_05_O7
  10
253038.000
  20
4488071.000
  0
VERTEX
  8
LC_OH_2021_05_O7
  10
254090.000
  20
4488147.500
  0
VERTEX
  8
LC_OH_2021_05_O7
  10
255104.000
  20
4487782.000
  0
SEQEND
  8
LC_OH_2021_05_O7
  0
INSERT
  8
FeatureAttribs
  2
FEATURE
  41
1
  42
1
  43
1
  50
0
  10
231793.945
  20
4488195.295
 66
1
  0
ATTRIB
  8
FeatureAttribs
 70
0
  1
PNOA-H_AMS_1956-57_33k_ES_PAN_21mic_H50_0552_fot_67A-44256_E.tif
  2
NAME
  10
231793.945
  20
4488195.295
 40
34.80768
  0
SEQEND
  0
POLYLINE
  8
LC_OH_2021_05_O7
  70
1
  66
1
  0
VERTEX
  8
LC_OH_2021_05_O7
  10
233033.166
  20
4488024.091
  0
VERTEX
  8
LC_OH_2021_05_O7
  10
230540.390
  20
4488113.659
  0
VERTEX
  8
LC_OH_2021_05_O7
  10
230550.500
  20
4488340.000
  0
VERTEX
  8
LC_OH_2021_05_O7
  10
230606.000
  20
4488366.500
  0
VERTEX
  8
LC_OH_2021_05_O7
  10
232484.500
  20
4488361.000
  0
VERTEX
  8
LC_OH_2021_05_O7
  10
232559.500
  20
4488361.000
  0
VERTEX
  8
LC_OH_2021_05_O7
  10
233047.500
  20
4488359.500
  0
SEQEND
  8
LC_OH_2021_05_O7
  0
INSERT
  8
FeatureAttribs
  2
FEATURE
  41
1
  42
1
  43
1
  50
0
  10
230930.267
  20
4504009.598
 66
1
  0
ATTRIB
  8
FeatureAttribs
 70
0
  1
PNOA-H_AMS_1956-57_33k_ES_PAN_21mic_H50_0526_fot_63A-40306_W.tif
  2
NAME
  10
230930.267
  20
4504009.598
 40
34.80768
  0
SEQEND
  0
POLYLINE
  8
LC_OH_2021_05_O7
  70
1
  66
1
  0
VERTEX
  8
LC_OH_2021_05_O7
  10
230554.983
  20
4506525.696
  0
VERTEX
  8
LC_OH_2021_05_O7
  10
231485.500
  20
4506348.000
  0
VERTEX
  8
LC_OH_2021_05_O7
  10
231375.000
  20
4501674.500
  0
VERTEX
  8
LC_OH_2021_05_O7
  10
231374.500
  20
4501670.000
  0
VERTEX
  8
LC_OH_2021_05_O7
  10
231370.500
  20
4501667.500
  0
VERTEX
  8
LC_OH_2021_05_O7
  10
231030.000
  20
4501493.500
  0
VERTEX
  8
LC_OH_2021_05_O7
  10
230375.034
  20
4501564.770
  0
VERTEX
  8
LC_OH_2021_05_O7
  10
230391.376
  20
4502015.548
  0
VERTEX
  8
LC_OH_2021_05_O7
  10
230475.267
  20
4504328.648
  0
SEQEND
  8
LC_OH_2021_05_O7
  0
INSERT
  8
FeatureAttribs
  2
FEATURE
  41
1
  42
1
  43
1
  50
0
  10
255279.401
  20
4504086.749
 66
1
  0
ATTRIB
  8
FeatureAttribs
 70
0
  1
PNOA-H_AMS_1956-57_33k_ES_PAN_21mic_H50_0527_fot_63B-34904_W.tif
  2
NAME
  10
255279.401
  20
4504086.749
 40
34.80768
  0
SEQEND
  0
POLYLINE
  8
LC_OH_2021_05_O7
  70
1
  66
1
  0
VERTEX
  8
LC_OH_2021_05_O7
  10
254015.000
  20
4505556.000
  0
VERTEX
  8
LC_OH_2021_05_O7
  10
254017.000
  20
4505558.000
  0
VERTEX
  8
LC_OH_2021_05_O7
  10
254273.000
  20
4505672.000
  0
VERTEX
  8
LC_OH_2021_05_O7
  10
254274.000
  20
4505672.500
  0
VERTEX
  8
LC_OH_2021_05_O7
  10
256856.500
  20
4505313.500
  0
VERTEX
  8
LC_OH_2021_05_O7
  10
256604.500
  20
4503159.000
  0
VERTEX
  8
LC_OH_2021_05_O7
  10
254063.000
  20
4502501.000
  0
VERTEX
  8
LC_OH_2021_05_O7
  10
253819.500
  20
4503852.000
  0
VERTEX
  8
LC_OH_2021_05_O7
  10
253819.500
  20
4503858.500
  0
SEQEND
  8
LC_OH_2021_05_O7
  0
INSERT
  8
FeatureAttribs
  2
FEATURE
  41
1
  42
1
  43
1
  50
0
  10
252416.377
  20
4504143.500
 66
1
  0
ATTRIB
  8
FeatureAttribs
 70
0
  1
PNOA-H_AMS_1956-57_33k_ES_PAN_21mic_H50_0527_fot_000-34905_R.tif
  2
NAME
  10
252416.377
  20
4504143.500
 40
34.80768
  0
SEQEND
  0
POLYLINE
  8
LC_OH_2021_05_O7
  70
1
  66
1
  0
VERTEX
  8
LC_OH_2021_05_O7
  10
251708.144
  20
4505904.417
  0
VERTEX
  8
LC_OH_2021_05_O7
  10
253036.500
  20
4505704.000
  0
VERTEX
  8
LC_OH_2021_05_O7
  10
253039.500
  20
4505704.000
  0
VERTEX
  8
LC_OH_2021_05_O7
  10
254015.500
  20
4505557.000
  0
VERTEX
  8
LC_OH_2021_05_O7
  10
253819.500
  20
4503854.500
  0
VERTEX
  8
LC_OH_2021_05_O7
  10
251287.000
  20
4502350.500
  0
VERTEX
  8
LC_OH_2021_05_O7
  10
251286.000
  20
4502350.500
  0
VERTEX
  8
LC_OH_2021_05_O7
  10
251283.500
  20
4502364.000
  0
VERTEX
  8
LC_OH_2021_05_O7
  10
250965.000
  20
4504231.500
  0
VERTEX
  8
LC_OH_2021_05_O7
  10
251108.500
  20
4505757.500
  0
VERTEX
  8
LC_OH_2021_05_O7
  10
251442.947
  20
4505913.342
  0
VERTEX
  8
LC_OH_2021_05_O7
  10
251694.744
  20
4505904.862
  0
SEQEND
  8
LC_OH_2021_05_O7
  0
INSERT
  8
FeatureAttribs
  2
FEATURE
  41
1
  42
1
  43
1
  50
0
  10
258126.285
  20
4503951.999
 66
1
  0
ATTRIB
  8
FeatureAttribs
 70
0
  1
PNOA-H_AMS_1956-57_33k_ES_PAN_21mic_H50_0527_fot_63B-34903_W.tif
  2
NAME
  10
258126.285
  20
4503951.999
 40
34.80768
  0
SEQEND
  0
POLYLINE
  8
LC_OH_2021_05_O7
  70
1
  66
1
  0
VERTEX
  8
LC_OH_2021_05_O7
  10
258637.347
  20
4502519.228
  0
VERTEX
  8
LC_OH_2021_05_O7
  10
256665.000
  20
4502712.000
  0
VERTEX
  8
LC_OH_2021_05_O7
  10
256604.500
  20
4503157.500
  0
VERTEX
  8
LC_OH_2021_05_O7
  10
256856.500
  20
4505313.500
  0
VERTEX
  8
LC_OH_2021_05_O7
  10
257205.500
  20
4505462.000
  0
VERTEX
  8
LC_OH_2021_05_O7
  10
258725.177
  20
4505223.529
  0
VERTEX
  8
LC_OH_2021_05_O7
  10
258664.633
  20
4503359.631
  0
SEQEND
  8
LC_OH_2021_05_O7
  0
INSERT
  8
FeatureAttribs
  2
FEATURE
  41
1
  42
1
  43
1
  50
0
  10
249557.861
  20
4504365.249
 66
1
  0
ATTRIB
  8
FeatureAttribs
 70
0
  1
PNOA-H_AMS_1956-57_33k_ES_PAN_21mic_H50_0527_fot_000-34906_R.tif
  2
NAME
  10
249557.861
  20
4504365.249
 40
34.80768
  0
SEQEND
  0
POLYLINE
  8
LC_OH_2021_05_O7
  70
1
  66
1
  0
VERTEX
  8
LC_OH_2021_05_O7
  10
249701.048
  20
4505972.004
  0
VERTEX
  8
LC_OH_2021_05_O7
  10
251097.500
  20
4505759.500
  0
VERTEX
  8
LC_OH_2021_05_O7
  10
251107.000
  20
4505758.000
  0
VERTEX
  8
LC_OH_2021_05_O7
  10
251108.500
  20
4505756.500
  0
VERTEX
  8
LC_OH_2021_05_O7
  10
250965.000
  20
4504233.000
  0
VERTEX
  8
LC_OH_2021_05_O7
  10
248449.000
  20
4502594.000
  0
VERTEX
  8
LC_OH_2021_05_O7
  10
248446.500
  20
4502593.000
  0
VERTEX
  8
LC_OH_2021_05_O7
  10
248445.500
  20
4502596.000
  0
VERTEX
  8
LC_OH_2021_05_O7
  10
248072.000
  20
4504747.000
  0
VERTEX
  8
LC_OH_2021_05_O7
  10
248071.000
  20
4504757.500
  0
VERTEX
  8
LC_OH_2021_05_O7
  10
248172.000
  20
4505922.500
  0
VERTEX
  8
LC_OH_2021_05_O7
  10
248365.993
  20
4506016.964
  0
SEQEND
  8
LC_OH_2021_05_O7
  0
INSERT
  8
FeatureAttribs
  2
FEATURE
  41
1
  42
1
  43
1
  50
0
  10
246464.232
  20
4504496.248
 66
1
  0
ATTRIB
  8
FeatureAttribs
 70
0
  1
PNOA-H_AMS_1956-57_33k_ES_PAN_21mic_H50_0527_fot_000-34907_R.tif
  2
NAME
  10
246464.232
  20
4504496.248
 40
34.80768
  0
SEQEND
  0
POLYLINE
  8
LC_OH_2021_05_O7
  70
1
  66
1
  0
VERTEX
  8
LC_OH_2021_05_O7
  10
247474.912
  20
4506047.304
  0
VERTEX
  8
LC_OH_2021_05_O7
  10
248172.000
  20
4505922.500
  0
VERTEX
  8
LC_OH_2021_05_O7
  10
248071.000
  20
4504754.500
  0
VERTEX
  8
LC_OH_2021_05_O7
  10
247480.000
  20
4504254.500
  0
VERTEX
  8
LC_OH_2021_05_O7
  10
247479.000
  20
4504254.500
  0
VERTEX
  8
LC_OH_2021_05_O7
  10
245569.500
  20
4502639.500
  0
VERTEX
  8
LC_OH_2021_05_O7
  10
245566.500
  20
4502637.000
  0
VERTEX
  8
LC_OH_2021_05_O7
  10
245565.500
  20
4502637.500
  0
VERTEX
  8
LC_OH_2021_05_O7
  10
245098.000
  20
4504795.000
  0
VERTEX
  8
LC_OH_2021_05_O7
  10
245097.500
  20
4504804.000
  0
VERTEX
  8
LC_OH_2021_05_O7
  10
245203.500
  20
4506091.500
  0
VERTEX
  8
LC_OH_2021_05_O7
  10
245268.418
  20
4506122.661
  0
SEQEND
  8
LC_OH_2021_05_O7
  0
INSERT
  8
FeatureAttribs
  2
FEATURE
  41
1
  42
1
  43
1
  50
0
  10
255293.324
  20
4501613.251
 66
1
  0
ATTRIB
  8
FeatureAttribs
 70
0
  1
PNOA-H_AMS_1956-57_33k_ES_PAN_21mic_H50_0527_fot_63A-40297_W.tif
  2
NAME
  10
255293.324
  20
4501613.251
 40
34.80768
  0
SEQEND
  0
POLYLINE
  8
LC_OH_2021_05_O7
  70
1
  66
1
  0
VERTEX
  8
LC_OH_2021_05_O7
  10
256603.000
  20
4503159.000
  0
VERTEX
  8
LC_OH_2021_05_O7
  10
256604.500
  20
4503159.000
  0
VERTEX
  8
LC_OH_2021_05_O7
  10
256606.000
  20
4503150.500
  0
VERTEX
  8
LC_OH_2021_05_O7
  10
256664.500
  20
4502717.500
  0
VERTEX
  8
LC_OH_2021_05_O7
  10
256665.000
  20
4502707.500
  0
VERTEX
  8
LC_OH_2021_05_O7
  10
256545.000
  20
4500383.000
  0
VERTEX
  8
LC_OH_2021_05_O7
  10
254625.500
  20
4500067.500
  0
VERTEX
  8
LC_OH_2021_05_O7
  10
253868.000
  20
4500462.500
  0
VERTEX
  8
LC_OH_2021_05_O7
  10
253868.000
  20
4500467.500
  0
VERTEX
  8
LC_OH_2021_05_O7
  10
254063.500
  20
4502501.500
  0
VERTEX
  8
LC_OH_2021_05_O7
  10
256601.500
  20
4503158.500
  0
VERTEX
  8
LC_OH_2021_05_O7
  10
256603.000
  20
4503159.000
  0
SEQEND
  8
LC_OH_2021_05_O7
  0
INSERT
  8
FeatureAttribs
  2
FEATURE
  41
1
  42
1
  43
1
  50
0
  10
252638.422
  20
4502087.751
 66
1
  0
ATTRIB
  8
FeatureAttribs
 70
0
  1
PNOA-H_AMS_1956-57_33k_ES_PAN_21mic_H50_0527_fot_63A-40298_W.tif
  2
NAME
  10
252638.422
  20
4502087.751
 40
34.80768
  0
SEQEND
  0
POLYLINE
  8
LC_OH_2021_05_O7
  70
1
  66
1
  0
VERTEX
  8
LC_OH_2021_05_O7
  10
253039.000
  20
4503391.500
  0
VERTEX
  8
LC_OH_2021_05_O7
  10
253819.500
  20
4503854.500
  0
VERTEX
  8
LC_OH_2021_05_O7
  10
254063.000
  20
4502502.500
  0
VERTEX
  8
LC_OH_2021_05_O7
  10
253868.000
  20
4500463.000
  0
VERTEX
  8
LC_OH_2021_05_O7
  10
251621.000
  20
4500321.000
  0
VERTEX
  8
LC_OH_2021_05_O7
  10
251075.500
  20
4500649.000
  0
VERTEX
  8
LC_OH_2021_05_O7
  10
251286.000
  20
4502350.500
  0
VERTEX
  8
LC_OH_2021_05_O7
  10
253038.000
  20
4503391.000
  0
VERTEX
  8
LC_OH_2021_05_O7
  10
253039.000
  20
4503391.500
  0
SEQEND
  8
LC_OH_2021_05_O7
  0
INSERT
  8
FeatureAttribs
  2
FEATURE
  41
1
  42
1
  43
1
  50
0
  10
240730.369
  20
4505104.500
 66
1
  0
ATTRIB
  8
FeatureAttribs
 70
0
  1
PNOA-H_AMS_1956-57_33k_ES_PAN_21mic_H50_0527_fot_000-34909_R.tif
  2
NAME
  10
240730.369
  20
4505104.500
 40
34.80768
  0
SEQEND
  0
POLYLINE
  8
LC_OH_2021_05_O7
  70
1
  66
1
  0
VERTEX
  8
LC_OH_2021_05_O7
  10
242311.688
  20
4506224.750
  0
VERTEX
  8
LC_OH_2021_05_O7
  10
242168.500
  20
4504849.000
  0
VERTEX
  8
LC_OH_2021_05_O7
  10
242168.000
  20
4504847.500
  0
VERTEX
  8
LC_OH_2021_05_O7
  10
242148.000
  20
4504835.000
  0
VERTEX
  8
LC_OH_2021_05_O7
  10
239835.000
  20
4503398.500
  0
VERTEX
  8
LC_OH_2021_05_O7
  10
239260.000
  20
4505049.000
  0
VERTEX
  8
LC_OH_2021_05_O7
  10
239390.301
  20
4506326.736
  0
VERTEX
  8
LC_OH_2021_05_O7
  10
241127.063
  20
4506265.771
  0
SEQEND
  8
LC_OH_2021_05_O7
  0
INSERT
  8
FeatureAttribs
  2
FEATURE
  41
1
  42
1
  43
1
  50
0
  10
237829.630
  20
4505354.499
 66
1
  0
ATTRIB
  8
FeatureAttribs
 70
0
  1
PNOA-H_AMS_1956-57_33k_ES_PAN_21mic_H50_0527_fot_000-34910_R.tif
  2
NAME
  10
237829.630
  20
4505354.499
 40
34.80768
  0
SEQEND
  0
POLYLINE
  8
LC_OH_2021_05_O7
  70
1
  66
1
  0
VERTEX
  8
LC_OH_2021_05_O7
  10
239390.633
  20
4506326.724
  0
VERTEX
  8
LC_OH_2021_05_O7
  10
239260.000
  20
4505050.000
  0
VERTEX
  8
LC_OH_2021_05_O7
  10
237097.000
  20
4503656.000
  0
VERTEX
  8
LC_OH_2021_05_O7
  10
236361.000
  20
4505280.000
  0
VERTEX
  8
LC_OH_2021_05_O7
  10
236471.073
  20
4506429.747
  0
VERTEX
  8
LC_OH_2021_05_O7
  10
237604.461
  20
4506389.423
  0
SEQEND
  8
LC_OH_2021_05_O7
  0
INSERT
  8
FeatureAttribs
  2
FEATURE
  41
1
  42
1
  43
1
  50
0
  10
234878.599
  20
4505464.498
 66
1
  0
ATTRIB
  8
FeatureAttribs
 70
0
  1
PNOA-H_AMS_1956-57_33k_ES_PAN_21mic_H50_0527_fot_000-34911_R.tif
  2
NAME
  10
234878.599
  20
4505464.498
 40
34.80768
  0
SEQEND
  0
POLYLINE
  8
LC_OH_2021_05_O7
  70
1
  66
1
  0
VERTEX
  8
LC_OH_2021_05_O7
  10
236471.143
  20
4506429.744
  0
VERTEX
  8
LC_OH_2021_05_O7
  10
236361.500
  20
4505281.500
  0
VERTEX
  8
LC_OH_2021_05_O7
  10
236356.500
  20
4505276.500
  0
VERTEX
  8
LC_OH_2021_05_O7
  10
234356.000
  20
4503838.000
  0
VERTEX
  8
LC_OH_2021_05_O7
  10
234344.500
  20
4503855.500
  0
VERTEX
  8
LC_OH_2021_05_O7
  10
232784.000
  20
4506454.000
  0
VERTEX
  8
LC_OH_2021_05_O7
  10
233109.100
  20
4506549.821
  0
VERTEX
  8
LC_OH_2021_05_O7
  10
234081.838
  20
4506514.751
  0
SEQEND
  8
LC_OH_2021_05_O7
  0
INSERT
  8
FeatureAttribs
  2
FEATURE
  41
1
  42
1
  43
1
  50
0
  10
258055.741
  20
4501298.750
 66
1
  0
ATTRIB
  8
FeatureAttribs
 70
0
  1
PNOA-H_AMS_1956-57_33k_ES_PAN_21mic_H50_0527_fot_63A-40296_W.tif
  2
NAME
  10
258055.741
  20
4501298.750
 40
34.80768
  0
SEQEND
  0
POLYLINE
  8
LC_OH_2021_05_O7
  70
1
  66
1
  0
VERTEX
  8
LC_OH_2021_05_O7
  10
258558.780
  20
4500099.055
  0
VERTEX
  8
LC_OH_2021_05_O7
  10
257714.000
  20
4499885.500
  0
VERTEX
  8
LC_OH_2021_05_O7
  10
256545.500
  20
4500383.000
  0
VERTEX
  8
LC_OH_2021_05_O7
  10
256665.000
  20
4502707.500
  0
VERTEX
  8
LC_OH_2021_05_O7
  10
256665.000
  20
4502712.000
  0
VERTEX
  8
LC_OH_2021_05_O7
  10
258637.347
  20
4502519.228
  0
VERTEX
  8
LC_OH_2021_05_O7
  10
258589.534
  20
4501046.639
  0
SEQEND
  8
LC_OH_2021_05_O7
  0
INSERT
  8
FeatureAttribs
  2
FEATURE
  41
1
  42
1
  43
1
  50
0
  10
243620.195
  20
4504763.499
 66
1
  0
ATTRIB
  8
FeatureAttribs
 70
0
  1
PNOA-H_AMS_1956-57_33k_ES_PAN_21mic_H50_0527_fot_000-34908_R.tif
  2
NAME
  10
243620.195
  20
4504763.499
 40
34.80768
  0
SEQEND
  0
POLYLINE
  8
LC_OH_2021_05_O7
  70
1
  66
1
  0
VERTEX
  8
LC_OH_2021_05_O7
  10
244993.173
  20
4506132.061
  0
VERTEX
  8
LC_OH_2021_05_O7
  10
245203.500
  20
4506091.000
  0
VERTEX
  8
LC_OH_2021_05_O7
  10
245097.500
  20
4504799.000
  0
VERTEX
  8
LC_OH_2021_05_O7
  10
242665.000
  20
4502979.000
  0
VERTEX
  8
LC_OH_2021_05_O7
  10
242168.000
  20
4504847.500
  0
VERTEX
  8
LC_OH_2021_05_O7
  10
242311.672
  20
4506224.751
  0
VERTEX
  8
LC_OH_2021_05_O7
  10
244649.643
  20
4506143.793
  0
SEQEND
  8
LC_OH_2021_05_O7
  0
INSERT
  8
FeatureAttribs
  2
FEATURE
  41
1
  42
1
  43
1
  50
0
  10
247084.595
  20
4502799.751
 66
1
  0
ATTRIB
  8
FeatureAttribs
 70
0
  1
PNOA-H_AMS_1956-57_33k_ES_PAN_21mic_H50_0527_fot_63A-40300_W.tif
  2
NAME
  10
247084.595
  20
4502799.751
 40
34.80768
  0
SEQEND
  0
POLYLINE
  8
LC_OH_2021_05_O7
  70
1
  66
1
  0
VERTEX
  8
LC_OH_2021_05_O7
  10
248070.500
  20
4504754.500
  0
VERTEX
  8
LC_OH_2021_05_O7
  10
248446.500
  20
4502593.500
  0
VERTEX
  8
LC_OH_2021_05_O7
  10
248288.000
  20
4500845.000
  0
VERTEX
  8
LC_OH_2021_05_O7
  10
245790.000
  20
4500847.000
  0
VERTEX
  8
LC_OH_2021_05_O7
  10
245476.000
  20
4501042.000
  0
VERTEX
  8
LC_OH_2021_05_O7
  10
245566.000
  20
4502637.000
  0
VERTEX
  8
LC_OH_2021_05_O7
  10
248070.000
  20
4504753.500
  0
VERTEX
  8
LC_OH_2021_05_O7
  10
248070.500
  20
4504754.500
  0
SEQEND
  8
LC_OH_2021_05_O7
  0
INSERT
  8
FeatureAttribs
  2
FEATURE
  41
1
  42
1
  43
1
  50
0
  10
249852.947
  20
4502412.501
 66
1
  0
ATTRIB
  8
FeatureAttribs
 70
0
  1
PNOA-H_AMS_1956-57_33k_ES_PAN_21mic_H50_0527_fot_63A-40299_W.tif
  2
NAME
  10
249852.947
  20
4502412.501
 40
34.80768
  0
SEQEND
  0
POLYLINE
  8
LC_OH_2021_05_O7
  70
1
  66
1
  0
VERTEX
  8
LC_OH_2021_05_O7
  10
250991.500
  20
4504076.000
  0
VERTEX
  8
LC_OH_2021_05_O7
  10
251286.000
  20
4502352.500
  0
VERTEX
  8
LC_OH_2021_05_O7
  10
251076.000
  20
4500649.500
  0
VERTEX
  8
LC_OH_2021_05_O7
  10
251024.500
  20
4500647.500
  0
VERTEX
  8
LC_OH_2021_05_O7
  10
248705.000
  20
4500592.000
  0
VERTEX
  8
LC_OH_2021_05_O7
  10
248288.000
  20
4500844.500
  0
VERTEX
  8
LC_OH_2021_05_O7
  10
248446.500
  20
4502593.000
  0
VERTEX
  8
LC_OH_2021_05_O7
  10
250964.500
  20
4504233.000
  0
VERTEX
  8
LC_OH_2021_05_O7
  10
250991.500
  20
4504079.000
  0
VERTEX
  8
LC_OH_2021_05_O7
  10
250991.500
  20
4504076.000
  0
SEQEND
  8
LC_OH_2021_05_O7
  0
INSERT
  8
FeatureAttribs
  2
FEATURE
  41
1
  42
1
  43
1
  50
0
  10
241235.735
  20
4502998.500
 66
1
  0
ATTRIB
  8
FeatureAttribs
 70
0
  1
PNOA-H_AMS_1956-57_33k_ES_PAN_21mic_H50_0527_fot_63A-40302_W.tif
  2
NAME
  10
241235.735
  20
4502998.500
 40
34.80768
  0
SEQEND
  0
POLYLINE
  8
LC_OH_2021_05_O7
  70
1
  66
1
  0
VERTEX
  8
LC_OH_2021_05_O7
  10
242167.000
  20
4504847.500
  0
VERTEX
  8
LC_OH_2021_05_O7
  10
242168.500
  20
4504847.500
  0
VERTEX
  8
LC_OH_2021_05_O7
  10
242170.000
  20
4504842.000
  0
VERTEX
  8
LC_OH_2021_05_O7
  10
242665.000
  20
4502979.500
  0
VERTEX
  8
LC_OH_2021_05_O7
  10
242583.500
  20
4501149.500
  0
VERTEX
  8
LC_OH_2021_05_O7
  10
239849.500
  20
4501167.000
  0
VERTEX
  8
LC_OH_2021_05_O7
  10
239709.000
  20
4501252.500
  0
VERTEX
  8
LC_OH_2021_05_O7
  10
239835.000
  20
4503398.500
  0
VERTEX
  8
LC_OH_2021_05_O7
  10
242166.500
  20
4504846.500
  0
VERTEX
  8
LC_OH_2021_05_O7
  10
242167.000
  20
4504847.500
  0
SEQEND
  8
LC_OH_2021_05_O7
  0
INSERT
  8
FeatureAttribs
  2
FEATURE
  41
1
  42
1
  43
1
  50
0
  10
252946.946
  20
4493925.000
 66
1
  0
ATTRIB
  8
FeatureAttribs
 70
0
  1
PNOA-H_AMS_1956-57_33k_ES_PAN_21mic_H50_0527_fot_000-42161_R.tif
  2
NAME
  10
252946.946
  20
4493925.000
 40
34.80768
  0
SEQEND
  0
POLYLINE
  8
LC_OH_2021_05_O7
  70
1
  66
1
  0
VERTEX
  8
LC_OH_2021_05_O7
  10
253037.500
  20
4494807.000
  0
VERTEX
  8
LC_OH_2021_05_O7
  10
254222.000
  20
4495070.000
  0
VERTEX
  8
LC_OH_2021_05_O7
  10
254463.500
  20
4493105.000
  0
VERTEX
  8
LC_OH_2021_05_O7
  10
254471.000
  20
4492872.500
  0
VERTEX
  8
LC_OH_2021_05_O7
  10
254436.000
  20
4492846.500
  0
VERTEX
  8
LC_OH_2021_05_O7
  10
251787.500
  20
4492780.000
  0
VERTEX
  8
LC_OH_2021_05_O7
  10
251528.000
  20
4492978.000
  0
VERTEX
  8
LC_OH_2021_05_O7
  10
251533.000
  20
4494472.500
  0
VERTEX
  8
LC_OH_2021_05_O7
  10
253035.000
  20
4494806.500
  0
VERTEX
  8
LC_OH_2021_05_O7
  10
253037.500
  20
4494807.000
  0
SEQEND
  8
LC_OH_2021_05_O7
  0
INSERT
  8
FeatureAttribs
  2
FEATURE
  41
1
  42
1
  43
1
  50
0
  10
256307.579
  20
4494454.750
 66
1
  0
ATTRIB
  8
FeatureAttribs
 70
0
  1
PNOA-H_AMS_1956-57_33k_ES_PAN_21mic_H50_0527_fot_000-42160_R.tif
  2
NAME
  10
256307.579
  20
4494454.750
 40
34.80768
  0
SEQEND
  0
POLYLINE
  8
LC_OH_2021_05_O7
  70
1
  66
1
  0
VERTEX
  8
LC_OH_2021_05_O7
  10
255087.000
  20
4493889.500
  0
VERTEX
  8
LC_OH_2021_05_O7
  10
256963.000
  20
4496255.000
  0
VERTEX
  8
LC_OH_2021_05_O7
  10
256965.000
  20
4496257.000
  0
VERTEX
  8
LC_OH_2021_05_O7
  10
256967.000
  20
4496257.000
  0
VERTEX
  8
LC_OH_2021_05_O7
  10
257124.500
  20
4496247.500
  0
VERTEX
  8
LC_OH_2021_05_O7
  10
257035.000
  20
4492652.500
  0
VERTEX
  8
LC_OH_2021_05_O7
  10
254471.000
  20
4492872.500
  0
VERTEX
  8
LC_OH_2021_05_O7
  10
254464.000
  20
4493104.000
  0
VERTEX
  8
LC_OH_2021_05_O7
  10
255086.500
  20
4493888.000
  0
VERTEX
  8
LC_OH_2021_05_O7
  10
255087.000
  20
4493889.500
  0
SEQEND
  8
LC_OH_2021_05_O7
  0
INSERT
  8
FeatureAttribs
  2
FEATURE
  41
1
  42
1
  43
1
  50
0
  10
247307.600
  20
4494009.000
 66
1
  0
ATTRIB
  8
FeatureAttribs
 70
0
  1
PNOA-H_AMS_1956-57_33k_ES_PAN_21mic_H50_0527_fot_000-42163_R.tif
  2
NAME
  10
247307.600
  20
4494009.000
 40
34.80768
  0
SEQEND
  0
POLYLINE
  8
LC_OH_2021_05_O7
  70
1
  66
1
  0
VERTEX
  8
LC_OH_2021_05_O7
  10
246014.000
  20
4495124.500
  0
VERTEX
  8
LC_OH_2021_05_O7
  10
248782.000
  20
4494946.000
  0
VERTEX
  8
LC_OH_2021_05_O7
  10
248648.500
  20
4493121.500
  0
VERTEX
  8
LC_OH_2021_05_O7
  10
246343.000
  20
4492893.500
  0
VERTEX
  8
LC_OH_2021_05_O7
  10
245831.000
  20
4493247.500
  0
VERTEX
  8
LC_OH_2021_05_O7
  10
245830.000
  20
4493248.500
  0
VERTEX
  8
LC_OH_2021_05_O7
  10
245830.500
  20
4493258.000
  0
VERTEX
  8
LC_OH_2021_05_O7
  10
246004.000
  20
4495087.000
  0
VERTEX
  8
LC_OH_2021_05_O7
  10
246005.000
  20
4495096.000
  0
VERTEX
  8
LC_OH_2021_05_O7
  10
246013.500
  20
4495122.500
  0
VERTEX
  8
LC_OH_2021_05_O7
  10
246014.000
  20
4495124.500
  0
SEQEND
  8
LC_OH_2021_05_O7
  0
INSERT
  8
FeatureAttribs
  2
FEATURE
  41
1
  42
1
  43
1
  50
0
  10
244517.306
  20
4494213.251
 66
1
  0
ATTRIB
  8
FeatureAttribs
 70
0
  1
PNOA-H_AMS_1956-57_33k_ES_PAN_21mic_H50_0527_fot_000-42164_R.tif
  2
NAME
  10
244517.306
  20
4494213.251
 40
34.80768
  0
SEQEND
  0
POLYLINE
  8
LC_OH_2021_05_O7
  70
1
  66
1
  0
VERTEX
  8
LC_OH_2021_05_O7
  10
243282.500
  20
4495428.500
  0
VERTEX
  8
LC_OH_2021_05_O7
  10
246005.000
  20
4495095.000
  0
VERTEX
  8
LC_OH_2021_05_O7
  10
245830.000
  20
4493248.500
  0
VERTEX
  8
LC_OH_2021_05_O7
  10
243659.000
  20
4492998.000
  0
VERTEX
  8
LC_OH_2021_05_O7
  10
243053.000
  20
4493366.500
  0
VERTEX
  8
LC_OH_2021_05_O7
  10
243166.500
  20
4494963.500
  0
VERTEX
  8
LC_OH_2021_05_O7
  10
243282.500
  20
4495427.500
  0
VERTEX
  8
LC_OH_2021_05_O7
  10
243282.500
  20
4495428.500
  0
SEQEND
  8
LC_OH_2021_05_O7
  0
INSERT
  8
FeatureAttribs
  2
FEATURE
  41
1
  42
1
  43
1
  50
0
  10
250119.640
  20
4493937.249
 66
1
  0
ATTRIB
  8
FeatureAttribs
 70
0
  1
PNOA-H_AMS_1956-57_33k_ES_PAN_21mic_H50_0527_fot_000-42162_R.tif
  2
NAME
  10
250119.640
  20
4493937.249
 40
34.80768
  0
SEQEND
  0
POLYLINE
  8
LC_OH_2021_05_O7
  70
1
  66
1
  0
VERTEX
  8
LC_OH_2021_05_O7
  10
250991.500
  20
4494691.500
  0
VERTEX
  8
LC_OH_2021_05_O7
  10
251505.000
  20
4494591.500
  0
VERTEX
  8
LC_OH_2021_05_O7
  10
251511.000
  20
4494589.500
  0
VERTEX
  8
LC_OH_2021_05_O7
  10
251533.000
  20
4494474.000
  0
VERTEX
  8
LC_OH_2021_05_O7
  10
251528.000
  20
4492978.000
  0
VERTEX
  8
LC_OH_2021_05_O7
  10
249129.500
  20
4492761.500
  0
VERTEX
  8
LC_OH_2021_05_O7
  10
248648.500
  20
4493121.000
  0
VERTEX
  8
LC_OH_2021_05_O7
  10
248781.500
  20
4494944.000
  0
VERTEX
  8
LC_OH_2021_05_O7
  10
248833.000
  20
4495113.000
  0
VERTEX
  8
LC_OH_2021_05_O7
  10
248840.500
  20
4495112.500
  0
VERTEX
  8
LC_OH_2021_05_O7
  10
250988.500
  20
4494692.000
  0
VERTEX
  8
LC_OH_2021_05_O7
  10
250991.500
  20
4494691.500
  0
SEQEND
  8
LC_OH_2021_05_O7
  0
INSERT
  8
FeatureAttribs
  2
FEATURE
  41
1
  42
1
  43
1
  50
0
  10
241745.093
  20
4494452.499
 66
1
  0
ATTRIB
  8
FeatureAttribs
 70
0
  1
PNOA-H_AMS_1956-57_33k_ES_PAN_21mic_H50_0527_fot_000-42165_R.tif
  2
NAME
  10
241745.093
  20
4494452.499
 40
34.80768
  0
SEQEND
  0
POLYLINE
  8
LC_OH_2021_05_O7
  70
1
  66
1
  0
VERTEX
  8
LC_OH_2021_05_O7
  10
242799.500
  20
4495089.500
  0
VERTEX
  8
LC_OH_2021_05_O7
  10
243166.500
  20
4494963.000
  0
VERTEX
  8
LC_OH_2021_05_O7
  10
243053.000
  20
4493366.500
  0
VERTEX
  8
LC_OH_2021_05_O7
  10
241009.000
  20
4493084.500
  0
VERTEX
  8
LC_OH_2021_05_O7
  10
241005.000
  20
4493085.000
  0
VERTEX
  8
LC_OH_2021_05_O7
  10
240281.500
  20
4493499.500
  0
VERTEX
  8
LC_OH_2021_05_O7
  10
240314.000
  20
4494253.500
  0
VERTEX
  8
LC_OH_2021_05_O7
  10
240676.000
  20
4495820.500
  0
VERTEX
  8
LC_OH_2021_05_O7
  10
242798.500
  20
4495089.500
  0
VERTEX
  8
LC_OH_2021_05_O7
  10
242799.500
  20
4495089.500
  0
SEQEND
  8
LC_OH_2021_05_O7
  0
INSERT
  8
FeatureAttribs
  2
FEATURE
  41
1
  42
1
  43
1
  50
0
  10
244083.540
  20
4502920.500
 66
1
  0
ATTRIB
  8
FeatureAttribs
 70
0
  1
PNOA-H_AMS_1956-57_33k_ES_PAN_21mic_H50_0527_fot_63A-40301_W.tif
  2
NAME
  10
244083.540
  20
4502920.500
 40
34.80768
  0
SEQEND
  0
POLYLINE
  8
LC_OH_2021_05_O7
  70
1
  66
1
  0
VERTEX
  8
LC_OH_2021_05_O7
  10
242799.000
  20
4503079.000
  0
VERTEX
  8
LC_OH_2021_05_O7
  10
245097.500
  20
4504799.000
  0
VERTEX
  8
LC_OH_2021_05_O7
  10
245566.000
  20
4502637.500
  0
VERTEX
  8
LC_OH_2021_05_O7
  10
245476.000
  20
4501042.000
  0
VERTEX
  8
LC_OH_2021_05_O7
  10
242749.000
  20
4501048.500
  0
VERTEX
  8
LC_OH_2021_05_O7
  10
242583.500
  20
4501149.500
  0
VERTEX
  8
LC_OH_2021_05_O7
  10
242665.000
  20
4502979.000
  0
VERTEX
  8
LC_OH_2021_05_O7
  10
242798.000
  20
4503078.500
  0
VERTEX
  8
LC_OH_2021_05_O7
  10
242799.000
  20
4503079.000
  0
SEQEND
  8
LC_OH_2021_05_O7
  0
INSERT
  8
FeatureAttribs
  2
FEATURE
  41
1
  42
1
  43
1
  50
0
  10
252911.361
  20
4495570.500
 66
1
  0
ATTRIB
  8
FeatureAttribs
 70
0
  1
PNOA-H_AMS_1956-57_33k_ES_PAN_21mic_H50_0527_fot_65A-46664_W.tif
  2
NAME
  10
252911.361
  20
4495570.500
 40
34.80768
  0
SEQEND
  0
POLYLINE
  8
LC_OH_2021_05_O7
  70
1
  66
1
  0
VERTEX
  8
LC_OH_2021_05_O7
  10
251626.000
  20
4496668.500
  0
VERTEX
  8
LC_OH_2021_05_O7
  10
254320.000
  20
4496446.500
  0
VERTEX
  8
LC_OH_2021_05_O7
  10
254222.000
  20
4495070.000
  0
VERTEX
  8
LC_OH_2021_05_O7
  10
251533.000
  20
4494472.500
  0
VERTEX
  8
LC_OH_2021_05_O7
  10
251510.500
  20
4494592.500
  0
VERTEX
  8
LC_OH_2021_05_O7
  10
251626.000
  20
4496661.500
  0
VERTEX
  8
LC_OH_2021_05_O7
  10
251626.000
  20
4496668.500
  0
SEQEND
  8
LC_OH_2021_05_O7
  0
INSERT
  8
FeatureAttribs
  2
FEATURE
  41
1
  42
1
  43
1
  50
0
  10
235831.054
  20
4495060.002
 66
1
  0
ATTRIB
  8
FeatureAttribs
 70
0
  1
PNOA-H_AMS_1956-57_33k_ES_PAN_21mic_H50_0527_fot_000-42167_R.tif
  2
NAME
  10
235831.054
  20
4495060.002
 40
34.80768
  0
SEQEND
  0
POLYLINE
  8
LC_OH_2021_05_O7
  70
1
  66
1
  0
VERTEX
  8
LC_OH_2021_05_O7
  10
236655.500
  20
4495186.500
  0
VERTEX
  8
LC_OH_2021_05_O7
  10
237505.000
  20
4494041.500
  0
VERTEX
  8
LC_OH_2021_05_O7
  10
237497.500
  20
4493565.500
  0
VERTEX
  8
LC_OH_2021_05_O7
  10
235655.000
  20
4493137.500
  0
VERTEX
  8
LC_OH_2021_05_O7
  10
234593.500
  20
4493567.500
  0
VERTEX
  8
LC_OH_2021_05_O7
  10
235324.000
  20
4496982.500
  0
VERTEX
  8
LC_OH_2021_05_O7
  10
236655.000
  20
4495188.000
  0
VERTEX
  8
LC_OH_2021_05_O7
  10
236655.500
  20
4495186.500
  0
SEQEND
  8
LC_OH_2021_05_O7
  0
INSERT
  8
FeatureAttribs
  2
FEATURE
  41
1
  42
1
  43
1
  50
0
  10
238674.639
  20
4494979.501
 66
1
  0
ATTRIB
  8
FeatureAttribs
 70
0
  1
PNOA-H_AMS_1956-57_33k_ES_PAN_21mic_H50_0527_fot_000-42166_R.tif
  2
NAME
  10
238674.639
  20
4494979.501
 40
34.80768
  0
SEQEND
  0
POLYLINE
  8
LC_OH_2021_05_O7
  70
1
  66
1
  0
VERTEX
  8
LC_OH_2021_05_O7
  10
240304.000
  20
4494014.500
  0
VERTEX
  8
LC_OH_2021_05_O7
  10
240281.500
  20
4493499.500
  0
VERTEX
  8
LC_OH_2021_05_O7
  10
238311.000
  20
4493178.000
  0
VERTEX
  8
LC_OH_2021_05_O7
  10
238307.500
  20
4493178.000
  0
VERTEX
  8
LC_OH_2021_05_O7
  10
238298.000
  20
4493182.500
  0
VERTEX
  8
LC_OH_2021_05_O7
  10
237498.000
  20
4493565.500
  0
VERTEX
  8
LC_OH_2021_05_O7
  10
237505.500
  20
4494042.000
  0
VERTEX
  8
LC_OH_2021_05_O7
  10
238039.500
  20
4496781.000
  0
VERTEX
  8
LC_OH_2021_05_O7
  10
240314.000
  20
4494254.000
  0
VERTEX
  8
LC_OH_2021_05_O7
  10
240304.000
  20
4494024.000
  0
VERTEX
  8
LC_OH_2021_05_O7
  10
240304.000
  20
4494014.500
  0
SEQEND
  8
LC_OH_2021_05_O7
  0
INSERT
  8
FeatureAttribs
  2
FEATURE
  41
1
  42
1
  43
1
  50
0
  10
247479.807
  20
4495972.999
 66
1
  0
ATTRIB
  8
FeatureAttribs
 70
0
  1
PNOA-H_AMS_1956-57_33k_ES_PAN_21mic_H50_0527_fot_65A-46666_W.tif
  2
NAME
  10
247479.807
  20
4495972.999
 40
34.80768
  0
SEQEND
  0
POLYLINE
  8
LC_OH_2021_05_O7
  70
1
  66
1
  0
VERTEX
  8
LC_OH_2021_05_O7
  10
246893.500
  20
4496811.500
  0
VERTEX
  8
LC_OH_2021_05_O7
  10
248479.000
  20
4497000.000
  0
VERTEX
  8
LC_OH_2021_05_O7
  10
248923.500
  20
4496588.000
  0
VERTEX
  8
LC_OH_2021_05_O7
  10
248834.000
  20
4495118.500
  0
VERTEX
  8
LC_OH_2021_05_O7
  10
248832.500
  20
4495109.500
  0
VERTEX
  8
LC_OH_2021_05_O7
  10
248782.000
  20
4494946.000
  0
VERTEX
  8
LC_OH_2021_05_O7
  10
246014.000
  20
4495124.500
  0
VERTEX
  8
LC_OH_2021_05_O7
  10
246126.000
  20
4496720.000
  0
VERTEX
  8
LC_OH_2021_05_O7
  10
246889.000
  20
4496811.000
  0
VERTEX
  8
LC_OH_2021_05_O7
  10
246893.500
  20
4496811.500
  0
SEQEND
  8
LC_OH_2021_05_O7
  0
INSERT
  8
FeatureAttribs
  2
FEATURE
  41
1
  42
1
  43
1
  50
0
  10
235712.120
  20
4503306.251
 66
1
  0
ATTRIB
  8
FeatureAttribs
 70
0
  1
PNOA-H_AMS_1956-57_33k_ES_PAN_21mic_H50_0527_fot_63A-40304_W.tif
  2
NAME
  10
235712.120
  20
4503306.251
 40
34.80768
  0
SEQEND
  0
POLYLINE
  8
LC_OH_2021_05_O7
  70
1
  66
1
  0
VERTEX
  8
LC_OH_2021_05_O7
  10
234607.000
  20
4504019.000
  0
VERTEX
  8
LC_OH_2021_05_O7
  10
236359.500
  20
4505279.500
  0
VERTEX
  8
LC_OH_2021_05_O7
  10
236361.500
  20
4505280.000
  0
VERTEX
  8
LC_OH_2021_05_O7
  10
237096.500
  20
4503656.500
  0
VERTEX
  8
LC_OH_2021_05_O7
  10
236982.000
  20
4501339.000
  0
VERTEX
  8
LC_OH_2021_05_O7
  10
236969.500
  20
4501332.500
  0
VERTEX
  8
LC_OH_2021_05_O7
  10
236965.000
  20
4501332.500
  0
VERTEX
  8
LC_OH_2021_05_O7
  10
234310.000
  20
4501528.000
  0
VERTEX
  8
LC_OH_2021_05_O7
  10
234355.500
  20
4503838.000
  0
VERTEX
  8
LC_OH_2021_05_O7
  10
234606.500
  20
4504018.000
  0
VERTEX
  8
LC_OH_2021_05_O7
  10
234607.000
  20
4504019.000
  0
SEQEND
  8
LC_OH_2021_05_O7
  0
INSERT
  8
FeatureAttribs
  2
FEATURE
  41
1
  42
1
  43
1
  50
0
  10
244698.660
  20
4496175.499
 66
1
  0
ATTRIB
  8
FeatureAttribs
 70
0
  1
PNOA-H_AMS_1956-57_33k_ES_PAN_21mic_H50_0527_fot_65A-46667_W.tif
  2
NAME
  10
244698.660
  20
4496175.499
 40
34.80768
  0
SEQEND
  0
POLYLINE
  8
LC_OH_2021_05_O7
  70
1
  66
1
  0
VERTEX
  8
LC_OH_2021_05_O7
  10
244845.000
  20
4497145.500
  0
VERTEX
  8
LC_OH_2021_05_O7
  10
245505.500
  20
4497256.000
  0
VERTEX
  8
LC_OH_2021_05_O7
  10
246126.000
  20
4496720.500
  0
VERTEX
  8
LC_OH_2021_05_O7
  10
246014.500
  20
4495130.500
  0
VERTEX
  8
LC_OH_2021_05_O7
  10
246014.000
  20
4495124.000
  0
VERTEX
  8
LC_OH_2021_05_O7
  10
246005.000
  20
4495095.000
  0
VERTEX
  8
LC_OH_2021_05_O7
  10
243282.500
  20
4495428.500
  0
VERTEX
  8
LC_OH_2021_05_O7
  10
243335.500
  20
4496892.000
  0
VERTEX
  8
LC_OH_2021_05_O7
  10
244842.000
  20
4497145.000
  0
VERTEX
  8
LC_OH_2021_05_O7
  10
244845.000
  20
4497145.500
  0
SEQEND
  8
LC_OH_2021_05_O7
  0
INSERT
  8
FeatureAttribs
  2
FEATURE
  41
1
  42
1
  43
1
  50
0
  10
232860.581
  20
4503943.000
 66
1
  0
ATTRIB
  8
FeatureAttribs
 70
0
  1
PNOA-H_AMS_1956-57_33k_ES_PAN_21mic_H50_0527_fot_63A-40305_W.tif
  2
NAME
  10
232860.581
  20
4503943.000
 40
34.80768
  0
SEQEND
  0
POLYLINE
  8
LC_OH_2021_05_O7
  70
1
  66
1
  0
VERTEX
  8
LC_OH_2021_05_O7
  10
231485.500
  20
4506348.000
  0
VERTEX
  8
LC_OH_2021_05_O7
  10
231817.000
  20
4506486.500
  0
VERTEX
  8
LC_OH_2021_05_O7
  10
232473.500
  20
4506501.500
  0
VERTEX
  8
LC_OH_2021_05_O7
  10
232496.000
  20
4506502.000
  0
VERTEX
  8
LC_OH_2021_05_O7
  10
232519.500
  20
4506502.000
  0
VERTEX
  8
LC_OH_2021_05_O7
  10
232784.500
  20
4506453.500
  0
VERTEX
  8
LC_OH_2021_05_O7
  10
234355.500
  20
4503838.500
  0
VERTEX
  8
LC_OH_2021_05_O7
  10
234310.000
  20
4501527.500
  0
VERTEX
  8
LC_OH_2021_05_O7
  10
234010.000
  20
4501384.000
  0
VERTEX
  8
LC_OH_2021_05_O7
  10
231374.500
  20
4501670.000
  0
SEQEND
  8
LC_OH_2021_05_O7
  0
INSERT
  8
FeatureAttribs
  2
FEATURE
  41
1
  42
1
  43
1
  50
0
  10
239750.255
  20
4495912.500
 66
1
  0
ATTRIB
  8
FeatureAttribs
 70
0
  1
PNOA-H_AMS_1956-57_33k_ES_PAN_21mic_H50_0527_fot_65A-46669_W.tif
  2
NAME
  10
239750.255
  20
4495912.500
 40
34.80768
  0
SEQEND
  0
POLYLINE
  8
LC_OH_2021_05_O7
  70
1
  66
1
  0
VERTEX
  8
LC_OH_2021_05_O7
  10
238702.500
  20
4497209.000
  0
VERTEX
  8
LC_OH_2021_05_O7
  10
239715.000
  20
4497571.500
  0
VERTEX
  8
LC_OH_2021_05_O7
  10
240716.000
  20
4496962.500
  0
VERTEX
  8
LC_OH_2021_05_O7
  10
240676.000
  20
4495819.000
  0
VERTEX
  8
LC_OH_2021_05_O7
  10
240314.500
  20
4494253.500
  0
VERTEX
  8
LC_OH_2021_05_O7
  10
238039.500
  20
4496781.000
  0
VERTEX
  8
LC_OH_2021_05_O7
  10
238041.500
  20
4496972.000
  0
VERTEX
  8
LC_OH_2021_05_O7
  10
238701.000
  20
4497208.500
  0
VERTEX
  8
LC_OH_2021_05_O7
  10
238702.500
  20
4497209.000
  0
SEQEND
  8
LC_OH_2021_05_O7
  0
INSERT
  8
FeatureAttribs
  2
FEATURE
  41
1
  42
1
  43
1
  50
0
  10
257816.072
  20
4494546.500
 66
1
  0
ATTRIB
  8
FeatureAttribs
 70
0
  1
PNOA-H_AMS_1956-57_33k_ES_PAN_21mic_H50_0527_fot_65A-46662_W.tif
  2
NAME
  10
257816.072
  20
4494546.500
 40
34.80768
  0
SEQEND
  0
POLYLINE
  8
LC_OH_2021_05_O7
  70
1
  66
1
  0
VERTEX
  8
LC_OH_2021_05_O7
  10
258316.570
  20
4492631.209
  0
VERTEX
  8
LC_OH_2021_05_O7
  10
257085.500
  20
4492615.000
  0
VERTEX
  8
LC_OH_2021_05_O7
  10
257035.000
  20
4492652.500
  0
VERTEX
  8
LC_OH_2021_05_O7
  10
257124.000
  20
4496245.000
  0
VERTEX
  8
LC_OH_2021_05_O7
  10
257125.500
  20
4496248.500
  0
VERTEX
  8
LC_OH_2021_05_O7
  10
257491.500
  20
4496477.500
  0
VERTEX
  8
LC_OH_2021_05_O7
  10
257492.500
  20
4496478.000
  0
VERTEX
  8
LC_OH_2021_05_O7
  10
258433.816
  20
4496247.493
  0
VERTEX
  8
LC_OH_2021_05_O7
  10
258364.428
  20
4494107.703
  0
SEQEND
  8
LC_OH_2021_05_O7
  0
INSERT
  8
FeatureAttribs
  2
FEATURE
  41
1
  42
1
  43
1
  50
0
  10
250219.675
  20
4495679.750
 66
1
  0
ATTRIB
  8
FeatureAttribs
 70
0
  1
PNOA-H_AMS_1956-57_33k_ES_PAN_21mic_H50_0527_fot_65A-46665_W.tif
  2
NAME
  10
250219.675
  20
4495679.750
 40
34.80768
  0
SEQEND
  0
POLYLINE
  8
LC_OH_2021_05_O7
  70
1
  66
1
  0
VERTEX
  8
LC_OH_2021_05_O7
  10
251517.000
  20
4496769.500
  0
VERTEX
  8
LC_OH_2021_05_O7
  10
251522.000
  20
4496769.500
  0
VERTEX
  8
LC_OH_2021_05_O7
  10
251611.000
  20
4496683.500
  0
VERTEX
  8
LC_OH_2021_05_O7
  10
251626.000
  20
4496668.500
  0
VERTEX
  8
LC_OH_2021_05_O7
  10
251626.000
  20
4496661.500
  0
VERTEX
  8
LC_OH_2021_05_O7
  10
251510.500
  20
4494590.000
  0
VERTEX
  8
LC_OH_2021_05_O7
  10
248833.500
  20
4495113.500
  0
VERTEX
  8
LC_OH_2021_05_O7
  10
248923.500
  20
4496587.500
  0
VERTEX
  8
LC_OH_2021_05_O7
  10
251510.000
  20
4496769.000
  0
VERTEX
  8
LC_OH_2021_05_O7
  10
251517.000
  20
4496769.500
  0
SEQEND
  8
LC_OH_2021_05_O7
  0
INSERT
  8
FeatureAttribs
  2
FEATURE
  41
1
  42
1
  43
1
  50
0
  10
255054.933
  20
4494867.000
 66
1
  0
ATTRIB
  8
FeatureAttribs
 70
0
  1
PNOA-H_AMS_1956-57_33k_ES_PAN_21mic_H50_0527_fot_65A-46663_W.tif
  2
NAME
  10
255054.933
  20
4494867.000
 40
34.80768
  0
SEQEND
  0
POLYLINE
  8
LC_OH_2021_05_O7
  70
1
  66
1
  0
VERTEX
  8
LC_OH_2021_05_O7
  10
255087.500
  20
4496548.500
  0
VERTEX
  8
LC_OH_2021_05_O7
  10
256965.000
  20
4496256.500
  0
VERTEX
  8
LC_OH_2021_05_O7
  10
254464.000
  20
4493103.000
  0
VERTEX
  8
LC_OH_2021_05_O7
  10
254222.000
  20
4495069.000
  0
VERTEX
  8
LC_OH_2021_05_O7
  10
254319.500
  20
4496444.500
  0
VERTEX
  8
LC_OH_2021_05_O7
  10
254320.000
  20
4496447.000
  0
VERTEX
  8
LC_OH_2021_05_O7
  10
254322.500
  20
4496449.000
  0
VERTEX
  8
LC_OH_2021_05_O7
  10
254556.500
  20
4496631.000
  0
VERTEX
  8
LC_OH_2021_05_O7
  10
255085.500
  20
4496548.500
  0
VERTEX
  8
LC_OH_2021_05_O7
  10
255087.500
  20
4496548.500
  0
SEQEND
  8
LC_OH_2021_05_O7
  0
INSERT
  8
FeatureAttribs
  2
FEATURE
  41
1
  42
1
  43
1
  50
0
  10
238445.995
  20
4503151.251
 66
1
  0
ATTRIB
  8
FeatureAttribs
 70
0
  1
PNOA-H_AMS_1956-57_33k_ES_PAN_21mic_H50_0527_fot_63A-40303_W.tif
  2
NAME
  10
238445.995
  20
4503151.251
 40
34.80768
  0
SEQEND
  0
POLYLINE
  8
LC_OH_2021_05_O7
  70
1
  66
1
  0
VERTEX
  8
LC_OH_2021_05_O7
  10
239259.000
  20
4505050.000
  0
VERTEX
  8
LC_OH_2021_05_O7
  10
239260.000
  20
4505050.000
  0
VERTEX
  8
LC_OH_2021_05_O7
  10
239262.500
  20
4505043.500
  0
VERTEX
  8
LC_OH_2021_05_O7
  10
239835.000
  20
4503399.500
  0
VERTEX
  8
LC_OH_2021_05_O7
  10
239709.000
  20
4501252.500
  0
VERTEX
  8
LC_OH_2021_05_O7
  10
236982.000
  20
4501339.000
  0
VERTEX
  8
LC_OH_2021_05_O7
  10
237096.500
  20
4503656.000
  0
VERTEX
  8
LC_OH_2021_05_O7
  10
239258.500
  20
4505049.000
  0
VERTEX
  8
LC_OH_2021_05_O7
  10
239259.000
  20
4505050.000
  0
SEQEND
  8
LC_OH_2021_05_O7
  0
INSERT
  8
FeatureAttribs
  2
FEATURE
  41
1
  42
1
  43
1
  50
0
  10
232904.276
  20
4495170.001
 66
1
  0
ATTRIB
  8
FeatureAttribs
 70
0
  1
PNOA-H_AMS_1956-57_33k_ES_PAN_21mic_H50_0527_fot_000-42168_R.tif
  2
NAME
  10
232904.276
  20
4495170.001
 40
34.80768
  0
SEQEND
  0
POLYLINE
  8
LC_OH_2021_05_O7
  70
1
  66
1
  0
VERTEX
  8
LC_OH_2021_05_O7
  10
232800.000
  20
4497268.000
  0
VERTEX
  8
LC_OH_2021_05_O7
  10
232803.500
  20
4497268.000
  0
VERTEX
  8
LC_OH_2021_05_O7
  10
232804.000
  20
4497267.000
  0
VERTEX
  8
LC_OH_2021_05_O7
  10
234451.500
  20
4493553.000
  0
VERTEX
  8
LC_OH_2021_05_O7
  10
234451.500
  20
4493552.000
  0
VERTEX
  8
LC_OH_2021_05_O7
  10
234436.000
  20
4493547.000
  0
VERTEX
  8
LC_OH_2021_05_O7
  10
232922.000
  20
4493072.000
  0
VERTEX
  8
LC_OH_2021_05_O7
  10
231730.500
  20
4493449.500
  0
VERTEX
  8
LC_OH_2021_05_O7
  10
232481.500
  20
4497207.000
  0
VERTEX
  8
LC_OH_2021_05_O7
  10
232482.500
  20
4497208.500
  0
VERTEX
  8
LC_OH_2021_05_O7
  10
232797.500
  20
4497267.500
  0
VERTEX
  8
LC_OH_2021_05_O7
  10
232800.000
  20
4497268.000
  0
SEQEND
  8
LC_OH_2021_05_O7
  0
INSERT
  8
FeatureAttribs
  2
FEATURE
  41
1
  42
1
  43
1
  50
0
  10
237011.525
  20
4495848.249
 66
1
  0
ATTRIB
  8
FeatureAttribs
 70
0
  1
PNOA-H_AMS_1956-57_33k_ES_PAN_21mic_H50_0527_fot_65A-46670_W.tif
  2
NAME
  10
237011.525
  20
4495848.249
 40
34.80768
  0
SEQEND
  0
POLYLINE
  8
LC_OH_2021_05_O7
  70
1
  66
1
  0
VERTEX
  8
LC_OH_2021_05_O7
  10
236655.000
  20
4497605.500
  0
VERTEX
  8
LC_OH_2021_05_O7
  10
236781.500
  20
4497656.000
  0
VERTEX
  8
LC_OH_2021_05_O7
  10
236784.000
  20
4497656.000
  0
VERTEX
  8
LC_OH_2021_05_O7
  10
238041.000
  20
4496972.000
  0
VERTEX
  8
LC_OH_2021_05_O7
  10
238039.500
  20
4496779.000
  0
VERTEX
  8
LC_OH_2021_05_O7
  10
237505.500
  20
4494040.500
  0
VERTEX
  8
LC_OH_2021_05_O7
  10
235324.000
  20
4496982.500
  0
VERTEX
  8
LC_OH_2021_05_O7
  10
235326.000
  20
4497072.000
  0
VERTEX
  8
LC_OH_2021_05_O7
  10
235327.000
  20
4497075.500
  0
VERTEX
  8
LC_OH_2021_05_O7
  10
236654.000
  20
4497605.000
  0
VERTEX
  8
LC_OH_2021_05_O7
  10
236655.000
  20
4497605.500
  0
SEQEND
  8
LC_OH_2021_05_O7
  0
INSERT
  8
FeatureAttribs
  2
FEATURE
  41
1
  42
1
  43
1
  50
0
  10
241999.546
  20
4496191.000
 66
1
  0
ATTRIB
  8
FeatureAttribs
 70
0
  1
PNOA-H_AMS_1956-57_33k_ES_PAN_21mic_H50_0527_fot_65A-46668_W.tif
  2
NAME
  10
241999.546
  20
4496191.000
 40
34.80768
  0
SEQEND
  0
POLYLINE
  8
LC_OH_2021_05_O7
  70
1
  66
1
  0
VERTEX
  8
LC_OH_2021_05_O7
  10
242799.500
  20
4497291.500
  0
VERTEX
  8
LC_OH_2021_05_O7
  10
243335.500
  20
4496892.500
  0
VERTEX
  8
LC_OH_2021_05_O7
  10
243282.500
  20
4495427.500
  0
VERTEX
  8
LC_OH_2021_05_O7
  10
243166.500
  20
4494963.000
  0
VERTEX
  8
LC_OH_2021_05_O7
  10
240676.000
  20
4495820.500
  0
VERTEX
  8
LC_OH_2021_05_O7
  10
240716.000
  20
4496962.500
  0
VERTEX
  8
LC_OH_2021_05_O7
  10
242629.000
  20
4497419.000
  0
VERTEX
  8
LC_OH_2021_05_O7
  10
242799.000
  20
4497292.500
  0
VERTEX
  8
LC_OH_2021_05_O7
  10
242799.500
  20
4497291.500
  0
SEQEND
  8
LC_OH_2021_05_O7
  0
INSERT
  8
FeatureAttribs
  2
FEATURE
  41
1
  42
1
  43
1
  50
0
  10
234279.733
  20
4495652.500
 66
1
  0
ATTRIB
  8
FeatureAttribs
 70
0
  1
PNOA-H_AMS_1956-57_33k_ES_PAN_21mic_H50_0527_fot_65A-46671_W.tif
  2
NAME
  10
234279.733
  20
4495652.500
 40
34.80768
  0
SEQEND
  0
POLYLINE
  8
LC_OH_2021_05_O7
  70
1
  66
1
  0
VERTEX
  8
LC_OH_2021_05_O7
  10
234607.500
  20
4497406.000
  0
VERTEX
  8
LC_OH_2021_05_O7
  10
235326.500
  20
4497075.000
  0
VERTEX
  8
LC_OH_2021_05_O7
  10
235324.500
  20
4496989.000
  0
VERTEX
  8
LC_OH_2021_05_O7
  10
235323.000
  20
4496976.000
  0
VERTEX
  8
LC_OH_2021_05_O7
  10
234593.500
  20
4493568.000
  0
VERTEX
  8
LC_OH_2021_05_O7
  10
234451.500
  20
4493552.000
  0
VERTEX
  8
LC_OH_2021_05_O7
  10
232803.000
  20
4497268.500
  0
VERTEX
  8
LC_OH_2021_05_O7
  10
233854.000
  20
4497753.000
  0
VERTEX
  8
LC_OH_2021_05_O7
  10
233857.500
  20
4497752.500
  0
VERTEX
  8
LC_OH_2021_05_O7
  10
234606.500
  20
4497406.500
  0
VERTEX
  8
LC_OH_2021_05_O7
  10
234607.500
  20
4497406.000
  0
SEQEND
  8
LC_OH_2021_05_O7
  0
INSERT
  8
FeatureAttribs
  2
FEATURE
  41
1
  42
1
  43
1
  50
0
  10
231008.289
  20
4495569.501
 66
1
  0
ATTRIB
  8
FeatureAttribs
 70
0
  1
PNOA-H_AMS_1956-57_33k_ES_PAN_21mic_H50_0527_fot_65A-46672_W.tif
  2
NAME
  10
231008.289
  20
4495569.501
 40
34.80768
  0
SEQEND
  0
POLYLINE
  8
LC_OH_2021_05_O7
  70
1
  66
1
  0
VERTEX
  8
LC_OH_2021_05_O7
  10
230227.726
  20
4497500.437
  0
VERTEX
  8
LC_OH_2021_05_O7
  10
230828.500
  20
4497828.000
  0
VERTEX
  8
LC_OH_2021_05_O7
  10
230829.500
  20
4497828.500
  0
VERTEX
  8
LC_OH_2021_05_O7
  10
232482.000
  20
4497208.000
  0
VERTEX
  8
LC_OH_2021_05_O7
  10
231730.500
  20
4493449.500
  0
VERTEX
  8
LC_OH_2021_05_O7
  10
230339.500
  20
4493310.500
  0
VERTEX
  8
LC_OH_2021_05_O7
  10
230079.767
  20
4493414.986
  0
VERTEX
  8
LC_OH_2021_05_O7
  10
230139.917
  20
4495076.284
  0
VERTEX
  8
LC_OH_2021_05_O7
  10
230223.701
  20
4497389.366
  0
SEQEND
  8
LC_OH_2021_05_O7
  0
INSERT
  8
FeatureAttribs
  2
FEATURE
  41
1
  42
1
  43
1
  50
0
  10
252995.330
  20
4505730.738
 66
1
  0
ATTRIB
  8
FeatureAttribs
 70
0
  1
PNOA-H_AMS_1956-57_33k_ES_PAN_21mic_H50_0502_fot_62B-04156_W.tif
  2
NAME
  10
252995.330
  20
4505730.738
 40
34.80768
  0
SEQEND
  0
POLYLINE
  8
LC_OH_2021_05_O7
  70
1
  66
1
  0
VERTEX
  8
LC_OH_2021_05_O7
  10
254284.303
  20
4505818.884
  0
VERTEX
  8
LC_OH_2021_05_O7
  10
254274.500
  20
4505672.500
  0
VERTEX
  8
LC_OH_2021_05_O7
  10
254016.000
  20
4505557.000
  0
VERTEX
  8
LC_OH_2021_05_O7
  10
251706.358
  20
4505904.476
  0
SEQEND
  8
LC_OH_2021_05_O7
  0
INSERT
  8
FeatureAttribs
  2
FEATURE
  41
1
  42
1
  43
1
  50
0
  10
247919.965
  20
4505984.940
 66
1
  0
ATTRIB
  8
FeatureAttribs
 70
0
  1
PNOA-H_AMS_1956-57_33k_ES_PAN_21mic_H50_0502_fot_62B-04158_W.tif
  2
NAME
  10
247919.965
  20
4505984.940
 40
34.80768
  0
SEQEND
  0
POLYLINE
  8
LC_OH_2021_05_O7
  70
1
  66
1
  0
VERTEX
  8
LC_OH_2021_05_O7
  10
248367.232
  20
4506016.922
  0
VERTEX
  8
LC_OH_2021_05_O7
  10
248173.500
  20
4505922.500
  0
VERTEX
  8
LC_OH_2021_05_O7
  10
248163.500
  20
4505923.500
  0
VERTEX
  8
LC_OH_2021_05_O7
  10
247472.697
  20
4506047.380
  0
VERTEX
  8
LC_OH_2021_05_O7
  10
248172.204
  20
4506023.490
  0
SEQEND
  8
LC_OH_2021_05_O7
  0
INSERT
  8
FeatureAttribs
  2
FEATURE
  41
1
  42
1
  43
1
  50
0
  10
245130.956
  20
4506111.534
 66
1
  0
ATTRIB
  8
FeatureAttribs
 70
0
  1
PNOA-H_AMS_1956-57_33k_ES_PAN_21mic_H50_0502_fot_62B-04159_W.tif
  2
NAME
  10
245130.956
  20
4506111.534
 40
34.80768
  0
SEQEND
  0
POLYLINE
  8
LC_OH_2021_05_O7
  70
1
  66
1
  0
VERTEX
  8
LC_OH_2021_05_O7
  10
245268.975
  20
4506122.642
  0
VERTEX
  8
LC_OH_2021_05_O7
  10
245203.000
  20
4506091.000
  0
VERTEX
  8
LC_OH_2021_05_O7
  10
244992.937
  20
4506132.069
  0
SEQEND
  8
LC_OH_2021_05_O7
  0
INSERT
  8
FeatureAttribs
  2
FEATURE
  41
1
  42
1
  43
1
  50
0
  10
257972.132
  20
4505473.083
 66
1
  0
ATTRIB
  8
FeatureAttribs
 70
0
  1
PNOA-H_AMS_1956-57_33k_ES_PAN_21mic_H50_0502_fot_62B-04154_W.tif
  2
NAME
  10
257972.132
  20
4505473.083
 40
34.80768
  0
SEQEND
  0
POLYLINE
  8
LC_OH_2021_05_O7
  70
1
  66
1
  0
VERTEX
  8
LC_OH_2021_05_O7
  10
258725.180
  20
4505223.626
  0
VERTEX
  8
LC_OH_2021_05_O7
  10
257204.500
  20
4505462.000
  0
VERTEX
  8
LC_OH_2021_05_O7
  10
257214.653
  20
4505722.540
  0
VERTEX
  8
LC_OH_2021_05_O7
  10
258739.765
  20
4505672.628
  0
SEQEND
  8
LC_OH_2021_05_O7
  0
INSERT
  8
FeatureAttribs
  2
FEATURE
  41
1
  42
1
  43
1
  50
0
  10
232179.135
  20
4506541.408
 66
1
  0
ATTRIB
  8
FeatureAttribs
 70
0
  1
PNOA-H_AMS_1956-57_33k_ES_PAN_21mic_H50_0502_fot_62B-04163_W.tif
  2
NAME
  10
232179.135
  20
4506541.408
 40
34.80768
  0
SEQEND
  0
POLYLINE
  8
LC_OH_2021_05_O7
  70
1
  66
1
  0
VERTEX
  8
LC_OH_2021_05_O7
  10
232540.269
  20
4506570.329
  0
VERTEX
  8
LC_OH_2021_05_O7
  10
232516.500
  20
4506502.000
  0
VERTEX
  8
LC_OH_2021_05_O7
  10
231818.000
  20
4506486.500
  0
VERTEX
  8
LC_OH_2021_05_O7
  10
231819.468
  20
4506596.317
  0
SEQEND
  8
LC_OH_2021_05_O7
  0
INSERT
  8
FeatureAttribs
  2
FEATURE
  41
1
  42
1
  43
1
  50
0
  10
255744.577
  20
4505566.192
 66
1
  0
ATTRIB
  8
FeatureAttribs
 70
0
  1
PNOA-H_AMS_1956-57_33k_ES_PAN_21mic_H50_0502_fot_62B-04155_W.tif
  2
NAME
  10
255744.577
  20
4505566.192
 40
34.80768
  0
SEQEND
  0
POLYLINE
  8
LC_OH_2021_05_O7
  70
1
  66
1
  0
VERTEX
  8
LC_OH_2021_05_O7
  10
257214.653
  20
4505722.540
  0
VERTEX
  8
LC_OH_2021_05_O7
  10
257204.500
  20
4505462.000
  0
VERTEX
  8
LC_OH_2021_05_O7
  10
256857.500
  20
4505313.500
  0
VERTEX
  8
LC_OH_2021_05_O7
  10
254274.500
  20
4505672.500
  0
VERTEX
  8
LC_OH_2021_05_O7
  10
254284.304
  20
4505818.884
  0
VERTEX
  8
LC_OH_2021_05_O7
  10
255217.264
  20
4505787.908
  0
SEQEND
  8
LC_OH_2021_05_O7
  0
INSERT
  8
FeatureAttribs
  2
FEATURE
  41
1
  42
1
  43
1
  50
0
  10
250572.096
  20
4505864.761
 66
1
  0
ATTRIB
  8
FeatureAttribs
 70
0
  1
PNOA-H_AMS_1956-57_33k_ES_PAN_21mic_H50_0502_fot_62B-04157_W.tif
  2
NAME
  10
250572.096
  20
4505864.761
 40
34.80768
  0
SEQEND
  0
POLYLINE
  8
LC_OH_2021_05_O7
  70
1
  66
1
  0
VERTEX
  8
LC_OH_2021_05_O7
  10
251443.701
  20
4505913.316
  0
VERTEX
  8
LC_OH_2021_05_O7
  10
251109.000
  20
4505757.500
  0
VERTEX
  8
LC_OH_2021_05_O7
  10
249700.492
  20
4505972.022
  0
SEQEND
  8
LC_OH_2021_05_O7
  0
INSERT
  8
FeatureAttribs
  2
FEATURE
  41
1
  42
1
  43
1
  50
0
  10
230251.424
  20
4490877.757
 66
1
  0
ATTRIB
  8
FeatureAttribs
 70
0
  1
PNOA-H_AMS_1956-57_33k_ES_PAN_21mic_H50_0526_fot_66A-18875_E.tif
  2
NAME
  10
230251.424
  20
4490877.757
 40
34.80768
  0
SEQEND
  0
POLYLINE
  8
LC_OH_2021_05_O7
  70
1
  66
1
  0
VERTEX
  8
LC_OH_2021_05_O7
  10
230079.787
  20
4493415.514
  0
VERTEX
  8
LC_OH_2021_05_O7
  10
230340.500
  20
4493310.500
  0
VERTEX
  8
LC_OH_2021_05_O7
  10
230606.500
  20
4488367.000
  0
VERTEX
  8
LC_OH_2021_05_O7
  10
230551.500
  20
4488340.000
  0
VERTEX
  8
LC_OH_2021_05_O7
  10
229896.349
  20
4488346.305
  0
VERTEX
  8
LC_OH_2021_05_O7
  10
229972.457
  20
4490450.137
  0
VERTEX
  8
LC_OH_2021_05_O7
  10
230056.169
  20
4492763.207
  0
SEQEND
  8
LC_OH_2021_05_O7
  0
INSERT
  8
FeatureAttribs
  2
FEATURE
  41
1
  42
1
  43
1
  50
0
  10
255581.782
  20
4490327.251
 66
1
  0
ATTRIB
  8
FeatureAttribs
 70
0
  1
PNOA-H_AMS_1956-57_33k_ES_PAN_21mic_H50_0527_fot_66A-18865_E.tif
  2
NAME
  10
255581.782
  20
4490327.251
 40
34.80768
  0
SEQEND
  0
POLYLINE
  8
LC_OH_2021_05_O7
  70
1
  66
1
  0
VERTEX
  8
LC_OH_2021_05_O7
  10
254435.000
  20
4492845.000
  0
VERTEX
  8
LC_OH_2021_05_O7
  10
254437.000
  20
4492848.000
  0
VERTEX
  8
LC_OH_2021_05_O7
  10
254470.000
  20
4492871.500
  0
VERTEX
  8
LC_OH_2021_05_O7
  10
254470.500
  20
4492872.500
  0
VERTEX
  8
LC_OH_2021_05_O7
  10
257034.500
  20
4492653.000
  0
VERTEX
  8
LC_OH_2021_05_O7
  10
257086.000
  20
4492615.000
  0
VERTEX
  8
LC_OH_2021_05_O7
  10
256737.500
  20
4487994.000
  0
VERTEX
  8
LC_OH_2021_05_O7
  10
255103.000
  20
4487782.000
  0
VERTEX
  8
LC_OH_2021_05_O7
  10
254090.000
  20
4488147.000
  0
SEQEND
  8
LC_OH_2021_05_O7
  0
INSERT
  8
FeatureAttribs
  2
FEATURE
  41
1
  42
1
  43
1
  50
0
  10
245015.638
  20
4490791.251
 66
1
  0
ATTRIB
  8
FeatureAttribs
 70
0
  1
PNOA-H_AMS_1956-57_33k_ES_PAN_21mic_H50_0527_fot_66A-18869_E.tif
  2
NAME
  10
245015.638
  20
4490791.251
 40
34.80768
  0
SEQEND
  0
POLYLINE
  8
LC_OH_2021_05_O7
  70
1
  66
1
  0
VERTEX
  8
LC_OH_2021_05_O7
  10
245827.000
  20
4493248.500
  0
VERTEX
  8
LC_OH_2021_05_O7
  10
245832.000
  20
4493247.500
  0
VERTEX
  8
LC_OH_2021_05_O7
  10
246343.000
  20
4492894.000
  0
VERTEX
  8
LC_OH_2021_05_O7
  10
246405.500
  20
4488334.000
  0
VERTEX
  8
LC_OH_2021_05_O7
  10
243660.000
  20
4488427.000
  0
VERTEX
  8
LC_OH_2021_05_O7
  10
243659.000
  20
4492998.000
  0
VERTEX
  8
LC_OH_2021_05_O7
  10
245823.000
  20
4493248.000
  0
VERTEX
  8
LC_OH_2021_05_O7
  10
245827.000
  20
4493248.500
  0
SEQEND
  8
LC_OH_2021_05_O7
  0
INSERT
  8
FeatureAttribs
  2
FEATURE
  41
1
  42
1
  43
1
  50
0
  10
242297.149
  20
4490862.001
 66
1
  0
ATTRIB
  8
FeatureAttribs
 70
0
  1
PNOA-H_AMS_1956-57_33k_ES_PAN_21mic_H50_0527_fot_66A-18870_E.tif
  2
NAME
  10
242297.149
  20
4490862.001
 40
34.80768
  0
SEQEND
  0
POLYLINE
  8
LC_OH_2021_05_O7
  70
1
  66
1
  0
VERTEX
  8
LC_OH_2021_05_O7
  10
243051.500
  20
4493366.500
  0
VERTEX
  8
LC_OH_2021_05_O7
  10
243057.000
  20
4493364.500
  0
VERTEX
  8
LC_OH_2021_05_O7
  10
243659.000
  20
4492998.500
  0
VERTEX
  8
LC_OH_2021_05_O7
  10
243660.000
  20
4488426.500
  0
VERTEX
  8
LC_OH_2021_05_O7
  10
243500.500
  20
4488357.500
  0
VERTEX
  8
LC_OH_2021_05_O7
  10
240859.000
  20
4488510.000
  0
VERTEX
  8
LC_OH_2021_05_O7
  10
241006.500
  20
4493084.500
  0
VERTEX
  8
LC_OH_2021_05_O7
  10
243048.000
  20
4493366.000
  0
VERTEX
  8
LC_OH_2021_05_O7
  10
243051.500
  20
4493366.500
  0
SEQEND
  8
LC_OH_2021_05_O7
  0
INSERT
  8
FeatureAttribs
  2
FEATURE
  41
1
  42
1
  43
1
  50
0
  10
250377.003
  20
4490577.001
 66
1
  0
ATTRIB
  8
FeatureAttribs
 70
0
  1
PNOA-H_AMS_1956-57_33k_ES_PAN_21mic_H50_0527_fot_66A-18867_E.tif
  2
NAME
  10
250377.003
  20
4490577.001
 40
34.80768
  0
SEQEND
  0
POLYLINE
  8
LC_OH_2021_05_O7
  70
1
  66
1
  0
VERTEX
  8
LC_OH_2021_05_O7
  10
251524.000
  20
4492978.000
  0
VERTEX
  8
LC_OH_2021_05_O7
  10
251529.500
  20
4492977.500
  0
VERTEX
  8
LC_OH_2021_05_O7
  10
251788.000
  20
4492780.000
  0
VERTEX
  8
LC_OH_2021_05_O7
  10
251611.500
  20
4488229.000
  0
VERTEX
  8
LC_OH_2021_05_O7
  10
249230.500
  20
4488176.000
  0
VERTEX
  8
LC_OH_2021_05_O7
  10
248970.000
  20
4488297.500
  0
VERTEX
  8
LC_OH_2021_05_O7
  10
249129.500
  20
4492761.500
  0
VERTEX
  8
LC_OH_2021_05_O7
  10
251518.500
  20
4492977.500
  0
VERTEX
  8
LC_OH_2021_05_O7
  10
251524.000
  20
4492978.000
  0
SEQEND
  8
LC_OH_2021_05_O7
  0
INSERT
  8
FeatureAttribs
  2
FEATURE
  41
1
  42
1
  43
1
  50
0
  10
257527.034
  20
4490120.333
 66
1
  0
ATTRIB
  8
FeatureAttribs
 70
0
  1
PNOA-H_AMS_1956-57_33k_ES_PAN_21mic_H50_0527_fot_66A-18864_E.tif
  2
NAME
  10
257527.034
  20
4490120.333
 40
34.80768
  0
SEQEND
  0
POLYLINE
  8
LC_OH_2021_05_O7
  70
1
  66
1
  0
VERTEX
  8
LC_OH_2021_05_O7
  10
258155.138
  20
4487648.252
  0
VERTEX
  8
LC_OH_2021_05_O7
  10
257885.500
  20
4487609.500
  0
VERTEX
  8
LC_OH_2021_05_O7
  10
256737.500
  20
4487994.000
  0
VERTEX
  8
LC_OH_2021_05_O7
  10
257086.000
  20
4492615.000
  0
VERTEX
  8
LC_OH_2021_05_O7
  10
258316.569
  20
4492631.166
  0
VERTEX
  8
LC_OH_2021_05_O7
  10
258289.457
  20
4491794.737
  0
VERTEX
  8
LC_OH_2021_05_O7
  10
258214.518
  20
4489481.777
  0
SEQEND
  8
LC_OH_2021_05_O7
  0
INSERT
  8
FeatureAttribs
  2
FEATURE
  41
1
  42
1
  43
1
  50
0
  10
247714.544
  20
4490709.750
 66
1
  0
ATTRIB
  8
FeatureAttribs
 70
0
  1
PNOA-H_AMS_1956-57_33k_ES_PAN_21mic_H50_0527_fot_66A-18868_E.tif
  2
NAME
  10
247714.544
  20
4490709.750
 40
34.80768
  0
SEQEND
  0
POLYLINE
  8
LC_OH_2021_05_O7
  70
1
  66
1
  0
VERTEX
  8
LC_OH_2021_05_O7
  10
246892.000
  20
4492948.000
  0
VERTEX
  8
LC_OH_2021_05_O7
  10
248648.500
  20
4493121.500
  0
VERTEX
  8
LC_OH_2021_05_O7
  10
249129.500
  20
4492762.000
  0
VERTEX
  8
LC_OH_2021_05_O7
  10
248970.000
  20
4488298.000
  0
VERTEX
  8
LC_OH_2021_05_O7
  10
246433.000
  20
4488320.000
  0
VERTEX
  8
LC_OH_2021_05_O7
  10
246405.500
  20
4488334.000
  0
VERTEX
  8
LC_OH_2021_05_O7
  10
246343.000
  20
4492893.500
  0
VERTEX
  8
LC_OH_2021_05_O7
  10
246887.000
  20
4492947.500
  0
VERTEX
  8
LC_OH_2021_05_O7
  10
246892.000
  20
4492948.000
  0
SEQEND
  8
LC_OH_2021_05_O7
  0
INSERT
  8
FeatureAttribs
  2
FEATURE
  41
1
  42
1
  43
1
  50
0
  10
237036.023
  20
4490998.250
 66
1
  0
ATTRIB
  8
FeatureAttribs
 70
0
  1
PNOA-H_AMS_1956-57_33k_ES_PAN_21mic_H50_0527_fot_66A-18872_E.tif
  2
NAME
  10
237036.023
  20
4490998.250
 40
34.80768
  0
SEQEND
  0
POLYLINE
  8
LC_OH_2021_05_O7
  70
1
  66
1
  0
VERTEX
  8
LC_OH_2021_05_O7
  10
237497.500
  20
4493566.000
  0
VERTEX
  8
LC_OH_2021_05_O7
  10
238308.500
  20
4493178.000
  0
VERTEX
  8
LC_OH_2021_05_O7
  10
238322.500
  20
4488555.500
  0
VERTEX
  8
LC_OH_2021_05_O7
  10
238009.000
  20
4488430.500
  0
VERTEX
  8
LC_OH_2021_05_O7
  10
235890.500
  20
4488537.000
  0
VERTEX
  8
LC_OH_2021_05_O7
  10
235873.500
  20
4488538.000
  0
VERTEX
  8
LC_OH_2021_05_O7
  10
235873.000
  20
4488540.000
  0
VERTEX
  8
LC_OH_2021_05_O7
  10
235656.000
  20
4493137.500
  0
VERTEX
  8
LC_OH_2021_05_O7
  10
237495.500
  20
4493565.500
  0
VERTEX
  8
LC_OH_2021_05_O7
  10
237497.500
  20
4493566.000
  0
SEQEND
  8
LC_OH_2021_05_O7
  0
INSERT
  8
FeatureAttribs
  2
FEATURE
  41
1
  42
1
  43
1
  50
0
  10
252977.157
  20
4490426.250
 66
1
  0
ATTRIB
  8
FeatureAttribs
 70
0
  1
PNOA-H_AMS_1956-57_33k_ES_PAN_21mic_H50_0527_fot_66A-18866_E.tif
  2
NAME
  10
252977.157
  20
4490426.250
 40
34.80768
  0
SEQEND
  0
POLYLINE
  8
LC_OH_2021_05_O7
  70
1
  66
1
  0
VERTEX
  8
LC_OH_2021_05_O7
  10
251788.000
  20
4492780.000
  0
VERTEX
  8
LC_OH_2021_05_O7
  10
254408.000
  20
4492846.000
  0
VERTEX
  8
LC_OH_2021_05_O7
  10
254428.000
  20
4492846.500
  0
VERTEX
  8
LC_OH_2021_05_O7
  10
254435.500
  20
4492846.500
  0
VERTEX
  8
LC_OH_2021_05_O7
  10
254435.000
  20
4492838.000
  0
VERTEX
  8
LC_OH_2021_05_O7
  10
254090.000
  20
4488147.500
  0
VERTEX
  8
LC_OH_2021_05_O7
  10
252151.500
  20
4488006.000
  0
VERTEX
  8
LC_OH_2021_05_O7
  10
252145.500
  20
4488006.000
  0
VERTEX
  8
LC_OH_2021_05_O7
  10
251611.500
  20
4488229.000
  0
SEQEND
  8
LC_OH_2021_05_O7
  0
INSERT
  8
FeatureAttribs
  2
FEATURE
  41
1
  42
1
  43
1
  50
0
  10
234422.530
  20
4490965.501
 66
1
  0
ATTRIB
  8
FeatureAttribs
 70
0
  1
PNOA-H_AMS_1956-57_33k_ES_PAN_21mic_H50_0527_fot_66A-18873_E.tif
  2
NAME
  10
234422.530
  20
4490965.501
 40
34.80768
  0
SEQEND
  0
POLYLINE
  8
LC_OH_2021_05_O7
  70
1
  66
1
  0
VERTEX
  8
LC_OH_2021_05_O7
  10
234607.500
  20
4493562.000
  0
VERTEX
  8
LC_OH_2021_05_O7
  10
235656.000
  20
4493137.500
  0
VERTEX
  8
LC_OH_2021_05_O7
  10
235873.500
  20
4488538.000
  0
VERTEX
  8
LC_OH_2021_05_O7
  10
235449.500
  20
4488363.000
  0
VERTEX
  8
LC_OH_2021_05_O7
  10
233282.500
  20
4488467.000
  0
VERTEX
  8
LC_OH_2021_05_O7
  10
232921.000
  20
4493072.000
  0
VERTEX
  8
LC_OH_2021_05_O7
  10
234450.000
  20
4493552.000
  0
VERTEX
  8
LC_OH_2021_05_O7
  10
234593.000
  20
4493568.000
  0
VERTEX
  8
LC_OH_2021_05_O7
  10
234605.500
  20
4493562.500
  0
VERTEX
  8
LC_OH_2021_05_O7
  10
234607.500
  20
4493562.000
  0
SEQEND
  8
LC_OH_2021_05_O7
  0
INSERT
  8
FeatureAttribs
  2
FEATURE
  41
1
  42
1
  43
1
  50
0
  10
239626.839
  20
4490972.000
 66
1
  0
ATTRIB
  8
FeatureAttribs
 70
0
  1
PNOA-H_AMS_1956-57_33k_ES_PAN_21mic_H50_0527_fot_66A-18871_E.tif
  2
NAME
  10
239626.839
  20
4490972.000
 40
34.80768
  0
SEQEND
  0
POLYLINE
  8
LC_OH_2021_05_O7
  70
1
  66
1
  0
VERTEX
  8
LC_OH_2021_05_O7
  10
238703.000
  20
4493242.500
  0
VERTEX
  8
LC_OH_2021_05_O7
  10
240282.500
  20
4493499.500
  0
VERTEX
  8
LC_OH_2021_05_O7
  10
241006.500
  20
4493084.500
  0
VERTEX
  8
LC_OH_2021_05_O7
  10
240859.500
  20
4488517.500
  0
VERTEX
  8
LC_OH_2021_05_O7
  10
240859.000
  20
4488510.000
  0
VERTEX
  8
LC_OH_2021_05_O7
  10
240857.000
  20
4488509.000
  0
VERTEX
  8
LC_OH_2021_05_O7
  10
240702.500
  20
4488444.500
  0
VERTEX
  8
LC_OH_2021_05_O7
  10
238322.500
  20
4488555.500
  0
VERTEX
  8
LC_OH_2021_05_O7
  10
238308.500
  20
4493178.000
  0
VERTEX
  8
LC_OH_2021_05_O7
  10
238700.000
  20
4493242.000
  0
VERTEX
  8
LC_OH_2021_05_O7
  10
238703.000
  20
4493242.500
  0
SEQEND
  8
LC_OH_2021_05_O7
  0
INSERT
  8
FeatureAttribs
  2
FEATURE
  41
1
  42
1
  43
1
  50
0
  10
231780.505
  20
4490904.500
 66
1
  0
ATTRIB
  8
FeatureAttribs
 70
0
  1
PNOA-H_AMS_1956-57_33k_ES_PAN_21mic_H50_0527_fot_66A-18874_E.tif
  2
NAME
  10
231780.505
  20
4490904.500
 40
34.80768
  0
SEQEND
  0
POLYLINE
  8
LC_OH_2021_05_O7
  70
1
  66
1
  0
VERTEX
  8
LC_OH_2021_05_O7
  10
230504.500
  20
4493327.000
  0
VERTEX
  8
LC_OH_2021_05_O7
  10
230509.500
  20
4493327.500
  0
VERTEX
  8
LC_OH_2021_05_O7
  10
231731.500
  20
4493449.500
  0
VERTEX
  8
LC_OH_2021_05_O7
  10
232921.000
  20
4493072.000
  0
VERTEX
  8
LC_OH_2021_05_O7
  10
233282.500
  20
4488473.500
  0
VERTEX
  8
LC_OH_2021_05_O7
  10
233282.500
  20
4488467.000
  0
VERTEX
  8
LC_OH_2021_05_O7
  10
233280.000
  20
4488465.500
  0
VERTEX
  8
LC_OH_2021_05_O7
  10
233047.500
  20
4488359.500
  0
VERTEX
  8
LC_OH_2021_05_O7
  10
230606.000
  20
4488367.000
  0
VERTEX
  8
LC_OH_2021_05_O7
  10
230340.500
  20
4493307.000
  0
VERTEX
  8
LC_OH_2021_05_O7
  10
230340.500
  20
4493310.500
  0
SEQEND
  8
LC_OH_2021_05_O7
  0
INSERT
  8
FeatureAttribs
  2
FEATURE
  41
1
  42
1
  43
1
  50
0
  10
253081.524
  20
4498454.751
 66
1
  0
ATTRIB
  8
FeatureAttribs
 70
0
  1
PNOA-H_AMS_1956-57_33k_ES_PAN_21mic_H50_0527_fot_64A-30180_W.tif
  2
NAME
  10
253081.524
  20
4498454.751
 40
34.80768
  0
SEQEND
  0
POLYLINE
  8
LC_OH_2021_05_O7
  70
1
  66
1
  0
VERTEX
  8
LC_OH_2021_05_O7
  10
253864.500
  20
4500463.000
  0
VERTEX
  8
LC_OH_2021_05_O7
  10
253868.000
  20
4500463.000
  0
VERTEX
  8
LC_OH_2021_05_O7
  10
253879.000
  20
4500457.500
  0
VERTEX
  8
LC_OH_2021_05_O7
  10
254626.500
  20
4500067.500
  0
VERTEX
  8
LC_OH_2021_05_O7
  10
254557.000
  20
4496631.500
  0
VERTEX
  8
LC_OH_2021_05_O7
  10
254320.000
  20
4496446.500
  0
VERTEX
  8
LC_OH_2021_05_O7
  10
251627.000
  20
4496668.000
  0
VERTEX
  8
LC_OH_2021_05_O7
  10
251521.500
  20
4496769.500
  0
VERTEX
  8
LC_OH_2021_05_O7
  10
251622.000
  20
4500321.000
  0
VERTEX
  8
LC_OH_2021_05_O7
  10
253856.500
  20
4500462.500
  0
VERTEX
  8
LC_OH_2021_05_O7
  10
253864.500
  20
4500463.000
  0
SEQEND
  8
LC_OH_2021_05_O7
  0
INSERT
  8
FeatureAttribs
  2
FEATURE
  41
1
  42
1
  43
1
  50
0
  10
256101.643
  20
4498315.499
 66
1
  0
ATTRIB
  8
FeatureAttribs
 70
0
  1
PNOA-H_AMS_1956-57_33k_ES_PAN_21mic_H50_0527_fot_64A-30179_W.tif
  2
NAME
  10
256101.643
  20
4498315.499
 40
34.80768
  0
SEQEND
  0
POLYLINE
  8
LC_OH_2021_05_O7
  70
1
  66
1
  0
VERTEX
  8
LC_OH_2021_05_O7
  10
254557.000
  20
4496656.500
  0
VERTEX
  8
LC_OH_2021_05_O7
  10
254626.500
  20
4500067.500
  0
VERTEX
  8
LC_OH_2021_05_O7
  10
256545.000
  20
4500383.500
  0
VERTEX
  8
LC_OH_2021_05_O7
  10
257134.000
  20
4500132.500
  0
VERTEX
  8
LC_OH_2021_05_O7
  10
257135.500
  20
4500132.000
  0
VERTEX
  8
LC_OH_2021_05_O7
  10
257715.000
  20
4499885.500
  0
VERTEX
  8
LC_OH_2021_05_O7
  10
257492.500
  20
4496477.500
  0
VERTEX
  8
LC_OH_2021_05_O7
  10
257127.500
  20
4496249.000
  0
VERTEX
  8
LC_OH_2021_05_O7
  10
257125.000
  20
4496247.500
  0
VERTEX
  8
LC_OH_2021_05_O7
  10
257117.500
  20
4496247.500
  0
VERTEX
  8
LC_OH_2021_05_O7
  10
256962.500
  20
4496257.000
  0
VERTEX
  8
LC_OH_2021_05_O7
  10
254557.500
  20
4496630.500
  0
VERTEX
  8
LC_OH_2021_05_O7
  10
254556.500
  20
4496631.000
  0
SEQEND
  8
LC_OH_2021_05_O7
  0
INSERT
  8
FeatureAttribs
  2
FEATURE
  41
1
  42
1
  43
1
  50
0
  10
230628.353
  20
4499532.347
 66
1
  0
ATTRIB
  8
FeatureAttribs
 70
0
  1
PNOA-H_AMS_1956-57_33k_ES_PAN_21mic_H50_0526_fot_64A-30188_W.tif
  2
NAME
  10
230628.353
  20
4499532.347
 40
34.80768
  0
SEQEND
  0
POLYLINE
  8
LC_OH_2021_05_O7
  70
1
  66
1
  0
VERTEX
  8
LC_OH_2021_05_O7
  10
230375.035
  20
4501564.786
  0
VERTEX
  8
LC_OH_2021_05_O7
  10
231029.000
  20
4501493.500
  0
VERTEX
  8
LC_OH_2021_05_O7
  10
230829.500
  20
4497828.000
  0
VERTEX
  8
LC_OH_2021_05_O7
  10
230227.707
  20
4497499.908
  0
VERTEX
  8
LC_OH_2021_05_O7
  10
230307.521
  20
4499702.454
  0
SEQEND
  8
LC_OH_2021_05_O7
  0
INSERT
  8
FeatureAttribs
  2
FEATURE
  41
1
  42
1
  43
1
  50
0
  10
250077.595
  20
4498618.250
 66
1
  0
ATTRIB
  8
FeatureAttribs
 70
0
  1
PNOA-H_AMS_1956-57_33k_ES_PAN_21mic_H50_0527_fot_64A-30181_W.tif
  2
NAME
  10
250077.595
  20
4498618.250
 40
34.80768
  0
SEQEND
  0
POLYLINE
  8
LC_OH_2021_05_O7
  70
1
  66
1
  0
VERTEX
  8
LC_OH_2021_05_O7
  10
248706.000
  20
4500592.000
  0
VERTEX
  8
LC_OH_2021_05_O7
  10
251076.000
  20
4500649.000
  0
VERTEX
  8
LC_OH_2021_05_O7
  10
251620.500
  20
4500322.000
  0
VERTEX
  8
LC_OH_2021_05_O7
  10
251622.000
  20
4500321.000
  0
VERTEX
  8
LC_OH_2021_05_O7
  10
251622.000
  20
4500314.500
  0
VERTEX
  8
LC_OH_2021_05_O7
  10
251521.500
  20
4496769.500
  0
VERTEX
  8
LC_OH_2021_05_O7
  10
248925.000
  20
4496587.500
  0
VERTEX
  8
LC_OH_2021_05_O7
  10
248922.500
  20
4496588.000
  0
VERTEX
  8
LC_OH_2021_05_O7
  10
248479.000
  20
4496999.500
  0
VERTEX
  8
LC_OH_2021_05_O7
  10
248706.000
  20
4500592.000
  0
SEQEND
  8
LC_OH_2021_05_O7
  0
INSERT
  8
FeatureAttribs
  2
FEATURE
  41
1
  42
1
  43
1
  50
0
  10
241227.400
  20
4499064.751
 66
1
  0
ATTRIB
  8
FeatureAttribs
 70
0
  1
PNOA-H_AMS_1956-57_33k_ES_PAN_21mic_H50_0527_fot_64A-30184_W.tif
  2
NAME
  10
241227.400
  20
4499064.751
 40
34.80768
  0
SEQEND
  0
POLYLINE
  8
LC_OH_2021_05_O7
  70
1
  66
1
  0
VERTEX
  8
LC_OH_2021_05_O7
  10
240751.500
  20
4501161.000
  0
VERTEX
  8
LC_OH_2021_05_O7
  10
242584.500
  20
4501149.500
  0
VERTEX
  8
LC_OH_2021_05_O7
  10
242749.000
  20
4501049.000
  0
VERTEX
  8
LC_OH_2021_05_O7
  10
242749.500
  20
4501036.000
  0
VERTEX
  8
LC_OH_2021_05_O7
  10
242629.500
  20
4497419.000
  0
VERTEX
  8
LC_OH_2021_05_O7
  10
240717.500
  20
4496962.500
  0
VERTEX
  8
LC_OH_2021_05_O7
  10
240713.500
  20
4496963.500
  0
VERTEX
  8
LC_OH_2021_05_O7
  10
239715.500
  20
4497570.500
  0
VERTEX
  8
LC_OH_2021_05_O7
  10
239714.500
  20
4497571.500
  0
VERTEX
  8
LC_OH_2021_05_O7
  10
239714.500
  20
4497583.500
  0
VERTEX
  8
LC_OH_2021_05_O7
  10
239850.500
  20
4501167.000
  0
VERTEX
  8
LC_OH_2021_05_O7
  10
240739.000
  20
4501161.000
  0
VERTEX
  8
LC_OH_2021_05_O7
  10
240751.500
  20
4501161.000
  0
SEQEND
  8
LC_OH_2021_05_O7
  0
INSERT
  8
FeatureAttribs
  2
FEATURE
  41
1
  42
1
  43
1
  50
0
  10
238316.519
  20
4499155.251
 66
1
  0
ATTRIB
  8
FeatureAttribs
 70
0
  1
PNOA-H_AMS_1956-57_33k_ES_PAN_21mic_H50_0527_fot_64A-30185_W.tif
  2
NAME
  10
238316.519
  20
4499155.251
 40
34.80768
  0
SEQEND
  0
POLYLINE
  8
LC_OH_2021_05_O7
  70
1
  66
1
  0
VERTEX
  8
LC_OH_2021_05_O7
  10
238703.500
  20
4501284.500
  0
VERTEX
  8
LC_OH_2021_05_O7
  10
239705.500
  20
4501253.000
  0
VERTEX
  8
LC_OH_2021_05_O7
  10
239710.500
  20
4501252.000
  0
VERTEX
  8
LC_OH_2021_05_O7
  10
239850.500
  20
4501167.000
  0
VERTEX
  8
LC_OH_2021_05_O7
  10
239714.500
  20
4497571.500
  0
VERTEX
  8
LC_OH_2021_05_O7
  10
238041.500
  20
4496971.500
  0
VERTEX
  8
LC_OH_2021_05_O7
  10
236783.000
  20
4497656.000
  0
VERTEX
  8
LC_OH_2021_05_O7
  10
236968.500
  20
4501332.500
  0
VERTEX
  8
LC_OH_2021_05_O7
  10
236981.500
  20
4501339.000
  0
VERTEX
  8
LC_OH_2021_05_O7
  10
236994.500
  20
4501339.000
  0
VERTEX
  8
LC_OH_2021_05_O7
  10
238696.500
  20
4501284.500
  0
VERTEX
  8
LC_OH_2021_05_O7
  10
238703.500
  20
4501284.500
  0
SEQEND
  8
LC_OH_2021_05_O7
  0
INSERT
  8
FeatureAttribs
  2
FEATURE
  41
1
  42
1
  43
1
  50
0
  10
244161.262
  20
4498970.251
 66
1
  0
ATTRIB
  8
FeatureAttribs
 70
0
  1
PNOA-H_AMS_1956-57_33k_ES_PAN_21mic_H50_0527_fot_64A-30183_W.tif
  2
NAME
  10
244161.262
  20
4498970.251
 40
34.80768
  0
SEQEND
  0
POLYLINE
  8
LC_OH_2021_05_O7
  70
1
  66
1
  0
VERTEX
  8
LC_OH_2021_05_O7
  10
242749.500
  20
4501048.500
  0
VERTEX
  8
LC_OH_2021_05_O7
  10
245476.500
  20
4501042.000
  0
VERTEX
  8
LC_OH_2021_05_O7
  10
245790.500
  20
4500847.000
  0
VERTEX
  8
LC_OH_2021_05_O7
  10
245505.500
  20
4497256.000
  0
VERTEX
  8
LC_OH_2021_05_O7
  10
243335.500
  20
4496892.000
  0
VERTEX
  8
LC_OH_2021_05_O7
  10
242629.500
  20
4497418.500
  0
VERTEX
  8
LC_OH_2021_05_O7
  10
242749.500
  20
4501036.000
  0
VERTEX
  8
LC_OH_2021_05_O7
  10
242749.500
  20
4501048.500
  0
SEQEND
  8
LC_OH_2021_05_O7
  0
INSERT
  8
FeatureAttribs
  2
FEATURE
  41
1
  42
1
  43
1
  50
0
  10
235393.560
  20
4499301.501
 66
1
  0
ATTRIB
  8
FeatureAttribs
 70
0
  1
PNOA-H_AMS_1956-57_33k_ES_PAN_21mic_H50_0527_fot_64A-30186_W.tif
  2
NAME
  10
235393.560
  20
4499301.501
 40
34.80768
  0
SEQEND
  0
POLYLINE
  8
LC_OH_2021_05_O7
  70
1
  66
1
  0
VERTEX
  8
LC_OH_2021_05_O7
  10
234310.000
  20
4501528.000
  0
VERTEX
  8
LC_OH_2021_05_O7
  10
236968.500
  20
4501332.500
  0
VERTEX
  8
LC_OH_2021_05_O7
  10
236783.000
  20
4497656.000
  0
VERTEX
  8
LC_OH_2021_05_O7
  10
235325.500
  20
4497075.000
  0
VERTEX
  8
LC_OH_2021_05_O7
  10
233855.000
  20
4497753.000
  0
VERTEX
  8
LC_OH_2021_05_O7
  10
234010.000
  20
4501384.500
  0
VERTEX
  8
LC_OH_2021_05_O7
  10
234309.000
  20
4501527.500
  0
VERTEX
  8
LC_OH_2021_05_O7
  10
234310.000
  20
4501528.000
  0
SEQEND
  8
LC_OH_2021_05_O7
  0
INSERT
  8
FeatureAttribs
  2
FEATURE
  41
1
  42
1
  43
1
  50
0
  10
247109.146
  20
4498783.500
 66
1
  0
ATTRIB
  8
FeatureAttribs
 70
0
  1
PNOA-H_AMS_1956-57_33k_ES_PAN_21mic_H50_0527_fot_64A-30182_W.tif
  2
NAME
  10
247109.146
  20
4498783.500
 40
34.80768
  0
SEQEND
  0
POLYLINE
  8
LC_OH_2021_05_O7
  70
1
  66
1
  0
VERTEX
  8
LC_OH_2021_05_O7
  10
246895.500
  20
4500846.000
  0
VERTEX
  8
LC_OH_2021_05_O7
  10
248288.000
  20
4500845.000
  0
VERTEX
  8
LC_OH_2021_05_O7
  10
248706.000
  20
4500592.000
  0
VERTEX
  8
LC_OH_2021_05_O7
  10
248479.000
  20
4497000.000
  0
VERTEX
  8
LC_OH_2021_05_O7
  10
246128.000
  20
4496720.000
  0
VERTEX
  8
LC_OH_2021_05_O7
  10
246125.000
  20
4496720.500
  0
VERTEX
  8
LC_OH_2021_05_O7
  10
245505.500
  20
4497255.500
  0
VERTEX
  8
LC_OH_2021_05_O7
  10
245790.000
  20
4500846.000
  0
VERTEX
  8
LC_OH_2021_05_O7
  10
245790.500
  20
4500847.000
  0
VERTEX
  8
LC_OH_2021_05_O7
  10
246582.500
  20
4500846.000
  0
VERTEX
  8
LC_OH_2021_05_O7
  10
246895.500
  20
4500846.000
  0
SEQEND
  8
LC_OH_2021_05_O7
  0
INSERT
  8
FeatureAttribs
  2
FEATURE
  41
1
  42
1
  43
1
  50
0
  10
232422.073
  20
4499439.002
 66
1
  0
ATTRIB
  8
FeatureAttribs
 70
0
  1
PNOA-H_AMS_1956-57_33k_ES_PAN_21mic_H50_0527_fot_64A-30187_W.tif
  2
NAME
  10
232422.073
  20
4499439.002
 40
34.80768
  0
SEQEND
  0
POLYLINE
  8
LC_OH_2021_05_O7
  70
1
  66
1
  0
VERTEX
  8
LC_OH_2021_05_O7
  10
231029.000
  20
4501493.500
  0
VERTEX
  8
LC_OH_2021_05_O7
  10
231374.000
  20
4501670.000
  0
VERTEX
  8
LC_OH_2021_05_O7
  10
232557.000
  20
4501541.500
  0
VERTEX
  8
LC_OH_2021_05_O7
  10
232559.500
  20
4501541.500
  0
VERTEX
  8
LC_OH_2021_05_O7
  10
234009.000
  20
4501384.500
  0
VERTEX
  8
LC_OH_2021_05_O7
  10
234010.000
  20
4501384.000
  0
VERTEX
  8
LC_OH_2021_05_O7
  10
234010.000
  20
4501379.500
  0
VERTEX
  8
LC_OH_2021_05_O7
  10
233855.000
  20
4497753.000
  0
VERTEX
  8
LC_OH_2021_05_O7
  10
232803.000
  20
4497268.000
  0
VERTEX
  8
LC_OH_2021_05_O7
  10
232482.500
  20
4497208.000
  0
VERTEX
  8
LC_OH_2021_05_O7
  10
230832.500
  20
4497827.000
  0
VERTEX
  8
LC_OH_2021_05_O7
  10
230829.500
  20
4497828.500
  0
VERTEX
  8
LC_OH_2021_05_O7
  10
230829.500
  20
4497831.000
  0
SEQEND
  8
LC_OH_2021_05_O7
  0
INSERT
  8
FeatureAttribs
  2
FEATURE
  41
1
  42
1
  43
1
  50
0
  10
258025.642
  20
4498173.080
 66
1
  0
ATTRIB
  8
FeatureAttribs
 70
0
  1
PNOA-H_AMS_1956-57_33k_ES_PAN_21mic_H50_0528_fot_64A-30178_W.tif
  2
NAME
  10
258025.642
  20
4498173.080
 40
34.80768
  0
SEQEND
  0
POLYLINE
  8
LC_OH_2021_05_O7
  70
1
  66
1
  0
VERTEX
  8
LC_OH_2021_05_O7
  10
258558.783
  20
4500099.144
  0
VERTEX
  8
LC_OH_2021_05_O7
  10
258514.467
  20
4498733.654
  0
VERTEX
  8
LC_OH_2021_05_O7
  10
258439.431
  20
4496420.676
  0
VERTEX
  8
LC_OH_2021_05_O7
  10
258433.800
  20
4496247.015
  0
VERTEX
  8
LC_OH_2021_05_O7
  10
257492.500
  20
4496478.000
  0
VERTEX
  8
LC_OH_2021_05_O7
  10
257715.000
  20
4499885.500
  0
SEQEND
  8
LC_OH_2021_05_O7
  0
INSERT
  8
FeatureAttribs
  2
FEATURE
  41
1
  42
1
  43
1
  50
0
  10
231187.222
  20
4506494.877
 66
1
  0
ATTRIB
  8
FeatureAttribs
 70
0
  1
PNOA-H_AMS_1956-57_33k_ES_PAN_21mic_H50_0503_fot_62C-05344_E.tif
  2
NAME
  10
231187.222
  20
4506494.877
 40
34.80768
  0
SEQEND
  0
POLYLINE
  8
LC_OH_2021_05_O7
  70
1
  66
1
  0
VERTEX
  8
LC_OH_2021_05_O7
  10
231819.468
  20
4506596.317
  0
VERTEX
  8
LC_OH_2021_05_O7
  10
231818.000
  20
4506486.500
  0
VERTEX
  8
LC_OH_2021_05_O7
  10
231486.500
  20
4506348.000
  0
VERTEX
  8
LC_OH_2021_05_O7
  10
231484.500
  20
4506348.000
  0
VERTEX
  8
LC_OH_2021_05_O7
  10
230554.977
  20
4506525.524
  0
VERTEX
  8
LC_OH_2021_05_O7
  10
230559.194
  20
4506641.754
  0
SEQEND
  8
LC_OH_2021_05_O7
  0
INSERT
  8
FeatureAttribs
  2
FEATURE
  41
1
  42
1
  43
1
  50
0
  10
232813.501
  20
4506512.165
 66
1
  0
ATTRIB
  8
FeatureAttribs
 70
0
  1
PNOA-H_AMS_1956-57_33k_ES_PAN_21mic_H50_0503_fot_62C-05345_E.tif
  2
NAME
  10
232813.501
  20
4506512.165
 40
34.80768
  0
SEQEND
  0
POLYLINE
  8
LC_OH_2021_05_O7
  70
1
  66
1
  0
VERTEX
  8
LC_OH_2021_05_O7
  10
233110.503
  20
4506549.771
  0
VERTEX
  8
LC_OH_2021_05_O7
  10
232785.500
  20
4506454.000
  0
VERTEX
  8
LC_OH_2021_05_O7
  10
232516.500
  20
4506502.000
  0
VERTEX
  8
LC_OH_2021_05_O7
  10
232540.264
  20
4506570.330
  0
SEQEND
  8
LC_OH_2021_05_O7
  0
ENDSEC
  0
EOF
