  0
SECTION
  2
HEADER
  9
$ACADVER
  1
AC1009
  9
$LUNITS
  70
2
  9
$LIMMIN
  10
201636.510
  20
4488137.072
  9
$LIMMAX
  10
230559.194
  20
4507718.104
  9
$EXTMIN
  10
201636.510
  20
4488137.072
  9
$EXTMAX
  10
230559.194
  20
4507718.104
  999
Created by Global Mapper
  999
Projection: UTM
  999
Datum: ETRS89
  999
Ground Units: meters
  999
ZONE: 30
  0
ENDSEC
  0
SECTION
  2
TABLES
  0
ENDSEC
  0
SECTION
  2
BLOCKS
  0
BLOCK
  8
FeatureAttribs
  70
0
  2
FEATURE
  3
FEATURE
  10
0.00000000
  20
0.00000000
  0
ATTDEF
  8
FeatureAttribs
  70
0
  1
 
  2
NAME
  3
NAME
  10
0.00000000
  20
0.00000000
  40
1.00000000
  0
ENDBLK
  0
ENDSEC
  0
SECTION
  2
ENTITIES
  0
INSERT
  8
FeatureAttribs
  2
FEATURE
  41
1
  42
1
  43
1
  50
0
  10
204072.235
  20
4489515.681
 66
1
  0
ATTRIB
  8
FeatureAttribs
 70
0
  1
PNOA-H_AMS_1956-57_33k_ES_PAN_21mic_H50_0551_fot_67A-44246_E.tif
  2
NAME
  10
204072.235
  20
4489515.681
 40
34.92762
  0
SEQEND
  0
POLYLINE
  8
LC_OH_2021_05_O7
  70
1
  66
1
  0
VERTEX
  8
LC_OH_2021_05_O7
  10
205481.583
  20
4489059.863
  0
VERTEX
  8
LC_OH_2021_05_O7
  10
205168.128
  20
4489072.166
  0
VERTEX
  8
LC_OH_2021_05_O7
  10
202642.971
  20
4489172.471
  0
VERTEX
  8
LC_OH_2021_05_O7
  10
202662.999
  20
4489797.500
  0
VERTEX
  8
LC_OH_2021_05_O7
  10
204862.999
  20
4489971.000
  0
VERTEX
  8
LC_OH_2021_05_O7
  10
204868.999
  20
4489971.500
  0
VERTEX
  8
LC_OH_2021_05_O7
  10
204873.499
  20
4489971.500
  0
VERTEX
  8
LC_OH_2021_05_O7
  10
205501.499
  20
4489659.000
  0
SEQEND
  8
LC_OH_2021_05_O7
  0
INSERT
  8
FeatureAttribs
  2
FEATURE
  41
1
  42
1
  43
1
  50
0
  10
202149.755
  20
4489651.485
 66
1
  0
ATTRIB
  8
FeatureAttribs
 70
0
  1
PNOA-H_AMS_1956-57_33k_ES_PAN_21mic_H50_0551_fot_67A-44245_E.tif
  2
NAME
  10
202149.755
  20
4489651.485
 40
34.92762
  0
SEQEND
  0
POLYLINE
  8
LC_OH_2021_05_O7
  70
1
  66
1
  0
VERTEX
  8
LC_OH_2021_05_O7
  10
202642.971
  20
4489172.471
  0
VERTEX
  8
LC_OH_2021_05_O7
  10
201636.510
  20
4489212.449
  0
VERTEX
  8
LC_OH_2021_05_O7
  10
201672.253
  20
4490106.733
  0
VERTEX
  8
LC_OH_2021_05_O7
  10
201960.999
  20
4490130.000
  0
VERTEX
  8
LC_OH_2021_05_O7
  10
201966.999
  20
4490130.500
  0
VERTEX
  8
LC_OH_2021_05_O7
  10
202662.999
  20
4489797.500
  0
SEQEND
  8
LC_OH_2021_05_O7
  0
INSERT
  8
FeatureAttribs
  2
FEATURE
  41
1
  42
1
  43
1
  50
0
  10
209865.966
  20
4489221.990
 66
1
  0
ATTRIB
  8
FeatureAttribs
 70
0
  1
PNOA-H_AMS_1956-57_33k_ES_PAN_21mic_H50_0551_fot_67A-44248_E.tif
  2
NAME
  10
209865.966
  20
4489221.990
 40
34.92762
  0
SEQEND
  0
POLYLINE
  8
LC_OH_2021_05_O7
  70
1
  66
1
  0
VERTEX
  8
LC_OH_2021_05_O7
  10
211293.653
  20
4488832.979
  0
VERTEX
  8
LC_OH_2021_05_O7
  10
208699.721
  20
4488933.557
  0
VERTEX
  8
LC_OH_2021_05_O7
  10
208420.933
  20
4488944.499
  0
VERTEX
  8
LC_OH_2021_05_O7
  10
208460.499
  20
4489430.000
  0
VERTEX
  8
LC_OH_2021_05_O7
  10
208460.999
  20
4489433.500
  0
VERTEX
  8
LC_OH_2021_05_O7
  10
210322.999
  20
4489610.500
  0
VERTEX
  8
LC_OH_2021_05_O7
  10
210327.999
  20
4489611.000
  0
VERTEX
  8
LC_OH_2021_05_O7
  10
210333.499
  20
4489611.000
  0
VERTEX
  8
LC_OH_2021_05_O7
  10
211310.999
  20
4489196.000
  0
SEQEND
  8
LC_OH_2021_05_O7
  0
INSERT
  8
FeatureAttribs
  2
FEATURE
  41
1
  42
1
  43
1
  50
0
  10
206971.126
  20
4489368.746
 66
1
  0
ATTRIB
  8
FeatureAttribs
 70
0
  1
PNOA-H_AMS_1956-57_33k_ES_PAN_21mic_H50_0551_fot_67A-44247_E.tif
  2
NAME
  10
206971.126
  20
4489368.746
 40
34.92762
  0
SEQEND
  0
POLYLINE
  8
LC_OH_2021_05_O7
  70
1
  66
1
  0
VERTEX
  8
LC_OH_2021_05_O7
  10
208421.123
  20
4488944.491
  0
VERTEX
  8
LC_OH_2021_05_O7
  10
205481.252
  20
4489059.876
  0
VERTEX
  8
LC_OH_2021_05_O7
  10
205500.999
  20
4489655.500
  0
VERTEX
  8
LC_OH_2021_05_O7
  10
205501.499
  20
4489659.000
  0
VERTEX
  8
LC_OH_2021_05_O7
  10
205508.499
  20
4489659.500
  0
VERTEX
  8
LC_OH_2021_05_O7
  10
205922.499
  20
4489684.500
  0
VERTEX
  8
LC_OH_2021_05_O7
  10
205930.999
  20
4489685.000
  0
VERTEX
  8
LC_OH_2021_05_O7
  10
207722.499
  20
4489793.000
  0
VERTEX
  8
LC_OH_2021_05_O7
  10
208460.999
  20
4489433.500
  0
SEQEND
  8
LC_OH_2021_05_O7
  0
INSERT
  8
FeatureAttribs
  2
FEATURE
  41
1
  42
1
  43
1
  50
0
  10
218575.648
  20
4488721.325
 66
1
  0
ATTRIB
  8
FeatureAttribs
 70
0
  1
PNOA-H_AMS_1956-57_33k_ES_PAN_21mic_H50_0551_fot_67A-44251_E.tif
  2
NAME
  10
218575.648
  20
4488721.325
 40
34.92762
  0
SEQEND
  0
POLYLINE
  8
LC_OH_2021_05_O7
  70
1
  66
1
  0
VERTEX
  8
LC_OH_2021_05_O7
  10
219953.731
  20
4488503.150
  0
VERTEX
  8
LC_OH_2021_05_O7
  10
219294.355
  20
4488527.779
  0
VERTEX
  8
LC_OH_2021_05_O7
  10
217197.566
  20
4488607.093
  0
VERTEX
  8
LC_OH_2021_05_O7
  10
217199.999
  20
4488648.000
  0
VERTEX
  8
LC_OH_2021_05_O7
  10
218177.499
  20
4488939.500
  0
VERTEX
  8
LC_OH_2021_05_O7
  10
218183.999
  20
4488939.500
  0
VERTEX
  8
LC_OH_2021_05_O7
  10
218222.499
  20
4488929.500
  0
VERTEX
  8
LC_OH_2021_05_O7
  10
218223.499
  20
4488929.500
  0
SEQEND
  8
LC_OH_2021_05_O7
  0
INSERT
  8
FeatureAttribs
  2
FEATURE
  41
1
  42
1
  43
1
  50
0
  10
215737.327
  20
4488893.788
 66
1
  0
ATTRIB
  8
FeatureAttribs
 70
0
  1
PNOA-H_AMS_1956-57_33k_ES_PAN_21mic_H50_0551_fot_67A-44250_E.tif
  2
NAME
  10
215737.327
  20
4488893.788
 40
34.92762
  0
SEQEND
  0
POLYLINE
  8
LC_OH_2021_05_O7
  70
1
  66
1
  0
VERTEX
  8
LC_OH_2021_05_O7
  10
217198.030
  20
4488607.076
  0
VERTEX
  8
LC_OH_2021_05_O7
  10
215762.834
  20
4488661.364
  0
VERTEX
  8
LC_OH_2021_05_O7
  10
214274.155
  20
4488718.381
  0
VERTEX
  8
LC_OH_2021_05_O7
  10
214284.999
  20
4488888.500
  0
VERTEX
  8
LC_OH_2021_05_O7
  10
215571.499
  20
4489180.500
  0
VERTEX
  8
LC_OH_2021_05_O7
  10
217200.499
  20
4488648.500
  0
SEQEND
  8
LC_OH_2021_05_O7
  0
INSERT
  8
FeatureAttribs
  2
FEATURE
  41
1
  42
1
  43
1
  50
0
  10
224272.216
  20
4488451.675
 66
1
  0
ATTRIB
  8
FeatureAttribs
 70
0
  1
PNOA-H_AMS_1956-57_33k_ES_PAN_21mic_H50_0551_fot_67A-44253_E.tif
  2
NAME
  10
224272.216
  20
4488451.675
 40
34.92762
  0
SEQEND
  0
POLYLINE
  8
LC_OH_2021_05_O7
  70
1
  66
1
  0
VERTEX
  8
LC_OH_2021_05_O7
  10
225578.635
  20
4488294.350
  0
VERTEX
  8
LC_OH_2021_05_O7
  10
222960.933
  20
4488390.888
  0
VERTEX
  8
LC_OH_2021_05_O7
  10
223494.000
  20
4488609.000
  0
VERTEX
  8
LC_OH_2021_05_O7
  10
224366.500
  20
4488520.000
  0
VERTEX
  8
LC_OH_2021_05_O7
  10
224367.500
  20
4488520.000
  0
VERTEX
  8
LC_OH_2021_05_O7
  10
225583.500
  20
4488396.500
  0
SEQEND
  8
LC_OH_2021_05_O7
  0
INSERT
  8
FeatureAttribs
  2
FEATURE
  41
1
  42
1
  43
1
  50
0
  10
226844.317
  20
4488346.318
 66
1
  0
ATTRIB
  8
FeatureAttribs
 70
0
  1
PNOA-H_AMS_1956-57_33k_ES_PAN_21mic_H50_0551_fot_67A-44254_E.tif
  2
NAME
  10
226844.317
  20
4488346.318
 40
34.92762
  0
SEQEND
  0
POLYLINE
  8
LC_OH_2021_05_O7
  70
1
  66
1
  0
VERTEX
  8
LC_OH_2021_05_O7
  10
228101.524
  20
4488202.136
  0
VERTEX
  8
LC_OH_2021_05_O7
  10
226357.328
  20
4488265.633
  0
VERTEX
  8
LC_OH_2021_05_O7
  10
225578.635
  20
4488294.350
  0
VERTEX
  8
LC_OH_2021_05_O7
  10
225583.500
  20
4488396.500
  0
VERTEX
  8
LC_OH_2021_05_O7
  10
225803.500
  20
4488490.000
  0
VERTEX
  8
LC_OH_2021_05_O7
  10
225804.500
  20
4488490.500
  0
VERTEX
  8
LC_OH_2021_05_O7
  10
228036.000
  20
4488399.000
  0
VERTEX
  8
LC_OH_2021_05_O7
  10
228040.000
  20
4488398.500
  0
VERTEX
  8
LC_OH_2021_05_O7
  10
228110.000
  20
4488363.500
  0
SEQEND
  8
LC_OH_2021_05_O7
  0
INSERT
  8
FeatureAttribs
  2
FEATURE
  41
1
  42
1
  43
1
  50
0
  10
212789.327
  20
4489084.690
 66
1
  0
ATTRIB
  8
FeatureAttribs
 70
0
  1
PNOA-H_AMS_1956-57_33k_ES_PAN_21mic_H50_0551_fot_67A-44249_E.tif
  2
NAME
  10
212789.327
  20
4489084.690
 40
34.92762
  0
SEQEND
  0
POLYLINE
  8
LC_OH_2021_05_O7
  70
1
  66
1
  0
VERTEX
  8
LC_OH_2021_05_O7
  10
214274.168
  20
4488718.380
  0
VERTEX
  8
LC_OH_2021_05_O7
  10
212231.289
  20
4488796.623
  0
VERTEX
  8
LC_OH_2021_05_O7
  10
211293.655
  20
4488832.979
  0
VERTEX
  8
LC_OH_2021_05_O7
  10
211310.999
  20
4489196.000
  0
VERTEX
  8
LC_OH_2021_05_O7
  10
212073.999
  20
4489325.000
  0
VERTEX
  8
LC_OH_2021_05_O7
  10
212076.999
  20
4489325.500
  0
VERTEX
  8
LC_OH_2021_05_O7
  10
212822.499
  20
4489451.000
  0
VERTEX
  8
LC_OH_2021_05_O7
  10
214284.999
  20
4488888.500
  0
SEQEND
  8
LC_OH_2021_05_O7
  0
INSERT
  8
FeatureAttribs
  2
FEATURE
  41
1
  42
1
  43
1
  50
0
  10
221392.670
  20
4488573.891
 66
1
  0
ATTRIB
  8
FeatureAttribs
 70
0
  1
PNOA-H_AMS_1956-57_33k_ES_PAN_21mic_H50_0551_fot_67A-44252_E.tif
  2
NAME
  10
221392.670
  20
4488573.891
 40
34.92762
  0
SEQEND
  0
POLYLINE
  8
LC_OH_2021_05_O7
  70
1
  66
1
  0
VERTEX
  8
LC_OH_2021_05_O7
  10
222654.156
  20
4488402.283
  0
VERTEX
  8
LC_OH_2021_05_O7
  10
220131.183
  20
4488496.522
  0
VERTEX
  8
LC_OH_2021_05_O7
  10
220268.999
  20
4488545.000
  0
VERTEX
  8
LC_OH_2021_05_O7
  10
220270.499
  20
4488545.500
  0
VERTEX
  8
LC_OH_2021_05_O7
  10
220839.499
  20
4488745.500
  0
SEQEND
  8
LC_OH_2021_05_O7
  0
INSERT
  8
FeatureAttribs
  2
FEATURE
  41
1
  42
1
  43
1
  50
0
  10
228998.975
  20
4488250.286
 66
1
  0
ATTRIB
  8
FeatureAttribs
 70
0
  1
PNOA-H_AMS_1956-57_33k_ES_PAN_21mic_H50_0551_fot_67A-44255_E.tif
  2
NAME
  10
228998.975
  20
4488250.286
 40
34.92762
  0
SEQEND
  0
POLYLINE
  8
LC_OH_2021_05_O7
  70
1
  66
1
  0
VERTEX
  8
LC_OH_2021_05_O7
  10
229896.349
  20
4488346.299
  0
VERTEX
  8
LC_OH_2021_05_O7
  10
229888.780
  20
4488137.072
  0
VERTEX
  8
LC_OH_2021_05_O7
  10
228101.600
  20
4488202.133
  0
VERTEX
  8
LC_OH_2021_05_O7
  10
228110.000
  20
4488362.000
  0
VERTEX
  8
LC_OH_2021_05_O7
  10
228110.000
  20
4488363.500
  0
SEQEND
  8
LC_OH_2021_05_O7
  0
INSERT
  8
FeatureAttribs
  2
FEATURE
  41
1
  42
1
  43
1
  50
0
  10
202057.820
  20
4496297.453
 66
1
  0
ATTRIB
  8
FeatureAttribs
 70
0
  1
PNOA-H_AMS_1956-57_33k_ES_PAN_21mic_H50_0525_fot_65A-46683_W.tif
  2
NAME
  10
202057.820
  20
4496297.453
 40
34.92762
  0
SEQEND
  0
POLYLINE
  8
LC_OH_2021_05_O7
  70
1
  66
1
  0
VERTEX
  8
LC_OH_2021_05_O7
  10
201975.574
  20
4497690.957
  0
VERTEX
  8
LC_OH_2021_05_O7
  10
202251.999
  20
4497776.000
  0
VERTEX
  8
LC_OH_2021_05_O7
  10
202253.999
  20
4497776.500
  0
VERTEX
  8
LC_OH_2021_05_O7
  10
202254.999
  20
4497776.500
  0
VERTEX
  8
LC_OH_2021_05_O7
  10
202253.999
  20
4497755.500
  0
VERTEX
  8
LC_OH_2021_05_O7
  10
202089.499
  20
4494819.500
  0
VERTEX
  8
LC_OH_2021_05_O7
  10
201860.641
  20
4494818.407
  0
VERTEX
  8
LC_OH_2021_05_O7
  10
201913.988
  20
4496152.031
  0
SEQEND
  8
LC_OH_2021_05_O7
  0
INSERT
  8
FeatureAttribs
  2
FEATURE
  41
1
  42
1
  43
1
  50
0
  10
202357.192
  20
4504961.416
 66
1
  0
ATTRIB
  8
FeatureAttribs
 70
0
  1
PNOA-H_AMS_1956-57_33k_ES_PAN_21mic_H50_0525_fot_63A-40316_W.tif
  2
NAME
  10
202357.192
  20
4504961.416
 40
34.92762
  0
SEQEND
  0
POLYLINE
  8
LC_OH_2021_05_O7
  70
1
  66
1
  0
VERTEX
  8
LC_OH_2021_05_O7
  10
202356.638
  20
4507204.117
  0
VERTEX
  8
LC_OH_2021_05_O7
  10
202537.499
  20
4507195.000
  0
VERTEX
  8
LC_OH_2021_05_O7
  10
202245.999
  20
4502734.000
  0
VERTEX
  8
LC_OH_2021_05_O7
  10
202176.885
  20
4502718.714
  0
VERTEX
  8
LC_OH_2021_05_O7
  10
202191.822
  20
4503091.659
  0
VERTEX
  8
LC_OH_2021_05_O7
  10
202284.512
  20
4505404.879
  0
SEQEND
  8
LC_OH_2021_05_O7
  0
INSERT
  8
FeatureAttribs
  2
FEATURE
  41
1
  42
1
  43
1
  50
0
  10
226959.518
  20
4504187.501
 66
1
  0
ATTRIB
  8
FeatureAttribs
 70
0
  1
PNOA-H_AMS_1956-57_33k_ES_PAN_21mic_H50_0526_fot_63A-40307_W.tif
  2
NAME
  10
226959.518
  20
4504187.501
 40
34.92762
  0
SEQEND
  0
POLYLINE
  8
LC_OH_2021_05_O7
  70
1
  66
1
  0
VERTEX
  8
LC_OH_2021_05_O7
  10
226489.854
  20
4506790.661
  0
VERTEX
  8
LC_OH_2021_05_O7
  10
228348.500
  20
4506473.000
  0
VERTEX
  8
LC_OH_2021_05_O7
  10
228466.000
  20
4501772.500
  0
VERTEX
  8
LC_OH_2021_05_O7
  10
228029.500
  20
4501548.000
  0
VERTEX
  8
LC_OH_2021_05_O7
  10
228011.000
  20
4501539.500
  0
VERTEX
  8
LC_OH_2021_05_O7
  10
225585.000
  20
4501845.500
  0
VERTEX
  8
LC_OH_2021_05_O7
  10
225441.500
  20
4506541.000
  0
VERTEX
  8
LC_OH_2021_05_O7
  10
226142.437
  20
4506803.517
  0
SEQEND
  8
LC_OH_2021_05_O7
  0
INSERT
  8
FeatureAttribs
  2
FEATURE
  41
1
  42
1
  43
1
  50
0
  10
218331.081
  20
4504219.000
 66
1
  0
ATTRIB
  8
FeatureAttribs
 70
0
  1
PNOA-H_AMS_1956-57_33k_ES_PAN_21mic_H50_0526_fot_63A-40310_W.tif
  2
NAME
  10
218331.081
  20
4504219.000
 40
34.92762
  0
SEQEND
  0
POLYLINE
  8
LC_OH_2021_05_O7
  70
1
  66
1
  0
VERTEX
  8
LC_OH_2021_05_O7
  10
217025.499
  20
4506698.000
  0
VERTEX
  8
LC_OH_2021_05_O7
  10
217329.999
  20
4506822.000
  0
VERTEX
  8
LC_OH_2021_05_O7
  10
217330.999
  20
4506822.500
  0
VERTEX
  8
LC_OH_2021_05_O7
  10
219739.499
  20
4506599.000
  0
VERTEX
  8
LC_OH_2021_05_O7
  10
219719.499
  20
4502019.000
  0
VERTEX
  8
LC_OH_2021_05_O7
  10
218871.999
  20
4501622.000
  0
VERTEX
  8
LC_OH_2021_05_O7
  10
218857.999
  20
4501615.500
  0
VERTEX
  8
LC_OH_2021_05_O7
  10
218855.999
  20
4501615.500
  0
VERTEX
  8
LC_OH_2021_05_O7
  10
216855.499
  20
4502138.000
  0
SEQEND
  8
LC_OH_2021_05_O7
  0
INSERT
  8
FeatureAttribs
  2
FEATURE
  41
1
  42
1
  43
1
  50
0
  10
224063.906
  20
4504185.750
 66
1
  0
ATTRIB
  8
FeatureAttribs
 70
0
  1
PNOA-H_AMS_1956-57_33k_ES_PAN_21mic_H50_0526_fot_63A-40308_W.tif
  2
NAME
  10
224063.906
  20
4504185.750
 40
34.92762
  0
SEQEND
  0
POLYLINE
  8
LC_OH_2021_05_O7
  70
1
  66
1
  0
VERTEX
  8
LC_OH_2021_05_O7
  10
223292.000
  20
4506837.500
  0
VERTEX
  8
LC_OH_2021_05_O7
  10
223293.000
  20
4506838.000
  0
VERTEX
  8
LC_OH_2021_05_O7
  10
225441.500
  20
4506541.000
  0
VERTEX
  8
LC_OH_2021_05_O7
  10
225585.000
  20
4501845.000
  0
VERTEX
  8
LC_OH_2021_05_O7
  10
224984.000
  20
4501541.500
  0
VERTEX
  8
LC_OH_2021_05_O7
  10
224966.500
  20
4501533.500
  0
VERTEX
  8
LC_OH_2021_05_O7
  10
222665.000
  20
4501943.000
  0
VERTEX
  8
LC_OH_2021_05_O7
  10
222561.000
  20
4506548.000
  0
SEQEND
  8
LC_OH_2021_05_O7
  0
INSERT
  8
FeatureAttribs
  2
FEATURE
  41
1
  42
1
  43
1
  50
0
  10
209675.560
  20
4504494.751
 66
1
  0
ATTRIB
  8
FeatureAttribs
 70
0
  1
PNOA-H_AMS_1956-57_33k_ES_PAN_21mic_H50_0526_fot_63A-40313_W.tif
  2
NAME
  10
209675.560
  20
4504494.751
 40
34.92762
  0
SEQEND
  0
POLYLINE
  8
LC_OH_2021_05_O7
  70
1
  66
1
  0
VERTEX
  8
LC_OH_2021_05_O7
  10
208333.999
  20
4506874.000
  0
VERTEX
  8
LC_OH_2021_05_O7
  10
208838.499
  20
4507089.000
  0
VERTEX
  8
LC_OH_2021_05_O7
  10
208839.499
  20
4507089.500
  0
VERTEX
  8
LC_OH_2021_05_O7
  10
211301.499
  20
4506827.000
  0
VERTEX
  8
LC_OH_2021_05_O7
  10
211055.499
  20
4502379.000
  0
VERTEX
  8
LC_OH_2021_05_O7
  10
209885.499
  20
4501900.000
  0
VERTEX
  8
LC_OH_2021_05_O7
  10
208048.499
  20
4502502.500
  0
SEQEND
  8
LC_OH_2021_05_O7
  0
INSERT
  8
FeatureAttribs
  2
FEATURE
  41
1
  42
1
  43
1
  50
0
  10
229920.099
  20
4504063.751
 66
1
  0
ATTRIB
  8
FeatureAttribs
 70
0
  1
PNOA-H_AMS_1956-57_33k_ES_PAN_21mic_H50_0526_fot_63A-40306_W.tif
  2
NAME
  10
229920.099
  20
4504063.751
 40
34.92762
  0
SEQEND
  0
POLYLINE
  8
LC_OH_2021_05_O7
  70
1
  66
1
  0
VERTEX
  8
LC_OH_2021_05_O7
  10
230554.983
  20
4506525.696
  0
VERTEX
  8
LC_OH_2021_05_O7
  10
230475.267
  20
4504328.648
  0
VERTEX
  8
LC_OH_2021_05_O7
  10
230391.376
  20
4502015.548
  0
VERTEX
  8
LC_OH_2021_05_O7
  10
230375.034
  20
4501564.770
  0
VERTEX
  8
LC_OH_2021_05_O7
  10
228466.000
  20
4501772.500
  0
VERTEX
  8
LC_OH_2021_05_O7
  10
228348.500
  20
4506473.000
  0
VERTEX
  8
LC_OH_2021_05_O7
  10
228759.500
  20
4506634.000
  0
VERTEX
  8
LC_OH_2021_05_O7
  10
230033.500
  20
4506625.500
  0
VERTEX
  8
LC_OH_2021_05_O7
  10
230510.000
  20
4506534.000
  0
VERTEX
  8
LC_OH_2021_05_O7
  10
230511.500
  20
4506534.000
  0
SEQEND
  8
LC_OH_2021_05_O7
  0
INSERT
  8
FeatureAttribs
  2
FEATURE
  41
1
  42
1
  43
1
  50
0
  10
212633.786
  20
4504373.500
 66
1
  0
ATTRIB
  8
FeatureAttribs
 70
0
  1
PNOA-H_AMS_1956-57_33k_ES_PAN_21mic_H50_0526_fot_63A-40312_W.tif
  2
NAME
  10
212633.786
  20
4504373.500
 40
34.92762
  0
SEQEND
  0
POLYLINE
  8
LC_OH_2021_05_O7
  70
1
  66
1
  0
VERTEX
  8
LC_OH_2021_05_O7
  10
211301.499
  20
4506826.500
  0
VERTEX
  8
LC_OH_2021_05_O7
  10
211616.499
  20
4506961.500
  0
VERTEX
  8
LC_OH_2021_05_O7
  10
211617.499
  20
4506962.000
  0
VERTEX
  8
LC_OH_2021_05_O7
  10
214196.999
  20
4506759.500
  0
VERTEX
  8
LC_OH_2021_05_O7
  10
214017.499
  20
4502262.500
  0
VERTEX
  8
LC_OH_2021_05_O7
  10
212861.999
  20
4501785.000
  0
VERTEX
  8
LC_OH_2021_05_O7
  10
211055.499
  20
4502379.000
  0
SEQEND
  8
LC_OH_2021_05_O7
  0
INSERT
  8
FeatureAttribs
  2
FEATURE
  41
1
  42
1
  43
1
  50
0
  10
215517.153
  20
4504294.250
 66
1
  0
ATTRIB
  8
FeatureAttribs
 70
0
  1
PNOA-H_AMS_1956-57_33k_ES_PAN_21mic_H50_0526_fot_63A-40311_W.tif
  2
NAME
  10
215517.153
  20
4504294.250
 40
34.92762
  0
SEQEND
  0
POLYLINE
  8
LC_OH_2021_05_O7
  70
1
  66
1
  0
VERTEX
  8
LC_OH_2021_05_O7
  10
214197.499
  20
4506760.000
  0
VERTEX
  8
LC_OH_2021_05_O7
  10
214508.499
  20
4506891.500
  0
VERTEX
  8
LC_OH_2021_05_O7
  10
214515.999
  20
4506891.500
  0
VERTEX
  8
LC_OH_2021_05_O7
  10
217025.499
  20
4506698.000
  0
VERTEX
  8
LC_OH_2021_05_O7
  10
216934.499
  20
4504267.500
  0
VERTEX
  8
LC_OH_2021_05_O7
  10
216934.499
  20
4504254.500
  0
VERTEX
  8
LC_OH_2021_05_O7
  10
216855.499
  20
4502138.000
  0
VERTEX
  8
LC_OH_2021_05_O7
  10
215866.499
  20
4501697.000
  0
VERTEX
  8
LC_OH_2021_05_O7
  10
214017.499
  20
4502262.500
  0
SEQEND
  8
LC_OH_2021_05_O7
  0
INSERT
  8
FeatureAttribs
  2
FEATURE
  41
1
  42
1
  43
1
  50
0
  10
228504.769
  20
4495486.002
 66
1
  0
ATTRIB
  8
FeatureAttribs
 70
0
  1
PNOA-H_AMS_1956-57_33k_ES_PAN_21mic_H50_0526_fot_65A-46673_W.tif
  2
NAME
  10
228504.769
  20
4495486.002
 40
34.92762
  0
SEQEND
  0
POLYLINE
  8
LC_OH_2021_05_O7
  70
1
  66
1
  0
VERTEX
  8
LC_OH_2021_05_O7
  10
227152.500
  20
4497431.000
  0
VERTEX
  8
LC_OH_2021_05_O7
  10
227754.500
  20
4497775.500
  0
VERTEX
  8
LC_OH_2021_05_O7
  10
228461.500
  20
4497598.000
  0
VERTEX
  8
LC_OH_2021_05_O7
  10
228463.500
  20
4497597.500
  0
VERTEX
  8
LC_OH_2021_05_O7
  10
229795.000
  20
4497264.000
  0
VERTEX
  8
LC_OH_2021_05_O7
  10
229945.500
  20
4493469.000
  0
VERTEX
  8
LC_OH_2021_05_O7
  10
228168.000
  20
4493196.500
  0
VERTEX
  8
LC_OH_2021_05_O7
  10
227135.500
  20
4493520.500
  0
SEQEND
  8
LC_OH_2021_05_O7
  0
INSERT
  8
FeatureAttribs
  2
FEATURE
  41
1
  42
1
  43
1
  50
0
  10
221171.665
  20
4504184.250
 66
1
  0
ATTRIB
  8
FeatureAttribs
 70
0
  1
PNOA-H_AMS_1956-57_33k_ES_PAN_21mic_H50_0526_fot_63A-40309_W.tif
  2
NAME
  10
221171.665
  20
4504184.250
 40
34.92762
  0
SEQEND
  0
POLYLINE
  8
LC_OH_2021_05_O7
  70
1
  66
1
  0
VERTEX
  8
LC_OH_2021_05_O7
  10
219739.499
  20
4506599.000
  0
VERTEX
  8
LC_OH_2021_05_O7
  10
220321.499
  20
4506829.500
  0
VERTEX
  8
LC_OH_2021_05_O7
  10
220337.999
  20
4506836.000
  0
VERTEX
  8
LC_OH_2021_05_O7
  10
220340.999
  20
4506836.000
  0
VERTEX
  8
LC_OH_2021_05_O7
  10
222318.000
  20
4506579.000
  0
VERTEX
  8
LC_OH_2021_05_O7
  10
222319.500
  20
4506579.000
  0
VERTEX
  8
LC_OH_2021_05_O7
  10
222561.000
  20
4506548.000
  0
VERTEX
  8
LC_OH_2021_05_O7
  10
222665.000
  20
4501943.000
  0
VERTEX
  8
LC_OH_2021_05_O7
  10
221887.000
  20
4501532.500
  0
VERTEX
  8
LC_OH_2021_05_O7
  10
219719.499
  20
4502019.500
  0
SEQEND
  8
LC_OH_2021_05_O7
  0
INSERT
  8
FeatureAttribs
  2
FEATURE
  41
1
  42
1
  43
1
  50
0
  10
225779.268
  20
4495494.500
 66
1
  0
ATTRIB
  8
FeatureAttribs
 70
0
  1
PNOA-H_AMS_1956-57_33k_ES_PAN_21mic_H50_0526_fot_65A-46674_W.tif
  2
NAME
  10
225779.268
  20
4495494.500
 40
34.92762
  0
SEQEND
  0
POLYLINE
  8
LC_OH_2021_05_O7
  70
1
  66
1
  0
VERTEX
  8
LC_OH_2021_05_O7
  10
226415.500
  20
4497541.000
  0
VERTEX
  8
LC_OH_2021_05_O7
  10
227152.500
  20
4497431.000
  0
VERTEX
  8
LC_OH_2021_05_O7
  10
227135.500
  20
4493520.500
  0
VERTEX
  8
LC_OH_2021_05_O7
  10
225836.000
  20
4493200.500
  0
VERTEX
  8
LC_OH_2021_05_O7
  10
224414.000
  20
4493542.000
  0
VERTEX
  8
LC_OH_2021_05_O7
  10
224415.000
  20
4497572.000
  0
VERTEX
  8
LC_OH_2021_05_O7
  10
224754.500
  20
4497787.000
  0
VERTEX
  8
LC_OH_2021_05_O7
  10
224758.500
  20
4497788.500
  0
VERTEX
  8
LC_OH_2021_05_O7
  10
226414.500
  20
4497541.000
  0
VERTEX
  8
LC_OH_2021_05_O7
  10
226415.500
  20
4497541.000
  0
SEQEND
  8
LC_OH_2021_05_O7
  0
INSERT
  8
FeatureAttribs
  2
FEATURE
  41
1
  42
1
  43
1
  50
0
  10
206717.228
  20
4504605.001
 66
1
  0
ATTRIB
  8
FeatureAttribs
 70
0
  1
PNOA-H_AMS_1956-57_33k_ES_PAN_21mic_H50_0526_fot_63A-40314_W.tif
  2
NAME
  10
206717.228
  20
4504605.001
 40
34.92762
  0
SEQEND
  0
POLYLINE
  8
LC_OH_2021_05_O7
  70
1
  66
1
  0
VERTEX
  8
LC_OH_2021_05_O7
  10
205462.499
  20
4507036.500
  0
VERTEX
  8
LC_OH_2021_05_O7
  10
205794.499
  20
4507189.000
  0
VERTEX
  8
LC_OH_2021_05_O7
  10
205795.499
  20
4507189.500
  0
VERTEX
  8
LC_OH_2021_05_O7
  10
208333.999
  20
4506874.000
  0
VERTEX
  8
LC_OH_2021_05_O7
  10
208047.999
  20
4502502.000
  0
VERTEX
  8
LC_OH_2021_05_O7
  10
206795.999
  20
4502020.500
  0
VERTEX
  8
LC_OH_2021_05_O7
  10
205072.999
  20
4502602.500
  0
SEQEND
  8
LC_OH_2021_05_O7
  0
INSERT
  8
FeatureAttribs
  2
FEATURE
  41
1
  42
1
  43
1
  50
0
  10
220261.461
  20
4495565.000
 66
1
  0
ATTRIB
  8
FeatureAttribs
 70
0
  1
PNOA-H_AMS_1956-57_33k_ES_PAN_21mic_H50_0526_fot_65A-46676_W.tif
  2
NAME
  10
220261.461
  20
4495565.000
 40
34.92762
  0
SEQEND
  0
POLYLINE
  8
LC_OH_2021_05_O7
  70
1
  66
1
  0
VERTEX
  8
LC_OH_2021_05_O7
  10
221643.000
  20
4497837.500
  0
VERTEX
  8
LC_OH_2021_05_O7
  10
221687.000
  20
4497837.500
  0
VERTEX
  8
LC_OH_2021_05_O7
  10
221733.000
  20
4497800.000
  0
VERTEX
  8
LC_OH_2021_05_O7
  10
221734.000
  20
4497799.000
  0
VERTEX
  8
LC_OH_2021_05_O7
  10
221734.000
  20
4497792.000
  0
VERTEX
  8
LC_OH_2021_05_O7
  10
221540.500
  20
4493492.000
  0
VERTEX
  8
LC_OH_2021_05_O7
  10
221026.499
  20
4493292.500
  0
VERTEX
  8
LC_OH_2021_05_O7
  10
218772.499
  20
4493572.000
  0
VERTEX
  8
LC_OH_2021_05_O7
  10
219020.499
  20
4497809.500
  0
VERTEX
  8
LC_OH_2021_05_O7
  10
221595.500
  20
4497837.000
  0
VERTEX
  8
LC_OH_2021_05_O7
  10
221643.000
  20
4497837.500
  0
SEQEND
  8
LC_OH_2021_05_O7
  0
INSERT
  8
FeatureAttribs
  2
FEATURE
  41
1
  42
1
  43
1
  50
0
  10
203817.397
  20
4504720.750
 66
1
  0
ATTRIB
  8
FeatureAttribs
 70
0
  1
PNOA-H_AMS_1956-57_33k_ES_PAN_21mic_H50_0526_fot_63A-40315_W.tif
  2
NAME
  10
203817.397
  20
4504720.750
 40
34.92762
  0
SEQEND
  0
POLYLINE
  8
LC_OH_2021_05_O7
  70
1
  66
1
  0
VERTEX
  8
LC_OH_2021_05_O7
  10
202536.999
  20
4507190.000
  0
VERTEX
  8
LC_OH_2021_05_O7
  10
202537.999
  20
4507195.500
  0
VERTEX
  8
LC_OH_2021_05_O7
  10
202721.499
  20
4507291.000
  0
VERTEX
  8
LC_OH_2021_05_O7
  10
202731.499
  20
4507296.000
  0
VERTEX
  8
LC_OH_2021_05_O7
  10
202734.499
  20
4507296.000
  0
VERTEX
  8
LC_OH_2021_05_O7
  10
205462.999
  20
4507037.000
  0
VERTEX
  8
LC_OH_2021_05_O7
  10
205218.499
  20
4504260.000
  0
VERTEX
  8
LC_OH_2021_05_O7
  10
205217.999
  20
4504254.500
  0
VERTEX
  8
LC_OH_2021_05_O7
  10
205072.999
  20
4502602.500
  0
VERTEX
  8
LC_OH_2021_05_O7
  10
203659.999
  20
4502145.500
  0
VERTEX
  8
LC_OH_2021_05_O7
  10
202245.999
  20
4502734.000
  0
SEQEND
  8
LC_OH_2021_05_O7
  0
INSERT
  8
FeatureAttribs
  2
FEATURE
  41
1
  42
1
  43
1
  50
0
  10
212239.470
  20
4496126.501
 66
1
  0
ATTRIB
  8
FeatureAttribs
 70
0
  1
PNOA-H_AMS_1956-57_33k_ES_PAN_21mic_H50_0526_fot_65A-46679_W.tif
  2
NAME
  10
212239.470
  20
4496126.501
 40
34.92762
  0
SEQEND
  0
POLYLINE
  8
LC_OH_2021_05_O7
  70
1
  66
1
  0
VERTEX
  8
LC_OH_2021_05_O7
  10
213490.499
  20
4494014.500
  0
VERTEX
  8
LC_OH_2021_05_O7
  10
213486.999
  20
4493900.500
  0
VERTEX
  8
LC_OH_2021_05_O7
  10
213486.499
  20
4493899.000
  0
VERTEX
  8
LC_OH_2021_05_O7
  10
213482.499
  20
4493899.000
  0
VERTEX
  8
LC_OH_2021_05_O7
  10
210757.999
  20
4494161.500
  0
VERTEX
  8
LC_OH_2021_05_O7
  10
211066.499
  20
4497960.500
  0
VERTEX
  8
LC_OH_2021_05_O7
  10
212807.999
  20
4498354.000
  0
VERTEX
  8
LC_OH_2021_05_O7
  10
213621.499
  20
4497914.000
  0
VERTEX
  8
LC_OH_2021_05_O7
  10
213490.499
  20
4494020.000
  0
VERTEX
  8
LC_OH_2021_05_O7
  10
213490.499
  20
4494014.500
  0
SEQEND
  8
LC_OH_2021_05_O7
  0
INSERT
  8
FeatureAttribs
  2
FEATURE
  41
1
  42
1
  43
1
  50
0
  10
217559.988
  20
4495782.750
 66
1
  0
ATTRIB
  8
FeatureAttribs
 70
0
  1
PNOA-H_AMS_1956-57_33k_ES_PAN_21mic_H50_0526_fot_65A-46677_W.tif
  2
NAME
  10
217559.988
  20
4495782.750
 40
34.92762
  0
SEQEND
  0
POLYLINE
  8
LC_OH_2021_05_O7
  70
1
  66
1
  0
VERTEX
  8
LC_OH_2021_05_O7
  10
218798.499
  20
4494014.500
  0
VERTEX
  8
LC_OH_2021_05_O7
  10
218772.499
  20
4493572.000
  0
VERTEX
  8
LC_OH_2021_05_O7
  10
218617.499
  20
4493507.000
  0
VERTEX
  8
LC_OH_2021_05_O7
  10
216172.499
  20
4493733.000
  0
VERTEX
  8
LC_OH_2021_05_O7
  10
216264.999
  20
4497882.500
  0
VERTEX
  8
LC_OH_2021_05_O7
  10
216265.499
  20
4497903.500
  0
VERTEX
  8
LC_OH_2021_05_O7
  10
216266.499
  20
4497904.000
  0
VERTEX
  8
LC_OH_2021_05_O7
  10
218669.499
  20
4498058.500
  0
VERTEX
  8
LC_OH_2021_05_O7
  10
219020.499
  20
4497809.500
  0
VERTEX
  8
LC_OH_2021_05_O7
  10
218798.499
  20
4494019.000
  0
VERTEX
  8
LC_OH_2021_05_O7
  10
218798.499
  20
4494014.500
  0
SEQEND
  8
LC_OH_2021_05_O7
  0
INSERT
  8
FeatureAttribs
  2
FEATURE
  41
1
  42
1
  43
1
  50
0
  10
209541.321
  20
4496342.000
 66
1
  0
ATTRIB
  8
FeatureAttribs
 70
0
  1
PNOA-H_AMS_1956-57_33k_ES_PAN_21mic_H50_0526_fot_65A-46680_W.tif
  2
NAME
  10
209541.321
  20
4496342.000
 40
34.92762
  0
SEQEND
  0
POLYLINE
  8
LC_OH_2021_05_O7
  70
1
  66
1
  0
VERTEX
  8
LC_OH_2021_05_O7
  10
210031.499
  20
4498442.000
  0
VERTEX
  8
LC_OH_2021_05_O7
  10
211066.499
  20
4497960.500
  0
VERTEX
  8
LC_OH_2021_05_O7
  10
210757.999
  20
4494161.500
  0
VERTEX
  8
LC_OH_2021_05_O7
  10
210690.999
  20
4494128.500
  0
VERTEX
  8
LC_OH_2021_05_O7
  10
210687.999
  20
4494128.500
  0
VERTEX
  8
LC_OH_2021_05_O7
  10
208034.499
  20
4494379.500
  0
VERTEX
  8
LC_OH_2021_05_O7
  10
208033.499
  20
4494380.000
  0
VERTEX
  8
LC_OH_2021_05_O7
  10
208033.499
  20
4494384.000
  0
VERTEX
  8
LC_OH_2021_05_O7
  10
208245.499
  20
4498023.000
  0
VERTEX
  8
LC_OH_2021_05_O7
  10
209787.999
  20
4498555.500
  0
VERTEX
  8
LC_OH_2021_05_O7
  10
210030.499
  20
4498442.500
  0
VERTEX
  8
LC_OH_2021_05_O7
  10
210031.499
  20
4498442.000
  0
SEQEND
  8
LC_OH_2021_05_O7
  0
INSERT
  8
FeatureAttribs
  2
FEATURE
  41
1
  42
1
  43
1
  50
0
  10
223022.444
  20
4495490.501
 66
1
  0
ATTRIB
  8
FeatureAttribs
 70
0
  1
PNOA-H_AMS_1956-57_33k_ES_PAN_21mic_H50_0526_fot_65A-46675_W.tif
  2
NAME
  10
223022.444
  20
4495490.501
 40
34.92762
  0
SEQEND
  0
POLYLINE
  8
LC_OH_2021_05_O7
  70
1
  66
1
  0
VERTEX
  8
LC_OH_2021_05_O7
  10
221734.000
  20
4497798.500
  0
VERTEX
  8
LC_OH_2021_05_O7
  10
224415.000
  20
4497572.000
  0
VERTEX
  8
LC_OH_2021_05_O7
  10
224414.000
  20
4493542.000
  0
VERTEX
  8
LC_OH_2021_05_O7
  10
223360.500
  20
4493182.500
  0
VERTEX
  8
LC_OH_2021_05_O7
  10
221540.500
  20
4493492.500
  0
VERTEX
  8
LC_OH_2021_05_O7
  10
221734.000
  20
4497792.000
  0
VERTEX
  8
LC_OH_2021_05_O7
  10
221734.000
  20
4497798.500
  0
SEQEND
  8
LC_OH_2021_05_O7
  0
INSERT
  8
FeatureAttribs
  2
FEATURE
  41
1
  42
1
  43
1
  50
0
  10
206673.453
  20
4496523.250
 66
1
  0
ATTRIB
  8
FeatureAttribs
 70
0
  1
PNOA-H_AMS_1956-57_33k_ES_PAN_21mic_H50_0526_fot_65A-46681_W.tif
  2
NAME
  10
206673.453
  20
4496523.250
 40
34.92762
  0
SEQEND
  0
POLYLINE
  8
LC_OH_2021_05_O7
  70
1
  66
1
  0
VERTEX
  8
LC_OH_2021_05_O7
  10
205934.999
  20
4498354.500
  0
VERTEX
  8
LC_OH_2021_05_O7
  10
206768.499
  20
4498682.500
  0
VERTEX
  8
LC_OH_2021_05_O7
  10
206780.999
  20
4498686.500
  0
VERTEX
  8
LC_OH_2021_05_O7
  10
208245.499
  20
4498023.000
  0
VERTEX
  8
LC_OH_2021_05_O7
  10
208033.999
  20
4494384.000
  0
VERTEX
  8
LC_OH_2021_05_O7
  10
208033.499
  20
4494379.500
  0
VERTEX
  8
LC_OH_2021_05_O7
  10
207999.499
  20
4494360.000
  0
VERTEX
  8
LC_OH_2021_05_O7
  10
205224.999
  20
4494470.500
  0
VERTEX
  8
LC_OH_2021_05_O7
  10
205219.999
  20
4494471.500
  0
VERTEX
  8
LC_OH_2021_05_O7
  10
205073.999
  20
4494582.500
  0
VERTEX
  8
LC_OH_2021_05_O7
  10
205281.499
  20
4498097.000
  0
VERTEX
  8
LC_OH_2021_05_O7
  10
205933.999
  20
4498354.000
  0
VERTEX
  8
LC_OH_2021_05_O7
  10
205934.999
  20
4498354.500
  0
SEQEND
  8
LC_OH_2021_05_O7
  0
INSERT
  8
FeatureAttribs
  2
FEATURE
  41
1
  42
1
  43
1
  50
0
  10
203697.962
  20
4496721.250
 66
1
  0
ATTRIB
  8
FeatureAttribs
 70
0
  1
PNOA-H_AMS_1956-57_33k_ES_PAN_21mic_H50_0526_fot_65A-46682_W.tif
  2
NAME
  10
203697.962
  20
4496721.250
 40
34.92762
  0
SEQEND
  0
POLYLINE
  8
LC_OH_2021_05_O7
  70
1
  66
1
  0
VERTEX
  8
LC_OH_2021_05_O7
  10
202254.499
  20
4497773.500
  0
VERTEX
  8
LC_OH_2021_05_O7
  10
202393.999
  20
4498278.000
  0
VERTEX
  8
LC_OH_2021_05_O7
  10
203577.499
  20
4498859.500
  0
VERTEX
  8
LC_OH_2021_05_O7
  10
203885.999
  20
4498721.500
  0
VERTEX
  8
LC_OH_2021_05_O7
  10
203887.499
  20
4498721.000
  0
VERTEX
  8
LC_OH_2021_05_O7
  10
205281.499
  20
4498097.000
  0
VERTEX
  8
LC_OH_2021_05_O7
  10
205073.999
  20
4494583.000
  0
VERTEX
  8
LC_OH_2021_05_O7
  10
202318.499
  20
4494648.000
  0
VERTEX
  8
LC_OH_2021_05_O7
  10
202089.999
  20
4494819.000
  0
VERTEX
  8
LC_OH_2021_05_O7
  10
202089.499
  20
4494822.500
  0
SEQEND
  8
LC_OH_2021_05_O7
  0
INSERT
  8
FeatureAttribs
  2
FEATURE
  41
1
  42
1
  43
1
  50
0
  10
214888.577
  20
4495949.751
 66
1
  0
ATTRIB
  8
FeatureAttribs
 70
0
  1
PNOA-H_AMS_1956-57_33k_ES_PAN_21mic_H50_0526_fot_65A-46678_W.tif
  2
NAME
  10
214888.577
  20
4495949.751
 40
34.92762
  0
SEQEND
  0
POLYLINE
  8
LC_OH_2021_05_O7
  70
1
  66
1
  0
VERTEX
  8
LC_OH_2021_05_O7
  10
216178.499
  20
4494014.500
  0
VERTEX
  8
LC_OH_2021_05_O7
  10
216172.499
  20
4493733.000
  0
VERTEX
  8
LC_OH_2021_05_O7
  10
216053.499
  20
4493678.000
  0
VERTEX
  8
LC_OH_2021_05_O7
  10
213486.499
  20
4493899.000
  0
VERTEX
  8
LC_OH_2021_05_O7
  10
213621.499
  20
4497913.500
  0
VERTEX
  8
LC_OH_2021_05_O7
  10
215755.499
  20
4498221.500
  0
VERTEX
  8
LC_OH_2021_05_O7
  10
215759.499
  20
4498221.000
  0
VERTEX
  8
LC_OH_2021_05_O7
  10
216265.499
  20
4497904.000
  0
VERTEX
  8
LC_OH_2021_05_O7
  10
216178.499
  20
4494021.500
  0
VERTEX
  8
LC_OH_2021_05_O7
  10
216178.499
  20
4494014.500
  0
SEQEND
  8
LC_OH_2021_05_O7
  0
INSERT
  8
FeatureAttribs
  2
FEATURE
  41
1
  42
1
  43
1
  50
0
  10
230011.363
  20
4495457.712
 66
1
  0
ATTRIB
  8
FeatureAttribs
 70
0
  1
PNOA-H_AMS_1956-57_33k_ES_PAN_21mic_H50_0527_fot_65A-46672_W.tif
  2
NAME
  10
230011.363
  20
4495457.712
 40
34.92762
  0
SEQEND
  0
POLYLINE
  8
LC_OH_2021_05_O7
  70
1
  66
1
  0
VERTEX
  8
LC_OH_2021_05_O7
  10
230227.726
  20
4497500.437
  0
VERTEX
  8
LC_OH_2021_05_O7
  10
230223.701
  20
4497389.366
  0
VERTEX
  8
LC_OH_2021_05_O7
  10
230139.917
  20
4495076.284
  0
VERTEX
  8
LC_OH_2021_05_O7
  10
230079.767
  20
4493414.986
  0
VERTEX
  8
LC_OH_2021_05_O7
  10
229945.500
  20
4493469.000
  0
VERTEX
  8
LC_OH_2021_05_O7
  10
229795.000
  20
4497264.500
  0
SEQEND
  8
LC_OH_2021_05_O7
  0
INSERT
  8
FeatureAttribs
  2
FEATURE
  41
1
  42
1
  43
1
  50
0
  10
229398.709
  20
4506666.667
 66
1
  0
ATTRIB
  8
FeatureAttribs
 70
0
  1
PNOA-H_AMS_1956-57_33k_ES_PAN_21mic_H50_0501_fot_62B-04164_W.tif
  2
NAME
  10
229398.709
  20
4506666.667
 40
34.92762
  0
SEQEND
  0
POLYLINE
  8
LC_OH_2021_05_O7
  70
1
  66
1
  0
VERTEX
  8
LC_OH_2021_05_O7
  10
230036.918
  20
4506660.832
  0
VERTEX
  8
LC_OH_2021_05_O7
  10
230032.000
  20
4506626.000
  0
VERTEX
  8
LC_OH_2021_05_O7
  10
228760.500
  20
4506634.000
  0
VERTEX
  8
LC_OH_2021_05_O7
  10
228763.903
  20
4506707.333
  0
SEQEND
  8
LC_OH_2021_05_O7
  0
INSERT
  8
FeatureAttribs
  2
FEATURE
  41
1
  42
1
  43
1
  50
0
  10
201995.624
  20
4492463.078
 66
1
  0
ATTRIB
  8
FeatureAttribs
 70
0
  1
PNOA-H_AMS_1956-57_33k_ES_PAN_21mic_H50_0525_fot_66A-18886_E.tif
  2
NAME
  10
201995.624
  20
4492463.078
 40
34.92762
  0
SEQEND
  0
POLYLINE
  8
LC_OH_2021_05_O7
  70
1
  66
1
  0
VERTEX
  8
LC_OH_2021_05_O7
  10
201860.643
  20
4494818.454
  0
VERTEX
  8
LC_OH_2021_05_O7
  10
202089.999
  20
4494819.500
  0
VERTEX
  8
LC_OH_2021_05_O7
  10
202317.999
  20
4494649.000
  0
VERTEX
  8
LC_OH_2021_05_O7
  10
202318.999
  20
4494648.000
  0
VERTEX
  8
LC_OH_2021_05_O7
  10
202318.999
  20
4494644.500
  0
VERTEX
  8
LC_OH_2021_05_O7
  10
201967.499
  20
4490130.500
  0
VERTEX
  8
LC_OH_2021_05_O7
  10
201672.250
  20
4490106.655
  0
VERTEX
  8
LC_OH_2021_05_O7
  10
201728.964
  20
4491525.638
  0
VERTEX
  8
LC_OH_2021_05_O7
  10
201821.456
  20
4493838.832
  0
SEQEND
  8
LC_OH_2021_05_O7
  0
INSERT
  8
FeatureAttribs
  2
FEATURE
  41
1
  42
1
  43
1
  50
0
  10
226964.796
  20
4490959.501
 66
1
  0
ATTRIB
  8
FeatureAttribs
 70
0
  1
PNOA-H_AMS_1956-57_33k_ES_PAN_21mic_H50_0526_fot_66A-18876_E.tif
  2
NAME
  10
226964.796
  20
4490959.501
 40
34.92762
  0
SEQEND
  0
POLYLINE
  8
LC_OH_2021_05_O7
  70
1
  66
1
  0
VERTEX
  8
LC_OH_2021_05_O7
  10
225835.000
  20
4493200.500
  0
VERTEX
  8
LC_OH_2021_05_O7
  10
227132.500
  20
4493520.000
  0
VERTEX
  8
LC_OH_2021_05_O7
  10
227134.500
  20
4493520.500
  0
VERTEX
  8
LC_OH_2021_05_O7
  10
228169.000
  20
4493196.500
  0
VERTEX
  8
LC_OH_2021_05_O7
  10
228039.500
  20
4488398.500
  0
VERTEX
  8
LC_OH_2021_05_O7
  10
225805.500
  20
4488490.500
  0
SEQEND
  8
LC_OH_2021_05_O7
  0
INSERT
  8
FeatureAttribs
  2
FEATURE
  41
1
  42
1
  43
1
  50
0
  10
224623.319
  20
4490969.250
 66
1
  0
ATTRIB
  8
FeatureAttribs
 70
0
  1
PNOA-H_AMS_1956-57_33k_ES_PAN_21mic_H50_0526_fot_66A-18877_E.tif
  2
NAME
  10
224623.319
  20
4490969.250
 40
34.92762
  0
SEQEND
  0
POLYLINE
  8
LC_OH_2021_05_O7
  70
1
  66
1
  0
VERTEX
  8
LC_OH_2021_05_O7
  10
224411.500
  20
4493541.500
  0
VERTEX
  8
LC_OH_2021_05_O7
  10
224413.000
  20
4493542.000
  0
VERTEX
  8
LC_OH_2021_05_O7
  10
225835.000
  20
4493200.500
  0
VERTEX
  8
LC_OH_2021_05_O7
  10
225805.500
  20
4488490.500
  0
VERTEX
  8
LC_OH_2021_05_O7
  10
225584.500
  20
4488396.500
  0
VERTEX
  8
LC_OH_2021_05_O7
  10
223494.500
  20
4488609.000
  0
VERTEX
  8
LC_OH_2021_05_O7
  10
223361.000
  20
4493182.500
  0
SEQEND
  8
LC_OH_2021_05_O7
  0
INSERT
  8
FeatureAttribs
  2
FEATURE
  41
1
  42
1
  43
1
  50
0
  10
229288.543
  20
4490904.500
 66
1
  0
ATTRIB
  8
FeatureAttribs
 70
0
  1
PNOA-H_AMS_1956-57_33k_ES_PAN_21mic_H50_0526_fot_66A-18875_E.tif
  2
NAME
  10
229288.543
  20
4490904.500
 40
34.92762
  0
SEQEND
  0
POLYLINE
  8
LC_OH_2021_05_O7
  70
1
  66
1
  0
VERTEX
  8
LC_OH_2021_05_O7
  10
229896.349
  20
4488346.305
  0
VERTEX
  8
LC_OH_2021_05_O7
  10
228109.500
  20
4488363.500
  0
VERTEX
  8
LC_OH_2021_05_O7
  10
228039.500
  20
4488398.500
  0
VERTEX
  8
LC_OH_2021_05_O7
  10
228169.000
  20
4493196.500
  0
VERTEX
  8
LC_OH_2021_05_O7
  10
228457.500
  20
4493241.000
  0
VERTEX
  8
LC_OH_2021_05_O7
  10
228461.000
  20
4493241.500
  0
VERTEX
  8
LC_OH_2021_05_O7
  10
229942.000
  20
4493469.000
  0
VERTEX
  8
LC_OH_2021_05_O7
  10
229947.000
  20
4493469.000
  0
VERTEX
  8
LC_OH_2021_05_O7
  10
230079.787
  20
4493415.514
  0
VERTEX
  8
LC_OH_2021_05_O7
  10
230056.169
  20
4492763.207
  0
VERTEX
  8
LC_OH_2021_05_O7
  10
229972.457
  20
4490450.137
  0
SEQEND
  8
LC_OH_2021_05_O7
  0
INSERT
  8
FeatureAttribs
  2
FEATURE
  41
1
  42
1
  43
1
  50
0
  10
219655.806
  20
4491023.250
 66
1
  0
ATTRIB
  8
FeatureAttribs
 70
0
  1
PNOA-H_AMS_1956-57_33k_ES_PAN_21mic_H50_0526_fot_66A-18879_E.tif
  2
NAME
  10
219655.806
  20
4491023.250
 40
34.92762
  0
SEQEND
  0
POLYLINE
  8
LC_OH_2021_05_O7
  70
1
  66
1
  0
VERTEX
  8
LC_OH_2021_05_O7
  10
220132.042
  20
4488496.490
  0
VERTEX
  8
LC_OH_2021_05_O7
  10
219953.149
  20
4488503.172
  0
VERTEX
  8
LC_OH_2021_05_O7
  10
218180.499
  20
4488940.000
  0
VERTEX
  8
LC_OH_2021_05_O7
  10
218615.999
  20
4493507.000
  0
VERTEX
  8
LC_OH_2021_05_O7
  10
218770.499
  20
4493571.500
  0
VERTEX
  8
LC_OH_2021_05_O7
  10
218775.499
  20
4493572.000
  0
VERTEX
  8
LC_OH_2021_05_O7
  10
221025.999
  20
4493292.500
  0
VERTEX
  8
LC_OH_2021_05_O7
  10
220886.999
  20
4489920.500
  0
VERTEX
  8
LC_OH_2021_05_O7
  10
220886.999
  20
4489918.500
  0
VERTEX
  8
LC_OH_2021_05_O7
  10
220839.499
  20
4488755.000
  0
VERTEX
  8
LC_OH_2021_05_O7
  10
220838.999
  20
4488745.500
  0
VERTEX
  8
LC_OH_2021_05_O7
  10
220835.999
  20
4488744.000
  0
SEQEND
  8
LC_OH_2021_05_O7
  0
INSERT
  8
FeatureAttribs
  2
FEATURE
  41
1
  42
1
  43
1
  50
0
  10
222177.769
  20
4490925.750
 66
1
  0
ATTRIB
  8
FeatureAttribs
 70
0
  1
PNOA-H_AMS_1956-57_33k_ES_PAN_21mic_H50_0526_fot_66A-18878_E.tif
  2
NAME
  10
222177.769
  20
4490925.750
 40
34.92762
  0
SEQEND
  0
POLYLINE
  8
LC_OH_2021_05_O7
  70
1
  66
1
  0
VERTEX
  8
LC_OH_2021_05_O7
  10
222961.392
  20
4488390.871
  0
VERTEX
  8
LC_OH_2021_05_O7
  10
222825.853
  20
4488395.869
  0
VERTEX
  8
LC_OH_2021_05_O7
  10
222654.640
  20
4488402.264
  0
VERTEX
  8
LC_OH_2021_05_O7
  10
220838.999
  20
4488745.500
  0
VERTEX
  8
LC_OH_2021_05_O7
  10
221025.999
  20
4493292.500
  0
VERTEX
  8
LC_OH_2021_05_O7
  10
221540.500
  20
4493492.500
  0
VERTEX
  8
LC_OH_2021_05_O7
  10
222317.000
  20
4493360.000
  0
VERTEX
  8
LC_OH_2021_05_O7
  10
222319.500
  20
4493360.000
  0
VERTEX
  8
LC_OH_2021_05_O7
  10
223361.000
  20
4493182.500
  0
VERTEX
  8
LC_OH_2021_05_O7
  10
223494.500
  20
4488609.000
  0
SEQEND
  8
LC_OH_2021_05_O7
  0
INSERT
  8
FeatureAttribs
  2
FEATURE
  41
1
  42
1
  43
1
  50
0
  10
211825.381
  20
4491678.749
 66
1
  0
ATTRIB
  8
FeatureAttribs
 70
0
  1
PNOA-H_AMS_1956-57_33k_ES_PAN_21mic_H50_0526_fot_66A-18882_E.tif
  2
NAME
  10
211825.381
  20
4491678.749
 40
34.92762
  0
SEQEND
  0
POLYLINE
  8
LC_OH_2021_05_O7
  70
1
  66
1
  0
VERTEX
  8
LC_OH_2021_05_O7
  10
210689.999
  20
4494127.000
  0
VERTEX
  8
LC_OH_2021_05_O7
  10
210690.999
  20
4494129.000
  0
VERTEX
  8
LC_OH_2021_05_O7
  10
210755.999
  20
4494161.000
  0
VERTEX
  8
LC_OH_2021_05_O7
  10
210756.999
  20
4494161.500
  0
VERTEX
  8
LC_OH_2021_05_O7
  10
213485.999
  20
4493899.000
  0
VERTEX
  8
LC_OH_2021_05_O7
  10
212821.999
  20
4489451.000
  0
VERTEX
  8
LC_OH_2021_05_O7
  10
211310.499
  20
4489196.000
  0
VERTEX
  8
LC_OH_2021_05_O7
  10
210332.499
  20
4489611.000
  0
SEQEND
  8
LC_OH_2021_05_O7
  0
INSERT
  8
FeatureAttribs
  2
FEATURE
  41
1
  42
1
  43
1
  50
0
  10
214460.093
  20
4491393.749
 66
1
  0
ATTRIB
  8
FeatureAttribs
 70
0
  1
PNOA-H_AMS_1956-57_33k_ES_PAN_21mic_H50_0526_fot_66A-18881_E.tif
  2
NAME
  10
214460.093
  20
4491393.749
 40
34.92762
  0
SEQEND
  0
POLYLINE
  8
LC_OH_2021_05_O7
  70
1
  66
1
  0
VERTEX
  8
LC_OH_2021_05_O7
  10
213485.999
  20
4493899.000
  0
VERTEX
  8
LC_OH_2021_05_O7
  10
214123.499
  20
4493844.000
  0
VERTEX
  8
LC_OH_2021_05_O7
  10
214127.499
  20
4493844.000
  0
VERTEX
  8
LC_OH_2021_05_O7
  10
216052.499
  20
4493678.000
  0
VERTEX
  8
LC_OH_2021_05_O7
  10
215571.499
  20
4489181.000
  0
VERTEX
  8
LC_OH_2021_05_O7
  10
215570.999
  20
4489180.000
  0
VERTEX
  8
LC_OH_2021_05_O7
  10
215564.499
  20
4489178.500
  0
VERTEX
  8
LC_OH_2021_05_O7
  10
214286.999
  20
4488888.500
  0
VERTEX
  8
LC_OH_2021_05_O7
  10
214280.999
  20
4488889.500
  0
VERTEX
  8
LC_OH_2021_05_O7
  10
212821.999
  20
4489451.000
  0
SEQEND
  8
LC_OH_2021_05_O7
  0
INSERT
  8
FeatureAttribs
  2
FEATURE
  41
1
  42
1
  43
1
  50
0
  10
203588.903
  20
4492222.749
 66
1
  0
ATTRIB
  8
FeatureAttribs
 70
0
  1
PNOA-H_AMS_1956-57_33k_ES_PAN_21mic_H50_0526_fot_66A-18885_E.tif
  2
NAME
  10
203588.903
  20
4492222.749
 40
34.92762
  0
SEQEND
  0
POLYLINE
  8
LC_OH_2021_05_O7
  70
1
  66
1
  0
VERTEX
  8
LC_OH_2021_05_O7
  10
205073.999
  20
4494583.000
  0
VERTEX
  8
LC_OH_2021_05_O7
  10
205221.499
  20
4494471.000
  0
VERTEX
  8
LC_OH_2021_05_O7
  10
204872.999
  20
4489971.500
  0
VERTEX
  8
LC_OH_2021_05_O7
  10
202661.999
  20
4489797.500
  0
VERTEX
  8
LC_OH_2021_05_O7
  10
201967.499
  20
4490130.000
  0
VERTEX
  8
LC_OH_2021_05_O7
  10
202318.999
  20
4494644.500
  0
VERTEX
  8
LC_OH_2021_05_O7
  10
202318.999
  20
4494648.000
  0
SEQEND
  8
LC_OH_2021_05_O7
  0
INSERT
  8
FeatureAttribs
  2
FEATURE
  41
1
  42
1
  43
1
  50
0
  10
217090.575
  20
4491190.750
 66
1
  0
ATTRIB
  8
FeatureAttribs
 70
0
  1
PNOA-H_AMS_1956-57_33k_ES_PAN_21mic_H50_0526_fot_66A-18880_E.tif
  2
NAME
  10
217090.575
  20
4491190.750
 40
34.92762
  0
SEQEND
  0
POLYLINE
  8
LC_OH_2021_05_O7
  70
1
  66
1
  0
VERTEX
  8
LC_OH_2021_05_O7
  10
216051.999
  20
4493677.500
  0
VERTEX
  8
LC_OH_2021_05_O7
  10
216170.999
  20
4493732.500
  0
VERTEX
  8
LC_OH_2021_05_O7
  10
216171.999
  20
4493733.000
  0
VERTEX
  8
LC_OH_2021_05_O7
  10
218615.999
  20
4493507.000
  0
VERTEX
  8
LC_OH_2021_05_O7
  10
218180.499
  20
4488940.000
  0
VERTEX
  8
LC_OH_2021_05_O7
  10
217208.499
  20
4488650.500
  0
VERTEX
  8
LC_OH_2021_05_O7
  10
217198.999
  20
4488648.500
  0
VERTEX
  8
LC_OH_2021_05_O7
  10
215570.999
  20
4489180.500
  0
SEQEND
  8
LC_OH_2021_05_O7
  0
INSERT
  8
FeatureAttribs
  2
FEATURE
  41
1
  42
1
  43
1
  50
0
  10
206447.364
  20
4492065.000
 66
1
  0
ATTRIB
  8
FeatureAttribs
 70
0
  1
PNOA-H_AMS_1956-57_33k_ES_PAN_21mic_H50_0526_fot_66A-18884_E.tif
  2
NAME
  10
206447.364
  20
4492065.000
 40
34.92762
  0
SEQEND
  0
POLYLINE
  8
LC_OH_2021_05_O7
  70
1
  66
1
  0
VERTEX
  8
LC_OH_2021_05_O7
  10
205221.499
  20
4494471.000
  0
VERTEX
  8
LC_OH_2021_05_O7
  10
207998.499
  20
4494360.000
  0
VERTEX
  8
LC_OH_2021_05_O7
  10
207721.999
  20
4489793.000
  0
VERTEX
  8
LC_OH_2021_05_O7
  10
205500.499
  20
4489659.000
  0
VERTEX
  8
LC_OH_2021_05_O7
  10
204872.999
  20
4489971.500
  0
VERTEX
  8
LC_OH_2021_05_O7
  10
205221.499
  20
4494470.000
  0
VERTEX
  8
LC_OH_2021_05_O7
  10
205221.499
  20
4494471.000
  0
SEQEND
  8
LC_OH_2021_05_O7
  0
INSERT
  8
FeatureAttribs
  2
FEATURE
  41
1
  42
1
  43
1
  50
0
  10
209182.208
  20
4491906.750
 66
1
  0
ATTRIB
  8
FeatureAttribs
 70
0
  1
PNOA-H_AMS_1956-57_33k_ES_PAN_21mic_H50_0526_fot_66A-18883_E.tif
  2
NAME
  10
209182.208
  20
4491906.750
 40
34.92762
  0
SEQEND
  0
POLYLINE
  8
LC_OH_2021_05_O7
  70
1
  66
1
  0
VERTEX
  8
LC_OH_2021_05_O7
  10
207998.499
  20
4494360.000
  0
VERTEX
  8
LC_OH_2021_05_O7
  10
208034.499
  20
4494380.000
  0
VERTEX
  8
LC_OH_2021_05_O7
  10
210027.499
  20
4494191.000
  0
VERTEX
  8
LC_OH_2021_05_O7
  10
210031.499
  20
4494191.000
  0
VERTEX
  8
LC_OH_2021_05_O7
  10
210690.499
  20
4494128.500
  0
VERTEX
  8
LC_OH_2021_05_O7
  10
210332.499
  20
4489611.000
  0
VERTEX
  8
LC_OH_2021_05_O7
  10
208466.499
  20
4489433.500
  0
VERTEX
  8
LC_OH_2021_05_O7
  10
208459.999
  20
4489433.500
  0
VERTEX
  8
LC_OH_2021_05_O7
  10
208450.499
  20
4489438.000
  0
VERTEX
  8
LC_OH_2021_05_O7
  10
207721.999
  20
4489793.000
  0
SEQEND
  8
LC_OH_2021_05_O7
  0
INSERT
  8
FeatureAttribs
  2
FEATURE
  41
1
  42
1
  43
1
  50
0
  10
202833.916
  20
4500506.000
 66
1
  0
ATTRIB
  8
FeatureAttribs
 70
0
  1
PNOA-H_AMS_1956-57_33k_ES_PAN_21mic_H50_0525_fot_64A-30197_W.tif
  2
NAME
  10
202833.916
  20
4500506.000
 40
34.92762
  0
SEQEND
  0
POLYLINE
  8
LC_OH_2021_05_O7
  70
1
  66
1
  0
VERTEX
  8
LC_OH_2021_05_O7
  10
202176.895
  20
4502718.976
  0
VERTEX
  8
LC_OH_2021_05_O7
  10
202242.499
  20
4502733.500
  0
VERTEX
  8
LC_OH_2021_05_O7
  10
202244.499
  20
4502734.000
  0
VERTEX
  8
LC_OH_2021_05_O7
  10
202248.999
  20
4502733.000
  0
VERTEX
  8
LC_OH_2021_05_O7
  10
203659.999
  20
4502146.000
  0
VERTEX
  8
LC_OH_2021_05_O7
  10
203577.999
  20
4498859.500
  0
VERTEX
  8
LC_OH_2021_05_O7
  10
202394.999
  20
4498278.000
  0
VERTEX
  8
LC_OH_2021_05_O7
  10
202387.499
  20
4498281.000
  0
VERTEX
  8
LC_OH_2021_05_O7
  10
202007.833
  20
4498497.036
  0
VERTEX
  8
LC_OH_2021_05_O7
  10
202099.171
  20
4500778.444
  0
SEQEND
  8
LC_OH_2021_05_O7
  0
INSERT
  8
FeatureAttribs
  2
FEATURE
  41
1
  42
1
  43
1
  50
0
  10
226371.810
  20
4499638.251
 66
1
  0
ATTRIB
  8
FeatureAttribs
 70
0
  1
PNOA-H_AMS_1956-57_33k_ES_PAN_21mic_H50_0526_fot_64A-30189_W.tif
  2
NAME
  10
226371.810
  20
4499638.251
 40
34.92762
  0
SEQEND
  0
POLYLINE
  8
LC_OH_2021_05_O7
  70
1
  66
1
  0
VERTEX
  8
LC_OH_2021_05_O7
  10
224967.500
  20
4501533.500
  0
VERTEX
  8
LC_OH_2021_05_O7
  10
225585.000
  20
4501845.500
  0
VERTEX
  8
LC_OH_2021_05_O7
  10
226411.500
  20
4501741.000
  0
VERTEX
  8
LC_OH_2021_05_O7
  10
226415.500
  20
4501740.500
  0
VERTEX
  8
LC_OH_2021_05_O7
  10
228012.500
  20
4501539.500
  0
VERTEX
  8
LC_OH_2021_05_O7
  10
227755.000
  20
4497775.500
  0
VERTEX
  8
LC_OH_2021_05_O7
  10
227154.000
  20
4497431.500
  0
VERTEX
  8
LC_OH_2021_05_O7
  10
227151.500
  20
4497431.000
  0
VERTEX
  8
LC_OH_2021_05_O7
  10
224757.500
  20
4497788.500
  0
SEQEND
  8
LC_OH_2021_05_O7
  0
INSERT
  8
FeatureAttribs
  2
FEATURE
  41
1
  42
1
  43
1
  50
0
  10
220283.150
  20
4499914.501
 66
1
  0
ATTRIB
  8
FeatureAttribs
 70
0
  1
PNOA-H_AMS_1956-57_33k_ES_PAN_21mic_H50_0526_fot_64A-30191_W.tif
  2
NAME
  10
220283.150
  20
4499914.501
 40
34.92762
  0
SEQEND
  0
POLYLINE
  8
LC_OH_2021_05_O7
  70
1
  66
1
  0
VERTEX
  8
LC_OH_2021_05_O7
  10
220271.499
  20
4501895.500
  0
VERTEX
  8
LC_OH_2021_05_O7
  10
221887.000
  20
4501532.500
  0
VERTEX
  8
LC_OH_2021_05_O7
  10
221686.500
  20
4497837.500
  0
VERTEX
  8
LC_OH_2021_05_O7
  10
219040.999
  20
4497809.500
  0
VERTEX
  8
LC_OH_2021_05_O7
  10
219019.999
  20
4497809.500
  0
VERTEX
  8
LC_OH_2021_05_O7
  10
218668.999
  20
4498058.500
  0
VERTEX
  8
LC_OH_2021_05_O7
  10
218856.999
  20
4501615.500
  0
VERTEX
  8
LC_OH_2021_05_O7
  10
219719.499
  20
4502019.500
  0
VERTEX
  8
LC_OH_2021_05_O7
  10
220269.999
  20
4501895.500
  0
VERTEX
  8
LC_OH_2021_05_O7
  10
220271.499
  20
4501895.500
  0
SEQEND
  8
LC_OH_2021_05_O7
  0
INSERT
  8
FeatureAttribs
  2
FEATURE
  41
1
  42
1
  43
1
  50
0
  10
208313.162
  20
4500262.750
 66
1
  0
ATTRIB
  8
FeatureAttribs
 70
0
  1
PNOA-H_AMS_1956-57_33k_ES_PAN_21mic_H50_0526_fot_64A-30195_W.tif
  2
NAME
  10
208313.162
  20
4500262.750
 40
34.92762
  0
SEQEND
  0
POLYLINE
  8
LC_OH_2021_05_O7
  70
1
  66
1
  0
VERTEX
  8
LC_OH_2021_05_O7
  10
208497.999
  20
4498110.500
  0
VERTEX
  8
LC_OH_2021_05_O7
  10
208244.999
  20
4498023.000
  0
VERTEX
  8
LC_OH_2021_05_O7
  10
206779.999
  20
4498686.500
  0
VERTEX
  8
LC_OH_2021_05_O7
  10
206796.499
  20
4502020.500
  0
VERTEX
  8
LC_OH_2021_05_O7
  10
208047.999
  20
4502502.500
  0
VERTEX
  8
LC_OH_2021_05_O7
  10
209886.499
  20
4501900.000
  0
VERTEX
  8
LC_OH_2021_05_O7
  10
209788.499
  20
4498555.500
  0
VERTEX
  8
LC_OH_2021_05_O7
  10
208499.499
  20
4498110.500
  0
VERTEX
  8
LC_OH_2021_05_O7
  10
208497.999
  20
4498110.500
  0
SEQEND
  8
LC_OH_2021_05_O7
  0
INSERT
  8
FeatureAttribs
  2
FEATURE
  41
1
  42
1
  43
1
  50
0
  10
211336.123
  20
4500169.749
 66
1
  0
ATTRIB
  8
FeatureAttribs
 70
0
  1
PNOA-H_AMS_1956-57_33k_ES_PAN_21mic_H50_0526_fot_64A-30194_W.tif
  2
NAME
  10
211336.123
  20
4500169.749
 40
34.92762
  0
SEQEND
  0
POLYLINE
  8
LC_OH_2021_05_O7
  70
1
  66
1
  0
VERTEX
  8
LC_OH_2021_05_O7
  10
210030.999
  20
4501959.500
  0
VERTEX
  8
LC_OH_2021_05_O7
  10
211046.999
  20
4502376.000
  0
VERTEX
  8
LC_OH_2021_05_O7
  10
211056.999
  20
4502379.000
  0
VERTEX
  8
LC_OH_2021_05_O7
  10
212862.499
  20
4501785.000
  0
VERTEX
  8
LC_OH_2021_05_O7
  10
212807.499
  20
4498354.000
  0
VERTEX
  8
LC_OH_2021_05_O7
  10
211065.499
  20
4497960.500
  0
VERTEX
  8
LC_OH_2021_05_O7
  10
209788.499
  20
4498555.500
  0
VERTEX
  8
LC_OH_2021_05_O7
  10
209885.999
  20
4501893.000
  0
VERTEX
  8
LC_OH_2021_05_O7
  10
209886.999
  20
4501900.500
  0
VERTEX
  8
LC_OH_2021_05_O7
  10
210029.999
  20
4501959.000
  0
VERTEX
  8
LC_OH_2021_05_O7
  10
210030.999
  20
4501959.500
  0
SEQEND
  8
LC_OH_2021_05_O7
  0
INSERT
  8
FeatureAttribs
  2
FEATURE
  41
1
  42
1
  43
1
  50
0
  10
214325.908
  20
4500088.001
 66
1
  0
ATTRIB
  8
FeatureAttribs
 70
0
  1
PNOA-H_AMS_1956-57_33k_ES_PAN_21mic_H50_0526_fot_64A-30193_W.tif
  2
NAME
  10
214325.908
  20
4500088.001
 40
34.92762
  0
SEQEND
  0
POLYLINE
  8
LC_OH_2021_05_O7
  70
1
  66
1
  0
VERTEX
  8
LC_OH_2021_05_O7
  10
214016.499
  20
4502262.500
  0
VERTEX
  8
LC_OH_2021_05_O7
  10
215866.999
  20
4501697.000
  0
VERTEX
  8
LC_OH_2021_05_O7
  10
215757.999
  20
4498221.500
  0
VERTEX
  8
LC_OH_2021_05_O7
  10
213621.499
  20
4497913.500
  0
VERTEX
  8
LC_OH_2021_05_O7
  10
212807.499
  20
4498354.000
  0
VERTEX
  8
LC_OH_2021_05_O7
  10
212862.499
  20
4501785.000
  0
VERTEX
  8
LC_OH_2021_05_O7
  10
214015.499
  20
4502262.000
  0
VERTEX
  8
LC_OH_2021_05_O7
  10
214016.499
  20
4502262.500
  0
SEQEND
  8
LC_OH_2021_05_O7
  0
INSERT
  8
FeatureAttribs
  2
FEATURE
  41
1
  42
1
  43
1
  50
0
  10
217293.569
  20
4500020.751
 66
1
  0
ATTRIB
  8
FeatureAttribs
 70
0
  1
PNOA-H_AMS_1956-57_33k_ES_PAN_21mic_H50_0526_fot_64A-30192_W.tif
  2
NAME
  10
217293.569
  20
4500020.751
 40
34.92762
  0
SEQEND
  0
POLYLINE
  8
LC_OH_2021_05_O7
  70
1
  66
1
  0
VERTEX
  8
LC_OH_2021_05_O7
  10
216174.499
  20
4501834.500
  0
VERTEX
  8
LC_OH_2021_05_O7
  10
216842.999
  20
4502133.000
  0
VERTEX
  8
LC_OH_2021_05_O7
  10
216854.499
  20
4502138.000
  0
VERTEX
  8
LC_OH_2021_05_O7
  10
216856.999
  20
4502138.000
  0
VERTEX
  8
LC_OH_2021_05_O7
  10
218856.999
  20
4501615.500
  0
VERTEX
  8
LC_OH_2021_05_O7
  10
218668.999
  20
4498058.500
  0
VERTEX
  8
LC_OH_2021_05_O7
  10
216265.499
  20
4497903.500
  0
VERTEX
  8
LC_OH_2021_05_O7
  10
215757.999
  20
4498221.500
  0
VERTEX
  8
LC_OH_2021_05_O7
  10
215866.999
  20
4501697.000
  0
VERTEX
  8
LC_OH_2021_05_O7
  10
216173.499
  20
4501834.000
  0
VERTEX
  8
LC_OH_2021_05_O7
  10
216174.499
  20
4501834.500
  0
SEQEND
  8
LC_OH_2021_05_O7
  0
INSERT
  8
FeatureAttribs
  2
FEATURE
  41
1
  42
1
  43
1
  50
0
  10
205201.716
  20
4500349.751
 66
1
  0
ATTRIB
  8
FeatureAttribs
 70
0
  1
PNOA-H_AMS_1956-57_33k_ES_PAN_21mic_H50_0526_fot_64A-30196_W.tif
  2
NAME
  10
205201.716
  20
4500349.751
 40
34.92762
  0
SEQEND
  0
POLYLINE
  8
LC_OH_2021_05_O7
  70
1
  66
1
  0
VERTEX
  8
LC_OH_2021_05_O7
  10
203886.499
  20
4502219.000
  0
VERTEX
  8
LC_OH_2021_05_O7
  10
205073.999
  20
4502602.500
  0
VERTEX
  8
LC_OH_2021_05_O7
  10
206796.499
  20
4502020.500
  0
VERTEX
  8
LC_OH_2021_05_O7
  10
206779.999
  20
4498686.500
  0
VERTEX
  8
LC_OH_2021_05_O7
  10
205283.499
  20
4498097.500
  0
VERTEX
  8
LC_OH_2021_05_O7
  10
205280.999
  20
4498097.000
  0
VERTEX
  8
LC_OH_2021_05_O7
  10
205272.999
  20
4498100.500
  0
VERTEX
  8
LC_OH_2021_05_O7
  10
203577.999
  20
4498859.500
  0
VERTEX
  8
LC_OH_2021_05_O7
  10
203659.999
  20
4502145.500
  0
VERTEX
  8
LC_OH_2021_05_O7
  10
203884.999
  20
4502218.500
  0
VERTEX
  8
LC_OH_2021_05_O7
  10
203886.499
  20
4502219.000
  0
SEQEND
  8
LC_OH_2021_05_O7
  0
INSERT
  8
FeatureAttribs
  2
FEATURE
  41
1
  42
1
  43
1
  50
0
  10
229397.761
  20
4499518.251
 66
1
  0
ATTRIB
  8
FeatureAttribs
 70
0
  1
PNOA-H_AMS_1956-57_33k_ES_PAN_21mic_H50_0526_fot_64A-30188_W.tif
  2
NAME
  10
229397.761
  20
4499518.251
 40
34.92762
  0
SEQEND
  0
POLYLINE
  8
LC_OH_2021_05_O7
  70
1
  66
1
  0
VERTEX
  8
LC_OH_2021_05_O7
  10
230375.035
  20
4501564.786
  0
VERTEX
  8
LC_OH_2021_05_O7
  10
230307.521
  20
4499702.454
  0
VERTEX
  8
LC_OH_2021_05_O7
  10
230227.707
  20
4497499.908
  0
VERTEX
  8
LC_OH_2021_05_O7
  10
229795.000
  20
4497264.000
  0
VERTEX
  8
LC_OH_2021_05_O7
  10
227755.000
  20
4497775.000
  0
VERTEX
  8
LC_OH_2021_05_O7
  10
228012.000
  20
4501538.000
  0
VERTEX
  8
LC_OH_2021_05_O7
  10
228012.500
  20
4501540.000
  0
VERTEX
  8
LC_OH_2021_05_O7
  10
228462.500
  20
4501770.500
  0
VERTEX
  8
LC_OH_2021_05_O7
  10
228463.000
  20
4501771.500
  0
VERTEX
  8
LC_OH_2021_05_O7
  10
228469.500
  20
4501772.500
  0
SEQEND
  8
LC_OH_2021_05_O7
  0
INSERT
  8
FeatureAttribs
  2
FEATURE
  41
1
  42
1
  43
1
  50
0
  10
223329.171
  20
4499757.501
 66
1
  0
ATTRIB
  8
FeatureAttribs
 70
0
  1
PNOA-H_AMS_1956-57_33k_ES_PAN_21mic_H50_0526_fot_64A-30190_W.tif
  2
NAME
  10
223329.171
  20
4499757.501
 40
34.92762
  0
SEQEND
  0
POLYLINE
  8
LC_OH_2021_05_O7
  70
1
  66
1
  0
VERTEX
  8
LC_OH_2021_05_O7
  10
222318.500
  20
4501760.500
  0
VERTEX
  8
LC_OH_2021_05_O7
  10
222660.500
  20
4501941.000
  0
VERTEX
  8
LC_OH_2021_05_O7
  10
222666.000
  20
4501943.000
  0
VERTEX
  8
LC_OH_2021_05_O7
  10
224967.500
  20
4501533.500
  0
VERTEX
  8
LC_OH_2021_05_O7
  10
224757.500
  20
4497788.500
  0
VERTEX
  8
LC_OH_2021_05_O7
  10
224416.000
  20
4497572.000
  0
VERTEX
  8
LC_OH_2021_05_O7
  10
221734.000
  20
4497798.500
  0
VERTEX
  8
LC_OH_2021_05_O7
  10
221686.500
  20
4497837.500
  0
VERTEX
  8
LC_OH_2021_05_O7
  10
221886.500
  20
4501531.500
  0
VERTEX
  8
LC_OH_2021_05_O7
  10
221889.500
  20
4501534.500
  0
VERTEX
  8
LC_OH_2021_05_O7
  10
222317.500
  20
4501760.000
  0
VERTEX
  8
LC_OH_2021_05_O7
  10
222318.500
  20
4501760.500
  0
SEQEND
  8
LC_OH_2021_05_O7
  0
INSERT
  8
FeatureAttribs
  2
FEATURE
  41
1
  42
1
  43
1
  50
0
  10
230295.347
  20
4506593.186
 66
1
  0
ATTRIB
  8
FeatureAttribs
 70
0
  1
PNOA-H_AMS_1956-57_33k_ES_PAN_21mic_H50_0503_fot_62C-05344_E.tif
  2
NAME
  10
230295.347
  20
4506593.186
 40
34.92762
  0
SEQEND
  0
POLYLINE
  8
LC_OH_2021_05_O7
  70
1
  66
1
  0
VERTEX
  8
LC_OH_2021_05_O7
  10
230554.977
  20
4506525.524
  0
VERTEX
  8
LC_OH_2021_05_O7
  10
230031.500
  20
4506625.500
  0
VERTEX
  8
LC_OH_2021_05_O7
  10
230036.500
  20
4506660.847
  0
VERTEX
  8
LC_OH_2021_05_O7
  10
230559.194
  20
4506641.754
  0
SEQEND
  8
LC_OH_2021_05_O7
  0
INSERT
  8
FeatureAttribs
  2
FEATURE
  41
1
  42
1
  43
1
  50
0
  10
202544.807
  20
4507456.552
 66
1
  0
ATTRIB
  8
FeatureAttribs
 70
0
  1
PNOA-H_AMS_1956-57_33k_ES_PAN_21mic_H50_0502_fot_62C-05334_E.tif
  2
NAME
  10
202544.807
  20
4507456.552
 40
34.92762
  0
SEQEND
  0
POLYLINE
  8
LC_OH_2021_05_O7
  70
1
  66
1
  0
VERTEX
  8
LC_OH_2021_05_O7
  10
202732.975
  20
4507703.925
  0
VERTEX
  8
LC_OH_2021_05_O7
  10
202731.999
  20
4507296.000
  0
VERTEX
  8
LC_OH_2021_05_O7
  10
202537.999
  20
4507195.000
  0
VERTEX
  8
LC_OH_2021_05_O7
  10
202356.639
  20
4507204.141
  0
VERTEX
  8
LC_OH_2021_05_O7
  10
202377.242
  20
4507718.104
  0
SEQEND
  8
LC_OH_2021_05_O7
  0
INSERT
  8
FeatureAttribs
  2
FEATURE
  41
1
  42
1
  43
1
  50
0
  10
227627.705
  20
4506631.807
 66
1
  0
ATTRIB
  8
FeatureAttribs
 70
0
  1
PNOA-H_AMS_1956-57_33k_ES_PAN_21mic_H50_0503_fot_62C-05343_E.tif
  2
NAME
  10
227627.705
  20
4506631.807
 40
34.92762
  0
SEQEND
  0
POLYLINE
  8
LC_OH_2021_05_O7
  70
1
  66
1
  0
VERTEX
  8
LC_OH_2021_05_O7
  10
228764.280
  20
4506707.319
  0
VERTEX
  8
LC_OH_2021_05_O7
  10
228761.000
  20
4506636.500
  0
VERTEX
  8
LC_OH_2021_05_O7
  10
228760.500
  20
4506634.000
  0
VERTEX
  8
LC_OH_2021_05_O7
  10
228758.500
  20
4506633.000
  0
VERTEX
  8
LC_OH_2021_05_O7
  10
228349.500
  20
4506473.000
  0
VERTEX
  8
LC_OH_2021_05_O7
  10
226491.130
  20
4506790.614
  0
VERTEX
  8
LC_OH_2021_05_O7
  10
227036.529
  20
4506770.432
  0
SEQEND
  8
LC_OH_2021_05_O7
  0
INSERT
  8
FeatureAttribs
  2
FEATURE
  41
1
  42
1
  43
1
  50
0
  10
210229.120
  20
4507144.359
 66
1
  0
ATTRIB
  8
FeatureAttribs
 70
0
  1
PNOA-H_AMS_1956-57_33k_ES_PAN_21mic_H50_0502_fot_62C-05337_E.tif
  2
NAME
  10
210229.120
  20
4507144.359
 40
34.92762
  0
SEQEND
  0
POLYLINE
  8
LC_OH_2021_05_O7
  70
1
  66
1
  0
VERTEX
  8
LC_OH_2021_05_O7
  10
211625.969
  20
4507353.245
  0
VERTEX
  8
LC_OH_2021_05_O7
  10
211619.499
  20
4506983.000
  0
VERTEX
  8
LC_OH_2021_05_O7
  10
211618.999
  20
4506962.000
  0
VERTEX
  8
LC_OH_2021_05_O7
  10
211301.999
  20
4506826.500
  0
VERTEX
  8
LC_OH_2021_05_O7
  10
208839.999
  20
4507089.500
  0
VERTEX
  8
LC_OH_2021_05_O7
  10
208832.271
  20
4507462.218
  0
VERTEX
  8
LC_OH_2021_05_O7
  10
209422.867
  20
4507438.959
  0
SEQEND
  8
LC_OH_2021_05_O7
  0
INSERT
  8
FeatureAttribs
  2
FEATURE
  41
1
  42
1
  43
1
  50
0
  10
207317.999
  20
4507227.886
 66
1
  0
ATTRIB
  8
FeatureAttribs
 70
0
  1
PNOA-H_AMS_1956-57_33k_ES_PAN_21mic_H50_0502_fot_62C-05336_E.tif
  2
NAME
  10
207317.999
  20
4507227.886
 40
34.92762
  0
SEQEND
  0
POLYLINE
  8
LC_OH_2021_05_O7
  70
1
  66
1
  0
VERTEX
  8
LC_OH_2021_05_O7
  10
208832.271
  20
4507462.218
  0
VERTEX
  8
LC_OH_2021_05_O7
  10
208839.999
  20
4507089.500
  0
VERTEX
  8
LC_OH_2021_05_O7
  10
208334.499
  20
4506874.000
  0
VERTEX
  8
LC_OH_2021_05_O7
  10
205795.999
  20
4507189.500
  0
VERTEX
  8
LC_OH_2021_05_O7
  10
205797.722
  20
4507581.772
  0
VERTEX
  8
LC_OH_2021_05_O7
  10
205900.067
  20
4507577.693
  0
SEQEND
  8
LC_OH_2021_05_O7
  0
INSERT
  8
FeatureAttribs
  2
FEATURE
  41
1
  42
1
  43
1
  50
0
  10
204264.860
  20
4507370.463
 66
1
  0
ATTRIB
  8
FeatureAttribs
 70
0
  1
PNOA-H_AMS_1956-57_33k_ES_PAN_21mic_H50_0502_fot_62C-05335_E.tif
  2
NAME
  10
204264.860
  20
4507370.463
 40
34.92762
  0
SEQEND
  0
POLYLINE
  8
LC_OH_2021_05_O7
  70
1
  66
1
  0
VERTEX
  8
LC_OH_2021_05_O7
  10
205797.722
  20
4507581.772
  0
VERTEX
  8
LC_OH_2021_05_O7
  10
205795.999
  20
4507189.500
  0
VERTEX
  8
LC_OH_2021_05_O7
  10
205463.499
  20
4507037.000
  0
VERTEX
  8
LC_OH_2021_05_O7
  10
202731.999
  20
4507296.000
  0
VERTEX
  8
LC_OH_2021_05_O7
  10
202732.975
  20
4507703.925
  0
SEQEND
  8
LC_OH_2021_05_O7
  0
INSERT
  8
FeatureAttribs
  2
FEATURE
  41
1
  42
1
  43
1
  50
0
  10
215925.146
  20
4506969.856
 66
1
  0
ATTRIB
  8
FeatureAttribs
 70
0
  1
PNOA-H_AMS_1956-57_33k_ES_PAN_21mic_H50_0503_fot_62C-05339_E.tif
  2
NAME
  10
215925.146
  20
4506969.856
 40
34.92762
  0
SEQEND
  0
POLYLINE
  8
LC_OH_2021_05_O7
  70
1
  66
1
  0
VERTEX
  8
LC_OH_2021_05_O7
  10
217340.293
  20
4507133.428
  0
VERTEX
  8
LC_OH_2021_05_O7
  10
217331.999
  20
4506826.500
  0
VERTEX
  8
LC_OH_2021_05_O7
  10
217331.499
  20
4506822.500
  0
VERTEX
  8
LC_OH_2021_05_O7
  10
217326.499
  20
4506820.000
  0
VERTEX
  8
LC_OH_2021_05_O7
  10
217026.499
  20
4506698.000
  0
VERTEX
  8
LC_OH_2021_05_O7
  10
214509.999
  20
4506891.500
  0
VERTEX
  8
LC_OH_2021_05_O7
  10
214509.999
  20
4506953.500
  0
VERTEX
  8
LC_OH_2021_05_O7
  10
214511.859
  20
4507241.711
  0
VERTEX
  8
LC_OH_2021_05_O7
  10
216468.400
  20
4507166.520
  0
SEQEND
  8
LC_OH_2021_05_O7
  0
INSERT
  8
FeatureAttribs
  2
FEATURE
  41
1
  42
1
  43
1
  50
0
  10
221817.611
  20
4506783.856
 66
1
  0
ATTRIB
  8
FeatureAttribs
 70
0
  1
PNOA-H_AMS_1956-57_33k_ES_PAN_21mic_H50_0503_fot_62C-05341_E.tif
  2
NAME
  10
221817.611
  20
4506783.856
 40
34.92762
  0
SEQEND
  0
POLYLINE
  8
LC_OH_2021_05_O7
  70
1
  66
1
  0
VERTEX
  8
LC_OH_2021_05_O7
  10
223296.223
  20
4506908.942
  0
VERTEX
  8
LC_OH_2021_05_O7
  10
223294.000
  20
4506838.000
  0
VERTEX
  8
LC_OH_2021_05_O7
  10
222562.500
  20
4506548.000
  0
VERTEX
  8
LC_OH_2021_05_O7
  10
220338.999
  20
4506836.000
  0
VERTEX
  8
LC_OH_2021_05_O7
  10
220340.733
  20
4507019.712
  0
SEQEND
  8
LC_OH_2021_05_O7
  0
INSERT
  8
FeatureAttribs
  2
FEATURE
  41
1
  42
1
  43
1
  50
0
  10
213065.614
  20
4507056.375
 66
1
  0
ATTRIB
  8
FeatureAttribs
 70
0
  1
PNOA-H_AMS_1956-57_33k_ES_PAN_21mic_H50_0502_fot_62C-05338_E.tif
  2
NAME
  10
213065.614
  20
4507056.375
 40
34.92762
  0
SEQEND
  0
POLYLINE
  8
LC_OH_2021_05_O7
  70
1
  66
1
  0
VERTEX
  8
LC_OH_2021_05_O7
  10
214512.229
  20
4507241.697
  0
VERTEX
  8
LC_OH_2021_05_O7
  10
214509.999
  20
4506891.500
  0
VERTEX
  8
LC_OH_2021_05_O7
  10
214197.499
  20
4506759.500
  0
VERTEX
  8
LC_OH_2021_05_O7
  10
211618.999
  20
4506962.000
  0
VERTEX
  8
LC_OH_2021_05_O7
  10
211625.847
  20
4507353.250
  0
VERTEX
  8
LC_OH_2021_05_O7
  10
212945.645
  20
4507301.902
  0
SEQEND
  8
LC_OH_2021_05_O7
  0
INSERT
  8
FeatureAttribs
  2
FEATURE
  41
1
  42
1
  43
1
  50
0
  10
218836.116
  20
4506866.221
 66
1
  0
ATTRIB
  8
FeatureAttribs
 70
0
  1
PNOA-H_AMS_1956-57_33k_ES_PAN_21mic_H50_0503_fot_62C-05340_E.tif
  2
NAME
  10
218836.116
  20
4506866.221
 40
34.92762
  0
SEQEND
  0
POLYLINE
  8
LC_OH_2021_05_O7
  70
1
  66
1
  0
VERTEX
  8
LC_OH_2021_05_O7
  10
220340.733
  20
4507019.712
  0
VERTEX
  8
LC_OH_2021_05_O7
  10
220338.999
  20
4506836.000
  0
VERTEX
  8
LC_OH_2021_05_O7
  10
219740.499
  20
4506599.000
  0
VERTEX
  8
LC_OH_2021_05_O7
  10
217331.499
  20
4506822.500
  0
VERTEX
  8
LC_OH_2021_05_O7
  10
217339.917
  20
4507133.442
  0
VERTEX
  8
LC_OH_2021_05_O7
  10
219991.132
  20
4507032.815
  0
SEQEND
  8
LC_OH_2021_05_O7
  0
INSERT
  8
FeatureAttribs
  2
FEATURE
  41
1
  42
1
  43
1
  50
0
  10
224718.538
  20
4506724.971
 66
1
  0
ATTRIB
  8
FeatureAttribs
 70
0
  1
PNOA-H_AMS_1956-57_33k_ES_PAN_21mic_H50_0503_fot_62C-05342_E.tif
  2
NAME
  10
224718.538
  20
4506724.971
 40
34.92762
  0
SEQEND
  0
POLYLINE
  8
LC_OH_2021_05_O7
  70
1
  66
1
  0
VERTEX
  8
LC_OH_2021_05_O7
  10
226143.076
  20
4506803.493
  0
VERTEX
  8
LC_OH_2021_05_O7
  10
225442.500
  20
4506541.000
  0
VERTEX
  8
LC_OH_2021_05_O7
  10
225438.500
  20
4506541.000
  0
VERTEX
  8
LC_OH_2021_05_O7
  10
223294.000
  20
4506838.000
  0
VERTEX
  8
LC_OH_2021_05_O7
  10
223296.224
  20
4506908.942
  0
VERTEX
  8
LC_OH_2021_05_O7
  10
223513.841
  20
4506900.786
  0
SEQEND
  8
LC_OH_2021_05_O7
  0
INSERT
  8
FeatureAttribs
  2
FEATURE
  41
1
  42
1
  43
1
  50
0
  10
202184.778
  20
4498093.950
 66
1
  0
ATTRIB
  8
FeatureAttribs
 70
0
  1
PNOA-H_AMS_1956-57_33k_ES_PAN_21mic_H50_0525_fot_000-44221_R.tif
  2
NAME
  10
202184.778
  20
4498093.950
 40
34.92762
  0
SEQEND
  0
POLYLINE
  8
LC_OH_2021_05_O7
  70
1
  66
1
  0
VERTEX
  8
LC_OH_2021_05_O7
  10
202007.847
  20
4498497.365
  0
VERTEX
  8
LC_OH_2021_05_O7
  10
202393.999
  20
4498278.000
  0
VERTEX
  8
LC_OH_2021_05_O7
  10
202254.999
  20
4497776.500
  0
VERTEX
  8
LC_OH_2021_05_O7
  10
201975.558
  20
4497690.536
  0
VERTEX
  8
LC_OH_2021_05_O7
  10
202006.560
  20
4498465.235
  0
SEQEND
  8
LC_OH_2021_05_O7
  0
ENDSEC
  0
EOF
