  0
SECTION
  2
HEADER
  9
$ACADVER
  1
AC1009
  9
$LUNITS
  70
2
  9
$LIMMIN
  10
173382.655
  20
4489212.449
  9
$LIMMAX
  10
202377.242
  20
4508901.769
  9
$EXTMIN
  10
173382.655
  20
4489212.449
  9
$EXTMAX
  10
202377.242
  20
4508901.769
  999
Created by Global Mapper
  999
Projection: UTM
  999
Datum: ETRS89
  999
Ground Units: meters
  999
ZONE: 30
  0
ENDSEC
  0
SECTION
  2
TABLES
  0
ENDSEC
  0
SECTION
  2
BLOCKS
  0
BLOCK
  8
FeatureAttribs
  70
0
  2
FEATURE
  3
FEATURE
  10
0.00000000
  20
0.00000000
  0
ATTDEF
  8
FeatureAttribs
  70
0
  1
 
  2
NAME
  3
NAME
  10
0.00000000
  20
0.00000000
  40
1.00000000
  0
ENDBLK
  0
ENDSEC
  0
SECTION
  2
ENTITIES
  0
INSERT
  8
FeatureAttribs
  2
FEATURE
  41
1
  42
1
  43
1
  50
0
  10
181405.481
  20
4490461.986
 66
1
  0
ATTRIB
  8
FeatureAttribs
 70
0
  1
PNOA-H_AMS_1956-57_33k_ES_PAN_21mic_H50_0550_fot_67A-44238_E.tif
  2
NAME
  10
181405.481
  20
4490461.986
 40
35.04790
  0
SEQEND
  0
POLYLINE
  8
LC_OH_2021_05_O7
  70
1
  66
1
  0
VERTEX
  8
LC_OH_2021_05_O7
  10
182721.953
  20
4489992.471
  0
VERTEX
  8
LC_OH_2021_05_O7
  10
180446.276
  20
4490089.341
  0
VERTEX
  8
LC_OH_2021_05_O7
  10
180039.964
  20
4490106.829
  0
VERTEX
  8
LC_OH_2021_05_O7
  10
180103.998
  20
4490711.000
  0
VERTEX
  8
LC_OH_2021_05_O7
  10
181351.498
  20
4490852.500
  0
VERTEX
  8
LC_OH_2021_05_O7
  10
181355.998
  20
4490853.000
  0
VERTEX
  8
LC_OH_2021_05_O7
  10
182050.498
  20
4490931.500
  0
VERTEX
  8
LC_OH_2021_05_O7
  10
182770.998
  20
4490610.000
  0
SEQEND
  8
LC_OH_2021_05_O7
  0
INSERT
  8
FeatureAttribs
  2
FEATURE
  41
1
  42
1
  43
1
  50
0
  10
189799.936
  20
4490159.960
 66
1
  0
ATTRIB
  8
FeatureAttribs
 70
0
  1
PNOA-H_AMS_1956-57_33k_ES_PAN_21mic_H50_0550_fot_67A-44241_E.tif
  2
NAME
  10
189799.936
  20
4490159.960
 40
35.04790
  0
SEQEND
  0
POLYLINE
  8
LC_OH_2021_05_O7
  70
1
  66
1
  0
VERTEX
  8
LC_OH_2021_05_O7
  10
191282.927
  20
4489633.421
  0
VERTEX
  8
LC_OH_2021_05_O7
  10
191041.508
  20
4489643.354
  0
VERTEX
  8
LC_OH_2021_05_O7
  10
188261.874
  20
4489759.039
  0
VERTEX
  8
LC_OH_2021_05_O7
  10
188281.499
  20
4490509.000
  0
VERTEX
  8
LC_OH_2021_05_O7
  10
189539.499
  20
4490610.000
  0
VERTEX
  8
LC_OH_2021_05_O7
  10
189545.499
  20
4490610.500
  0
VERTEX
  8
LC_OH_2021_05_O7
  10
190493.499
  20
4490686.500
  0
VERTEX
  8
LC_OH_2021_05_O7
  10
191337.999
  20
4490346.500
  0
SEQEND
  8
LC_OH_2021_05_O7
  0
INSERT
  8
FeatureAttribs
  2
FEATURE
  41
1
  42
1
  43
1
  50
0
  10
195445.048
  20
4489896.509
 66
1
  0
ATTRIB
  8
FeatureAttribs
 70
0
  1
PNOA-H_AMS_1956-57_33k_ES_PAN_21mic_H50_0550_fot_67A-44243_E.tif
  2
NAME
  10
195445.048
  20
4489896.509
 40
35.04790
  0
SEQEND
  0
POLYLINE
  8
LC_OH_2021_05_O7
  70
1
  66
1
  0
VERTEX
  8
LC_OH_2021_05_O7
  10
196811.335
  20
4489407.017
  0
VERTEX
  8
LC_OH_2021_05_O7
  10
194573.201
  20
4489498.043
  0
VERTEX
  8
LC_OH_2021_05_O7
  10
194078.761
  20
4489518.387
  0
VERTEX
  8
LC_OH_2021_05_O7
  10
194100.999
  20
4490197.500
  0
VERTEX
  8
LC_OH_2021_05_O7
  10
194101.499
  20
4490205.500
  0
VERTEX
  8
LC_OH_2021_05_O7
  10
194105.499
  20
4490206.000
  0
VERTEX
  8
LC_OH_2021_05_O7
  10
195685.999
  20
4490348.500
  0
VERTEX
  8
LC_OH_2021_05_O7
  10
195691.499
  20
4490349.000
  0
VERTEX
  8
LC_OH_2021_05_O7
  10
196104.499
  20
4490386.000
  0
VERTEX
  8
LC_OH_2021_05_O7
  10
196799.499
  20
4490097.000
  0
SEQEND
  8
LC_OH_2021_05_O7
  0
INSERT
  8
FeatureAttribs
  2
FEATURE
  41
1
  42
1
  43
1
  50
0
  10
184125.970
  20
4490316.921
 66
1
  0
ATTRIB
  8
FeatureAttribs
 70
0
  1
PNOA-H_AMS_1956-57_33k_ES_PAN_21mic_H50_0550_fot_67A-44239_E.tif
  2
NAME
  10
184125.970
  20
4490316.921
 40
35.04790
  0
SEQEND
  0
POLYLINE
  8
LC_OH_2021_05_O7
  70
1
  66
1
  0
VERTEX
  8
LC_OH_2021_05_O7
  10
185490.393
  20
4489875.343
  0
VERTEX
  8
LC_OH_2021_05_O7
  10
183978.046
  20
4489939.002
  0
VERTEX
  8
LC_OH_2021_05_O7
  10
182721.942
  20
4489992.471
  0
VERTEX
  8
LC_OH_2021_05_O7
  10
182770.998
  20
4490609.500
  0
VERTEX
  8
LC_OH_2021_05_O7
  10
183393.498
  20
4490652.000
  0
VERTEX
  8
LC_OH_2021_05_O7
  10
183400.998
  20
4490652.500
  0
VERTEX
  8
LC_OH_2021_05_O7
  10
184977.498
  20
4490758.500
  0
VERTEX
  8
LC_OH_2021_05_O7
  10
185529.998
  20
4490517.500
  0
SEQEND
  8
LC_OH_2021_05_O7
  0
INSERT
  8
FeatureAttribs
  2
FEATURE
  41
1
  42
1
  43
1
  50
0
  10
178740.437
  20
4490592.915
 66
1
  0
ATTRIB
  8
FeatureAttribs
 70
0
  1
PNOA-H_AMS_1956-57_33k_ES_PAN_21mic_H50_0550_fot_67A-44237_E.tif
  2
NAME
  10
178740.437
  20
4490592.915
 40
35.04790
  0
SEQEND
  0
POLYLINE
  8
LC_OH_2021_05_O7
  70
1
  66
1
  0
VERTEX
  8
LC_OH_2021_05_O7
  10
180039.964
  20
4490106.829
  0
VERTEX
  8
LC_OH_2021_05_O7
  10
177376.875
  20
4490221.454
  0
VERTEX
  8
LC_OH_2021_05_O7
  10
177439.498
  20
4490778.500
  0
VERTEX
  8
LC_OH_2021_05_O7
  10
179167.498
  20
4491079.000
  0
VERTEX
  8
LC_OH_2021_05_O7
  10
180103.998
  20
4490711.000
  0
SEQEND
  8
LC_OH_2021_05_O7
  0
INSERT
  8
FeatureAttribs
  2
FEATURE
  41
1
  42
1
  43
1
  50
0
  10
198241.834
  20
4489776.713
 66
1
  0
ATTRIB
  8
FeatureAttribs
 70
0
  1
PNOA-H_AMS_1956-57_33k_ES_PAN_21mic_H50_0550_fot_67A-44244_E.tif
  2
NAME
  10
198241.834
  20
4489776.713
 40
35.04790
  0
SEQEND
  0
POLYLINE
  8
LC_OH_2021_05_O7
  70
1
  66
1
  0
VERTEX
  8
LC_OH_2021_05_O7
  10
199684.170
  20
4489290.926
  0
VERTEX
  8
LC_OH_2021_05_O7
  10
198104.868
  20
4489354.409
  0
VERTEX
  8
LC_OH_2021_05_O7
  10
196811.335
  20
4489407.017
  0
VERTEX
  8
LC_OH_2021_05_O7
  10
196799.499
  20
4490097.000
  0
VERTEX
  8
LC_OH_2021_05_O7
  10
197731.499
  20
4490168.000
  0
VERTEX
  8
LC_OH_2021_05_O7
  10
197738.499
  20
4490168.500
  0
VERTEX
  8
LC_OH_2021_05_O7
  10
198980.999
  20
4490262.500
  0
VERTEX
  8
LC_OH_2021_05_O7
  10
199677.499
  20
4489946.000
  0
SEQEND
  8
LC_OH_2021_05_O7
  0
INSERT
  8
FeatureAttribs
  2
FEATURE
  41
1
  42
1
  43
1
  50
0
  10
200674.876
  20
4489659.591
 66
1
  0
ATTRIB
  8
FeatureAttribs
 70
0
  1
PNOA-H_AMS_1956-57_33k_ES_PAN_21mic_H50_0551_fot_67A-44245_E.tif
  2
NAME
  10
200674.876
  20
4489659.591
 40
35.04790
  0
SEQEND
  0
POLYLINE
  8
LC_OH_2021_05_O7
  70
1
  66
1
  0
VERTEX
  8
LC_OH_2021_05_O7
  10
201672.253
  20
4490106.733
  0
VERTEX
  8
LC_OH_2021_05_O7
  10
201636.510
  20
4489212.449
  0
VERTEX
  8
LC_OH_2021_05_O7
  10
199684.170
  20
4489290.926
  0
VERTEX
  8
LC_OH_2021_05_O7
  10
199677.499
  20
4489946.000
  0
SEQEND
  8
LC_OH_2021_05_O7
  0
INSERT
  8
FeatureAttribs
  2
FEATURE
  41
1
  42
1
  43
1
  50
0
  10
192692.051
  20
4490021.439
 66
1
  0
ATTRIB
  8
FeatureAttribs
 70
0
  1
PNOA-H_AMS_1956-57_33k_ES_PAN_21mic_H50_0550_fot_67A-44242_E.tif
  2
NAME
  10
192692.051
  20
4490021.439
 40
35.04790
  0
SEQEND
  0
POLYLINE
  8
LC_OH_2021_05_O7
  70
1
  66
1
  0
VERTEX
  8
LC_OH_2021_05_O7
  10
194078.960
  20
4489518.379
  0
VERTEX
  8
LC_OH_2021_05_O7
  10
191282.603
  20
4489633.434
  0
VERTEX
  8
LC_OH_2021_05_O7
  10
191337.499
  20
4490345.000
  0
VERTEX
  8
LC_OH_2021_05_O7
  10
191337.999
  20
4490346.500
  0
VERTEX
  8
LC_OH_2021_05_O7
  10
191350.999
  20
4490348.000
  0
VERTEX
  8
LC_OH_2021_05_O7
  10
193276.499
  20
4490524.500
  0
VERTEX
  8
LC_OH_2021_05_O7
  10
193281.499
  20
4490524.500
  0
VERTEX
  8
LC_OH_2021_05_O7
  10
193287.999
  20
4490522.000
  0
VERTEX
  8
LC_OH_2021_05_O7
  10
193646.499
  20
4490382.000
  0
VERTEX
  8
LC_OH_2021_05_O7
  10
193647.499
  20
4490382.000
  0
VERTEX
  8
LC_OH_2021_05_O7
  10
194101.499
  20
4490205.500
  0
SEQEND
  8
LC_OH_2021_05_O7
  0
INSERT
  8
FeatureAttribs
  2
FEATURE
  41
1
  42
1
  43
1
  50
0
  10
186885.946
  20
4490209.520
 66
1
  0
ATTRIB
  8
FeatureAttribs
 70
0
  1
PNOA-H_AMS_1956-57_33k_ES_PAN_21mic_H50_0550_fot_67A-44240_E.tif
  2
NAME
  10
186885.946
  20
4490209.520
 40
35.04790
  0
SEQEND
  0
POLYLINE
  8
LC_OH_2021_05_O7
  70
1
  66
1
  0
VERTEX
  8
LC_OH_2021_05_O7
  10
188261.872
  20
4489759.039
  0
VERTEX
  8
LC_OH_2021_05_O7
  10
187509.790
  20
4489790.340
  0
VERTEX
  8
LC_OH_2021_05_O7
  10
185490.393
  20
4489875.343
  0
VERTEX
  8
LC_OH_2021_05_O7
  10
185529.998
  20
4490517.500
  0
VERTEX
  8
LC_OH_2021_05_O7
  10
187498.999
  20
4490635.500
  0
VERTEX
  8
LC_OH_2021_05_O7
  10
187503.499
  20
4490635.500
  0
VERTEX
  8
LC_OH_2021_05_O7
  10
187911.999
  20
4490660.000
  0
VERTEX
  8
LC_OH_2021_05_O7
  10
188281.499
  20
4490509.000
  0
SEQEND
  8
LC_OH_2021_05_O7
  0
INSERT
  8
FeatureAttribs
  2
FEATURE
  41
1
  42
1
  43
1
  50
0
  10
176016.475
  20
4491020.226
 66
1
  0
ATTRIB
  8
FeatureAttribs
 70
0
  1
PNOA-H_AMS_1956-57_33k_ES_PAN_21mic_H50_0550_fot_67A-44236_E.tif
  2
NAME
  10
176016.475
  20
4491020.226
 40
35.04790
  0
SEQEND
  0
POLYLINE
  8
LC_OH_2021_05_O7
  70
1
  66
1
  0
VERTEX
  8
LC_OH_2021_05_O7
  10
177376.929
  20
4490221.451
  0
VERTEX
  8
LC_OH_2021_05_O7
  10
176914.479
  20
4490241.356
  0
VERTEX
  8
LC_OH_2021_05_O7
  10
174593.452
  20
4490342.358
  0
VERTEX
  8
LC_OH_2021_05_O7
  10
174666.498
  20
4491819.000
  0
VERTEX
  8
LC_OH_2021_05_O7
  10
175690.998
  20
4491434.500
  0
VERTEX
  8
LC_OH_2021_05_O7
  10
175692.998
  20
4491434.000
  0
VERTEX
  8
LC_OH_2021_05_O7
  10
175991.998
  20
4491322.000
  0
VERTEX
  8
LC_OH_2021_05_O7
  10
177439.498
  20
4490778.500
  0
SEQEND
  8
LC_OH_2021_05_O7
  0
INSERT
  8
FeatureAttribs
  2
FEATURE
  41
1
  42
1
  43
1
  50
0
  10
174024.577
  20
4491645.437
 66
1
  0
ATTRIB
  8
FeatureAttribs
 70
0
  1
PNOA-H_AMS_1956-57_33k_ES_PAN_21mic_H50_0550_fot_67A-44235_E.tif
  2
NAME
  10
174024.577
  20
4491645.437
 40
35.04790
  0
SEQEND
  0
POLYLINE
  8
LC_OH_2021_05_O7
  70
1
  66
1
  0
VERTEX
  8
LC_OH_2021_05_O7
  10
174593.450
  20
4490342.358
  0
VERTEX
  8
LC_OH_2021_05_O7
  10
173382.655
  20
4490395.048
  0
VERTEX
  8
LC_OH_2021_05_O7
  10
173483.893
  20
4492708.372
  0
VERTEX
  8
LC_OH_2021_05_O7
  10
173494.406
  20
4492948.516
  0
VERTEX
  8
LC_OH_2021_05_O7
  10
174666.498
  20
4491819.500
  0
SEQEND
  8
LC_OH_2021_05_O7
  0
INSERT
  8
FeatureAttribs
  2
FEATURE
  41
1
  42
1
  43
1
  50
0
  10
197640.543
  20
4496394.249
 66
1
  0
ATTRIB
  8
FeatureAttribs
 70
0
  1
PNOA-H_AMS_1956-57_33k_ES_PAN_21mic_H50_0525_fot_65A-46684_W.tif
  2
NAME
  10
197640.543
  20
4496394.249
 40
35.04790
  0
SEQEND
  0
POLYLINE
  8
LC_OH_2021_05_O7
  70
1
  66
1
  0
VERTEX
  8
LC_OH_2021_05_O7
  10
197742.499
  20
4497579.500
  0
VERTEX
  8
LC_OH_2021_05_O7
  10
198992.499
  20
4497778.000
  0
VERTEX
  8
LC_OH_2021_05_O7
  10
199187.999
  20
4496834.500
  0
VERTEX
  8
LC_OH_2021_05_O7
  10
199096.999
  20
4495094.500
  0
VERTEX
  8
LC_OH_2021_05_O7
  10
196524.499
  20
4495010.500
  0
VERTEX
  8
LC_OH_2021_05_O7
  10
196034.999
  20
4495378.500
  0
VERTEX
  8
LC_OH_2021_05_O7
  10
196190.999
  20
4497332.500
  0
VERTEX
  8
LC_OH_2021_05_O7
  10
197738.999
  20
4497579.000
  0
VERTEX
  8
LC_OH_2021_05_O7
  10
197742.499
  20
4497579.500
  0
SEQEND
  8
LC_OH_2021_05_O7
  0
INSERT
  8
FeatureAttribs
  2
FEATURE
  41
1
  42
1
  43
1
  50
0
  10
200665.767
  20
4496291.999
 66
1
  0
ATTRIB
  8
FeatureAttribs
 70
0
  1
PNOA-H_AMS_1956-57_33k_ES_PAN_21mic_H50_0525_fot_65A-46683_W.tif
  2
NAME
  10
200665.767
  20
4496291.999
 40
35.04790
  0
SEQEND
  0
POLYLINE
  8
LC_OH_2021_05_O7
  70
1
  66
1
  0
VERTEX
  8
LC_OH_2021_05_O7
  10
201975.574
  20
4497690.957
  0
VERTEX
  8
LC_OH_2021_05_O7
  10
201913.988
  20
4496152.031
  0
VERTEX
  8
LC_OH_2021_05_O7
  10
201860.641
  20
4494818.407
  0
VERTEX
  8
LC_OH_2021_05_O7
  10
199576.999
  20
4494807.500
  0
VERTEX
  8
LC_OH_2021_05_O7
  10
199481.999
  20
4494807.500
  0
VERTEX
  8
LC_OH_2021_05_O7
  10
199480.499
  20
4494808.500
  0
VERTEX
  8
LC_OH_2021_05_O7
  10
199096.999
  20
4495094.500
  0
VERTEX
  8
LC_OH_2021_05_O7
  10
199187.499
  20
4496828.000
  0
VERTEX
  8
LC_OH_2021_05_O7
  10
199188.499
  20
4496833.500
  0
SEQEND
  8
LC_OH_2021_05_O7
  0
INSERT
  8
FeatureAttribs
  2
FEATURE
  41
1
  42
1
  43
1
  50
0
  10
198024.626
  20
4504949.750
 66
1
  0
ATTRIB
  8
FeatureAttribs
 70
0
  1
PNOA-H_AMS_1956-57_33k_ES_PAN_21mic_H50_0525_fot_63A-40317_W.tif
  2
NAME
  10
198024.626
  20
4504949.750
 40
35.04790
  0
SEQEND
  0
POLYLINE
  8
LC_OH_2021_05_O7
  70
1
  66
1
  0
VERTEX
  8
LC_OH_2021_05_O7
  10
199515.499
  20
4507364.000
  0
VERTEX
  8
LC_OH_2021_05_O7
  10
199589.999
  20
4507364.000
  0
VERTEX
  8
LC_OH_2021_05_O7
  10
199620.999
  20
4507343.000
  0
VERTEX
  8
LC_OH_2021_05_O7
  10
199621.499
  20
4507337.500
  0
VERTEX
  8
LC_OH_2021_05_O7
  10
199367.999
  20
4502883.000
  0
VERTEX
  8
LC_OH_2021_05_O7
  10
197460.499
  20
4502535.500
  0
VERTEX
  8
LC_OH_2021_05_O7
  10
197457.499
  20
4502535.500
  0
VERTEX
  8
LC_OH_2021_05_O7
  10
196437.999
  20
4503036.000
  0
VERTEX
  8
LC_OH_2021_05_O7
  10
196721.499
  20
4507354.500
  0
VERTEX
  8
LC_OH_2021_05_O7
  10
199366.499
  20
4507363.500
  0
VERTEX
  8
LC_OH_2021_05_O7
  10
199515.499
  20
4507364.000
  0
SEQEND
  8
LC_OH_2021_05_O7
  0
INSERT
  8
FeatureAttribs
  2
FEATURE
  41
1
  42
1
  43
1
  50
0
  10
194631.756
  20
4496574.750
 66
1
  0
ATTRIB
  8
FeatureAttribs
 70
0
  1
PNOA-H_AMS_1956-57_33k_ES_PAN_21mic_H50_0525_fot_65A-46685_W.tif
  2
NAME
  10
194631.756
  20
4496574.750
 40
35.04790
  0
SEQEND
  0
POLYLINE
  8
LC_OH_2021_05_O7
  70
1
  66
1
  0
VERTEX
  8
LC_OH_2021_05_O7
  10
195695.499
  20
4497723.500
  0
VERTEX
  8
LC_OH_2021_05_O7
  10
196094.999
  20
4497691.500
  0
VERTEX
  8
LC_OH_2021_05_O7
  10
196190.999
  20
4497334.000
  0
VERTEX
  8
LC_OH_2021_05_O7
  10
196034.999
  20
4495378.500
  0
VERTEX
  8
LC_OH_2021_05_O7
  10
193565.999
  20
4495236.500
  0
VERTEX
  8
LC_OH_2021_05_O7
  10
193085.499
  20
4495570.000
  0
VERTEX
  8
LC_OH_2021_05_O7
  10
193180.499
  20
4497576.000
  0
VERTEX
  8
LC_OH_2021_05_O7
  10
193347.499
  20
4497912.500
  0
VERTEX
  8
LC_OH_2021_05_O7
  10
193350.999
  20
4497913.000
  0
VERTEX
  8
LC_OH_2021_05_O7
  10
195688.499
  20
4497724.000
  0
VERTEX
  8
LC_OH_2021_05_O7
  10
195695.499
  20
4497723.500
  0
SEQEND
  8
LC_OH_2021_05_O7
  0
INSERT
  8
FeatureAttribs
  2
FEATURE
  41
1
  42
1
  43
1
  50
0
  10
191628.686
  20
4496915.250
 66
1
  0
ATTRIB
  8
FeatureAttribs
 70
0
  1
PNOA-H_AMS_1956-57_33k_ES_PAN_21mic_H50_0525_fot_65A-46686_W.tif
  2
NAME
  10
191628.686
  20
4496915.250
 40
35.04790
  0
SEQEND
  0
POLYLINE
  8
LC_OH_2021_05_O7
  70
1
  66
1
  0
VERTEX
  8
LC_OH_2021_05_O7
  10
193108.999
  20
4496062.500
  0
VERTEX
  8
LC_OH_2021_05_O7
  10
193085.999
  20
4495571.000
  0
VERTEX
  8
LC_OH_2021_05_O7
  10
193083.999
  20
4495569.500
  0
VERTEX
  8
LC_OH_2021_05_O7
  10
190662.999
  20
4495361.000
  0
VERTEX
  8
LC_OH_2021_05_O7
  10
190064.499
  20
4495751.500
  0
VERTEX
  8
LC_OH_2021_05_O7
  10
190138.999
  20
4497741.500
  0
VERTEX
  8
LC_OH_2021_05_O7
  10
190495.499
  20
4498469.500
  0
VERTEX
  8
LC_OH_2021_05_O7
  10
193179.999
  20
4497576.000
  0
VERTEX
  8
LC_OH_2021_05_O7
  10
193179.999
  20
4497560.000
  0
VERTEX
  8
LC_OH_2021_05_O7
  10
193108.999
  20
4496068.000
  0
VERTEX
  8
LC_OH_2021_05_O7
  10
193108.999
  20
4496062.500
  0
SEQEND
  8
LC_OH_2021_05_O7
  0
INSERT
  8
FeatureAttribs
  2
FEATURE
  41
1
  42
1
  43
1
  50
0
  10
189310.846
  20
4505512.250
 66
1
  0
ATTRIB
  8
FeatureAttribs
 70
0
  1
PNOA-H_AMS_1956-57_33k_ES_PAN_21mic_H50_0525_fot_63A-40320_W.tif
  2
NAME
  10
189310.846
  20
4505512.250
 40
35.04790
  0
SEQEND
  0
POLYLINE
  8
LC_OH_2021_05_O7
  70
1
  66
1
  0
VERTEX
  8
LC_OH_2021_05_O7
  10
187972.999
  20
4507472.000
  0
VERTEX
  8
LC_OH_2021_05_O7
  10
190273.999
  20
4507784.000
  0
VERTEX
  8
LC_OH_2021_05_O7
  10
190277.999
  20
4507784.500
  0
VERTEX
  8
LC_OH_2021_05_O7
  10
190279.999
  20
4507784.500
  0
VERTEX
  8
LC_OH_2021_05_O7
  10
190289.999
  20
4507779.000
  0
VERTEX
  8
LC_OH_2021_05_O7
  10
190867.999
  20
4507446.000
  0
VERTEX
  8
LC_OH_2021_05_O7
  10
190667.499
  20
4503407.500
  0
VERTEX
  8
LC_OH_2021_05_O7
  10
187955.499
  20
4503240.000
  0
VERTEX
  8
LC_OH_2021_05_O7
  10
187717.499
  20
4503411.000
  0
SEQEND
  8
LC_OH_2021_05_O7
  0
INSERT
  8
FeatureAttribs
  2
FEATURE
  41
1
  42
1
  43
1
  50
0
  10
183452.806
  20
4505799.499
 66
1
  0
ATTRIB
  8
FeatureAttribs
 70
0
  1
PNOA-H_AMS_1956-57_33k_ES_PAN_21mic_H50_0525_fot_63A-40322_W.tif
  2
NAME
  10
183452.806
  20
4505799.499
 40
35.04790
  0
SEQEND
  0
POLYLINE
  8
LC_OH_2021_05_O7
  70
1
  66
1
  0
VERTEX
  8
LC_OH_2021_05_O7
  10
182174.998
  20
4507668.000
  0
VERTEX
  8
LC_OH_2021_05_O7
  10
184102.998
  20
4508127.000
  0
VERTEX
  8
LC_OH_2021_05_O7
  10
184105.498
  20
4508127.500
  0
VERTEX
  8
LC_OH_2021_05_O7
  10
184109.998
  20
4508126.500
  0
VERTEX
  8
LC_OH_2021_05_O7
  10
185126.498
  20
4507554.500
  0
VERTEX
  8
LC_OH_2021_05_O7
  10
184752.498
  20
4503515.000
  0
VERTEX
  8
LC_OH_2021_05_O7
  10
184749.998
  20
4503512.500
  0
VERTEX
  8
LC_OH_2021_05_O7
  10
184676.998
  20
4503471.500
  0
VERTEX
  8
LC_OH_2021_05_O7
  10
181696.498
  20
4503837.500
  0
SEQEND
  8
LC_OH_2021_05_O7
  0
INSERT
  8
FeatureAttribs
  2
FEATURE
  41
1
  42
1
  43
1
  50
0
  10
192219.748
  20
4505351.000
 66
1
  0
ATTRIB
  8
FeatureAttribs
 70
0
  1
PNOA-H_AMS_1956-57_33k_ES_PAN_21mic_H50_0525_fot_63A-40319_W.tif
  2
NAME
  10
192219.748
  20
4505351.000
 40
35.04790
  0
SEQEND
  0
POLYLINE
  8
LC_OH_2021_05_O7
  70
1
  66
1
  0
VERTEX
  8
LC_OH_2021_05_O7
  10
190867.999
  20
4507446.000
  0
VERTEX
  8
LC_OH_2021_05_O7
  10
191593.999
  20
4507522.000
  0
VERTEX
  8
LC_OH_2021_05_O7
  10
191598.999
  20
4507522.500
  0
VERTEX
  8
LC_OH_2021_05_O7
  10
193297.499
  20
4507699.500
  0
VERTEX
  8
LC_OH_2021_05_O7
  10
193793.499
  20
4507389.000
  0
VERTEX
  8
LC_OH_2021_05_O7
  10
193554.999
  20
4503269.000
  0
VERTEX
  8
LC_OH_2021_05_O7
  10
193554.499
  20
4503264.000
  0
VERTEX
  8
LC_OH_2021_05_O7
  10
193552.999
  20
4503263.500
  0
VERTEX
  8
LC_OH_2021_05_O7
  10
191328.999
  20
4503002.500
  0
VERTEX
  8
LC_OH_2021_05_O7
  10
191324.999
  20
4503002.500
  0
VERTEX
  8
LC_OH_2021_05_O7
  10
191318.999
  20
4503006.000
  0
VERTEX
  8
LC_OH_2021_05_O7
  10
190667.499
  20
4503407.500
  0
SEQEND
  8
LC_OH_2021_05_O7
  0
INSERT
  8
FeatureAttribs
  2
FEATURE
  41
1
  42
1
  43
1
  50
0
  10
195119.130
  20
4505134.000
 66
1
  0
ATTRIB
  8
FeatureAttribs
 70
0
  1
PNOA-H_AMS_1956-57_33k_ES_PAN_21mic_H50_0525_fot_63A-40318_W.tif
  2
NAME
  10
195119.130
  20
4505134.000
 40
35.04790
  0
SEQEND
  0
POLYLINE
  8
LC_OH_2021_05_O7
  70
1
  66
1
  0
VERTEX
  8
LC_OH_2021_05_O7
  10
193554.999
  20
4503278.000
  0
VERTEX
  8
LC_OH_2021_05_O7
  10
193646.999
  20
4504858.000
  0
VERTEX
  8
LC_OH_2021_05_O7
  10
193646.999
  20
4504866.500
  0
VERTEX
  8
LC_OH_2021_05_O7
  10
193793.499
  20
4507389.000
  0
VERTEX
  8
LC_OH_2021_05_O7
  10
196455.999
  20
4507524.500
  0
VERTEX
  8
LC_OH_2021_05_O7
  10
196721.499
  20
4507354.500
  0
VERTEX
  8
LC_OH_2021_05_O7
  10
196437.999
  20
4503036.000
  0
VERTEX
  8
LC_OH_2021_05_O7
  10
194491.999
  20
4502743.500
  0
VERTEX
  8
LC_OH_2021_05_O7
  10
193555.499
  20
4503263.000
  0
VERTEX
  8
LC_OH_2021_05_O7
  10
193554.499
  20
4503264.000
  0
SEQEND
  8
LC_OH_2021_05_O7
  0
INSERT
  8
FeatureAttribs
  2
FEATURE
  41
1
  42
1
  43
1
  50
0
  10
185725.644
  20
4496957.499
 66
1
  0
ATTRIB
  8
FeatureAttribs
 70
0
  1
PNOA-H_AMS_1956-57_33k_ES_PAN_21mic_H50_0525_fot_65A-46688_W.tif
  2
NAME
  10
185725.644
  20
4496957.499
 40
35.04790
  0
SEQEND
  0
POLYLINE
  8
LC_OH_2021_05_O7
  70
1
  66
1
  0
VERTEX
  8
LC_OH_2021_05_O7
  10
185455.498
  20
4498352.500
  0
VERTEX
  8
LC_OH_2021_05_O7
  10
187158.499
  20
4497963.000
  0
VERTEX
  8
LC_OH_2021_05_O7
  10
187126.499
  20
4495712.500
  0
VERTEX
  8
LC_OH_2021_05_O7
  10
185008.998
  20
4495360.000
  0
VERTEX
  8
LC_OH_2021_05_O7
  10
184293.498
  20
4495735.500
  0
VERTEX
  8
LC_OH_2021_05_O7
  10
184319.498
  20
4498077.000
  0
VERTEX
  8
LC_OH_2021_05_O7
  10
184571.498
  20
4498555.000
  0
VERTEX
  8
LC_OH_2021_05_O7
  10
185452.998
  20
4498353.000
  0
VERTEX
  8
LC_OH_2021_05_O7
  10
185455.498
  20
4498352.500
  0
SEQEND
  8
LC_OH_2021_05_O7
  0
INSERT
  8
FeatureAttribs
  2
FEATURE
  41
1
  42
1
  43
1
  50
0
  10
200931.808
  20
4504845.250
 66
1
  0
ATTRIB
  8
FeatureAttribs
 70
0
  1
PNOA-H_AMS_1956-57_33k_ES_PAN_21mic_H50_0525_fot_63A-40316_W.tif
  2
NAME
  10
200931.808
  20
4504845.250
 40
35.04790
  0
SEQEND
  0
POLYLINE
  8
LC_OH_2021_05_O7
  70
1
  66
1
  0
VERTEX
  8
LC_OH_2021_05_O7
  10
202356.638
  20
4507204.117
  0
VERTEX
  8
LC_OH_2021_05_O7
  10
202284.512
  20
4505404.879
  0
VERTEX
  8
LC_OH_2021_05_O7
  10
202191.822
  20
4503091.659
  0
VERTEX
  8
LC_OH_2021_05_O7
  10
202176.885
  20
4502718.714
  0
VERTEX
  8
LC_OH_2021_05_O7
  10
200502.999
  20
4502348.500
  0
VERTEX
  8
LC_OH_2021_05_O7
  10
199367.999
  20
4502883.000
  0
VERTEX
  8
LC_OH_2021_05_O7
  10
199621.499
  20
4507337.500
  0
VERTEX
  8
LC_OH_2021_05_O7
  10
199621.499
  20
4507342.000
  0
SEQEND
  8
LC_OH_2021_05_O7
  0
INSERT
  8
FeatureAttribs
  2
FEATURE
  41
1
  42
1
  43
1
  50
0
  10
188627.354
  20
4496978.998
 66
1
  0
ATTRIB
  8
FeatureAttribs
 70
0
  1
PNOA-H_AMS_1956-57_33k_ES_PAN_21mic_H50_0525_fot_65A-46687_W.tif
  2
NAME
  10
188627.354
  20
4496978.998
 40
35.04790
  0
SEQEND
  0
POLYLINE
  8
LC_OH_2021_05_O7
  70
1
  66
1
  0
VERTEX
  8
LC_OH_2021_05_O7
  10
187476.999
  20
4498558.500
  0
VERTEX
  8
LC_OH_2021_05_O7
  10
190138.999
  20
4497741.000
  0
VERTEX
  8
LC_OH_2021_05_O7
  10
190064.499
  20
4495752.000
  0
VERTEX
  8
LC_OH_2021_05_O7
  10
187714.999
  20
4495399.500
  0
VERTEX
  8
LC_OH_2021_05_O7
  10
187126.499
  20
4495712.500
  0
VERTEX
  8
LC_OH_2021_05_O7
  10
187157.999
  20
4497960.000
  0
VERTEX
  8
LC_OH_2021_05_O7
  10
187158.499
  20
4497964.000
  0
VERTEX
  8
LC_OH_2021_05_O7
  10
187476.999
  20
4498557.500
  0
VERTEX
  8
LC_OH_2021_05_O7
  10
187476.999
  20
4498558.500
  0
SEQEND
  8
LC_OH_2021_05_O7
  0
INSERT
  8
FeatureAttribs
  2
FEATURE
  41
1
  42
1
  43
1
  50
0
  10
186405.769
  20
4505670.250
 66
1
  0
ATTRIB
  8
FeatureAttribs
 70
0
  1
PNOA-H_AMS_1956-57_33k_ES_PAN_21mic_H50_0525_fot_63A-40321_W.tif
  2
NAME
  10
186405.769
  20
4505670.250
 40
35.04790
  0
SEQEND
  0
POLYLINE
  8
LC_OH_2021_05_O7
  70
1
  66
1
  0
VERTEX
  8
LC_OH_2021_05_O7
  10
185126.498
  20
4507554.000
  0
VERTEX
  8
LC_OH_2021_05_O7
  10
185450.998
  20
4507613.000
  0
VERTEX
  8
LC_OH_2021_05_O7
  10
185453.498
  20
4507613.500
  0
VERTEX
  8
LC_OH_2021_05_O7
  10
187202.999
  20
4507929.500
  0
VERTEX
  8
LC_OH_2021_05_O7
  10
187972.999
  20
4507472.000
  0
VERTEX
  8
LC_OH_2021_05_O7
  10
187717.499
  20
4503411.000
  0
VERTEX
  8
LC_OH_2021_05_O7
  10
184751.998
  20
4503514.000
  0
SEQEND
  8
LC_OH_2021_05_O7
  0
INSERT
  8
FeatureAttribs
  2
FEATURE
  41
1
  42
1
  43
1
  50
0
  10
182860.305
  20
4496964.250
 66
1
  0
ATTRIB
  8
FeatureAttribs
 70
0
  1
PNOA-H_AMS_1956-57_33k_ES_PAN_21mic_H50_0525_fot_65A-46689_W.tif
  2
NAME
  10
182860.305
  20
4496964.250
 40
35.04790
  0
SEQEND
  0
POLYLINE
  8
LC_OH_2021_05_O7
  70
1
  66
1
  0
VERTEX
  8
LC_OH_2021_05_O7
  10
183407.498
  20
4498229.000
  0
VERTEX
  8
LC_OH_2021_05_O7
  10
184319.498
  20
4498077.000
  0
VERTEX
  8
LC_OH_2021_05_O7
  10
184293.498
  20
4495735.500
  0
VERTEX
  8
LC_OH_2021_05_O7
  10
182070.498
  20
4495370.000
  0
VERTEX
  8
LC_OH_2021_05_O7
  10
181397.498
  20
4495756.000
  0
VERTEX
  8
LC_OH_2021_05_O7
  10
181434.498
  20
4498558.500
  0
VERTEX
  8
LC_OH_2021_05_O7
  10
183403.998
  20
4498229.500
  0
VERTEX
  8
LC_OH_2021_05_O7
  10
183407.498
  20
4498229.000
  0
SEQEND
  8
LC_OH_2021_05_O7
  0
INSERT
  8
FeatureAttribs
  2
FEATURE
  41
1
  42
1
  43
1
  50
0
  10
180513.652
  20
4506089.499
 66
1
  0
ATTRIB
  8
FeatureAttribs
 70
0
  1
PNOA-H_AMS_1956-57_33k_ES_PAN_21mic_H50_0525_fot_63A-40323_W.tif
  2
NAME
  10
180513.652
  20
4506089.499
 40
35.04790
  0
SEQEND
  0
POLYLINE
  8
LC_OH_2021_05_O7
  70
1
  66
1
  0
VERTEX
  8
LC_OH_2021_05_O7
  10
179202.998
  20
4507956.500
  0
VERTEX
  8
LC_OH_2021_05_O7
  10
181031.498
  20
4508404.000
  0
VERTEX
  8
LC_OH_2021_05_O7
  10
181033.998
  20
4508404.000
  0
VERTEX
  8
LC_OH_2021_05_O7
  10
181043.498
  20
4508398.000
  0
VERTEX
  8
LC_OH_2021_05_O7
  10
182174.998
  20
4507668.000
  0
VERTEX
  8
LC_OH_2021_05_O7
  10
181748.498
  20
4504256.500
  0
VERTEX
  8
LC_OH_2021_05_O7
  10
181748.498
  20
4504254.500
  0
VERTEX
  8
LC_OH_2021_05_O7
  10
181696.498
  20
4503837.500
  0
VERTEX
  8
LC_OH_2021_05_O7
  10
181572.998
  20
4503775.000
  0
VERTEX
  8
LC_OH_2021_05_O7
  10
178883.498
  20
4504066.500
  0
SEQEND
  8
LC_OH_2021_05_O7
  0
INSERT
  8
FeatureAttribs
  2
FEATURE
  41
1
  42
1
  43
1
  50
0
  10
179952.298
  20
4497502.249
 66
1
  0
ATTRIB
  8
FeatureAttribs
 70
0
  1
PNOA-H_AMS_1956-57_33k_ES_PAN_21mic_H50_0525_fot_65A-46690_W.tif
  2
NAME
  10
179952.298
  20
4497502.249
 40
35.04790
  0
SEQEND
  0
POLYLINE
  8
LC_OH_2021_05_O7
  70
1
  66
1
  0
VERTEX
  8
LC_OH_2021_05_O7
  10
178572.498
  20
4499553.000
  0
VERTEX
  8
LC_OH_2021_05_O7
  10
178572.998
  20
4499561.000
  0
VERTEX
  8
LC_OH_2021_05_O7
  10
178578.498
  20
4499561.500
  0
VERTEX
  8
LC_OH_2021_05_O7
  10
179263.998
  20
4499570.000
  0
VERTEX
  8
LC_OH_2021_05_O7
  10
179303.998
  20
4499570.500
  0
VERTEX
  8
LC_OH_2021_05_O7
  10
181012.498
  20
4499591.500
  0
VERTEX
  8
LC_OH_2021_05_O7
  10
181434.498
  20
4498559.500
  0
VERTEX
  8
LC_OH_2021_05_O7
  10
181397.498
  20
4495756.500
  0
VERTEX
  8
LC_OH_2021_05_O7
  10
179030.998
  20
4495413.000
  0
VERTEX
  8
LC_OH_2021_05_O7
  10
179018.998
  20
4495418.500
  0
VERTEX
  8
LC_OH_2021_05_O7
  10
178408.498
  20
4495750.500
  0
VERTEX
  8
LC_OH_2021_05_O7
  10
178572.498
  20
4499553.000
  0
SEQEND
  8
LC_OH_2021_05_O7
  0
INSERT
  8
FeatureAttribs
  2
FEATURE
  41
1
  42
1
  43
1
  50
0
  10
177040.171
  20
4497611.500
 66
1
  0
ATTRIB
  8
FeatureAttribs
 70
0
  1
PNOA-H_AMS_1956-57_33k_ES_PAN_21mic_H50_0525_fot_65A-46691_W.tif
  2
NAME
  10
177040.171
  20
4497611.500
 40
35.04790
  0
SEQEND
  0
POLYLINE
  8
LC_OH_2021_05_O7
  70
1
  66
1
  0
VERTEX
  8
LC_OH_2021_05_O7
  10
175624.998
  20
4499619.500
  0
VERTEX
  8
LC_OH_2021_05_O7
  10
178175.998
  20
4499860.000
  0
VERTEX
  8
LC_OH_2021_05_O7
  10
178181.498
  20
4499860.500
  0
VERTEX
  8
LC_OH_2021_05_O7
  10
178184.498
  20
4499860.500
  0
VERTEX
  8
LC_OH_2021_05_O7
  10
178187.998
  20
4499858.000
  0
VERTEX
  8
LC_OH_2021_05_O7
  10
178572.998
  20
4499561.500
  0
VERTEX
  8
LC_OH_2021_05_O7
  10
178408.498
  20
4495750.500
  0
VERTEX
  8
LC_OH_2021_05_O7
  10
175553.998
  20
4495362.500
  0
VERTEX
  8
LC_OH_2021_05_O7
  10
175624.998
  20
4499619.500
  0
SEQEND
  8
LC_OH_2021_05_O7
  0
INSERT
  8
FeatureAttribs
  2
FEATURE
  41
1
  42
1
  43
1
  50
0
  10
176476.295
  20
4506247.000
 66
1
  0
ATTRIB
  8
FeatureAttribs
 70
0
  1
PNOA-H_AMS_1956-57_33k_ES_PAN_21mic_H50_0525_fot_63A-40324_W.tif
  2
NAME
  10
176476.295
  20
4506247.000
 40
35.04790
  0
SEQEND
  0
POLYLINE
  8
LC_OH_2021_05_O7
  70
1
  66
1
  0
VERTEX
  8
LC_OH_2021_05_O7
  10
174125.918
  20
4507356.019
  0
VERTEX
  8
LC_OH_2021_05_O7
  10
178004.998
  20
4508621.500
  0
VERTEX
  8
LC_OH_2021_05_O7
  10
178006.498
  20
4508622.000
  0
VERTEX
  8
LC_OH_2021_05_O7
  10
178006.998
  20
4508604.000
  0
VERTEX
  8
LC_OH_2021_05_O7
  10
178007.998
  20
4508603.000
  0
VERTEX
  8
LC_OH_2021_05_O7
  10
179202.998
  20
4507956.500
  0
VERTEX
  8
LC_OH_2021_05_O7
  10
178883.498
  20
4504066.500
  0
VERTEX
  8
LC_OH_2021_05_O7
  10
178424.498
  20
4503872.000
  0
VERTEX
  8
LC_OH_2021_05_O7
  10
178417.498
  20
4503872.000
  0
VERTEX
  8
LC_OH_2021_05_O7
  10
176002.498
  20
4504394.500
  0
VERTEX
  8
LC_OH_2021_05_O7
  10
175707.998
  20
4504458.500
  0
VERTEX
  8
LC_OH_2021_05_O7
  10
174014.847
  20
4504824.776
  0
VERTEX
  8
LC_OH_2021_05_O7
  10
174092.226
  20
4506588.413
  0
SEQEND
  8
LC_OH_2021_05_O7
  0
INSERT
  8
FeatureAttribs
  2
FEATURE
  41
1
  42
1
  43
1
  50
0
  10
197771.675
  20
4492595.749
 66
1
  0
ATTRIB
  8
FeatureAttribs
 70
0
  1
PNOA-H_AMS_1956-57_33k_ES_PAN_21mic_H50_0525_fot_66A-18887_E.tif
  2
NAME
  10
197771.675
  20
4492595.749
 40
35.04790
  0
SEQEND
  0
POLYLINE
  8
LC_OH_2021_05_O7
  70
1
  66
1
  0
VERTEX
  8
LC_OH_2021_05_O7
  10
196524.499
  20
4495010.500
  0
VERTEX
  8
LC_OH_2021_05_O7
  10
199072.499
  20
4495094.000
  0
VERTEX
  8
LC_OH_2021_05_O7
  10
199087.999
  20
4495094.500
  0
VERTEX
  8
LC_OH_2021_05_O7
  10
199097.499
  20
4495094.500
  0
VERTEX
  8
LC_OH_2021_05_O7
  10
199098.999
  20
4495093.500
  0
VERTEX
  8
LC_OH_2021_05_O7
  10
199481.499
  20
4494808.500
  0
VERTEX
  8
LC_OH_2021_05_O7
  10
199482.499
  20
4494807.500
  0
VERTEX
  8
LC_OH_2021_05_O7
  10
199482.499
  20
4494804.000
  0
VERTEX
  8
LC_OH_2021_05_O7
  10
198980.499
  20
4490262.500
  0
VERTEX
  8
LC_OH_2021_05_O7
  10
196803.999
  20
4490097.000
  0
VERTEX
  8
LC_OH_2021_05_O7
  10
196798.999
  20
4490097.000
  0
VERTEX
  8
LC_OH_2021_05_O7
  10
196788.999
  20
4490101.000
  0
VERTEX
  8
LC_OH_2021_05_O7
  10
196103.999
  20
4490386.000
  0
SEQEND
  8
LC_OH_2021_05_O7
  0
INSERT
  8
FeatureAttribs
  2
FEATURE
  41
1
  42
1
  43
1
  50
0
  10
189195.999
  20
4493130.500
 66
1
  0
ATTRIB
  8
FeatureAttribs
 70
0
  1
PNOA-H_AMS_1956-57_33k_ES_PAN_21mic_H50_0525_fot_66A-18890_E.tif
  2
NAME
  10
189195.999
  20
4493130.500
 40
35.04790
  0
SEQEND
  0
POLYLINE
  8
LC_OH_2021_05_O7
  70
1
  66
1
  0
VERTEX
  8
LC_OH_2021_05_O7
  10
190060.499
  20
4495751.500
  0
VERTEX
  8
LC_OH_2021_05_O7
  10
190063.499
  20
4495752.000
  0
VERTEX
  8
LC_OH_2021_05_O7
  10
190663.499
  20
4495361.000
  0
VERTEX
  8
LC_OH_2021_05_O7
  10
190493.999
  20
4490700.000
  0
VERTEX
  8
LC_OH_2021_05_O7
  10
190493.499
  20
4490686.500
  0
VERTEX
  8
LC_OH_2021_05_O7
  10
190492.499
  20
4490686.000
  0
VERTEX
  8
LC_OH_2021_05_O7
  10
188286.999
  20
4490509.000
  0
VERTEX
  8
LC_OH_2021_05_O7
  10
188280.499
  20
4490509.000
  0
VERTEX
  8
LC_OH_2021_05_O7
  10
188267.999
  20
4490514.000
  0
VERTEX
  8
LC_OH_2021_05_O7
  10
187911.499
  20
4490660.000
  0
VERTEX
  8
LC_OH_2021_05_O7
  10
187715.999
  20
4495399.500
  0
SEQEND
  8
LC_OH_2021_05_O7
  0
INSERT
  8
FeatureAttribs
  2
FEATURE
  41
1
  42
1
  43
1
  50
0
  10
200678.790
  20
4492382.750
 66
1
  0
ATTRIB
  8
FeatureAttribs
 70
0
  1
PNOA-H_AMS_1956-57_33k_ES_PAN_21mic_H50_0525_fot_66A-18886_E.tif
  2
NAME
  10
200678.790
  20
4492382.750
 40
35.04790
  0
SEQEND
  0
POLYLINE
  8
LC_OH_2021_05_O7
  70
1
  66
1
  0
VERTEX
  8
LC_OH_2021_05_O7
  10
201860.643
  20
4494818.454
  0
VERTEX
  8
LC_OH_2021_05_O7
  10
201821.456
  20
4493838.832
  0
VERTEX
  8
LC_OH_2021_05_O7
  10
201728.964
  20
4491525.638
  0
VERTEX
  8
LC_OH_2021_05_O7
  10
201672.250
  20
4490106.655
  0
VERTEX
  8
LC_OH_2021_05_O7
  10
199682.999
  20
4489946.000
  0
VERTEX
  8
LC_OH_2021_05_O7
  10
199673.999
  20
4489947.000
  0
VERTEX
  8
LC_OH_2021_05_O7
  10
198980.499
  20
4490262.500
  0
VERTEX
  8
LC_OH_2021_05_O7
  10
199482.499
  20
4494807.500
  0
VERTEX
  8
LC_OH_2021_05_O7
  10
199682.999
  20
4494808.500
  0
VERTEX
  8
LC_OH_2021_05_O7
  10
199788.499
  20
4494809.000
  0
SEQEND
  8
LC_OH_2021_05_O7
  0
INSERT
  8
FeatureAttribs
  2
FEATURE
  41
1
  42
1
  43
1
  50
0
  10
183527.464
  20
4493172.499
 66
1
  0
ATTRIB
  8
FeatureAttribs
 70
0
  1
PNOA-H_AMS_1956-57_33k_ES_PAN_21mic_H50_0525_fot_66A-18892_E.tif
  2
NAME
  10
183527.464
  20
4493172.499
 40
35.04790
  0
SEQEND
  0
POLYLINE
  8
LC_OH_2021_05_O7
  70
1
  66
1
  0
VERTEX
  8
LC_OH_2021_05_O7
  10
182070.998
  20
4495370.000
  0
VERTEX
  8
LC_OH_2021_05_O7
  10
184288.998
  20
4495735.000
  0
VERTEX
  8
LC_OH_2021_05_O7
  10
184291.998
  20
4495735.500
  0
VERTEX
  8
LC_OH_2021_05_O7
  10
184293.998
  20
4495735.500
  0
VERTEX
  8
LC_OH_2021_05_O7
  10
184302.998
  20
4495731.000
  0
VERTEX
  8
LC_OH_2021_05_O7
  10
185009.998
  20
4495360.000
  0
VERTEX
  8
LC_OH_2021_05_O7
  10
184976.498
  20
4490758.500
  0
VERTEX
  8
LC_OH_2021_05_O7
  10
182770.998
  20
4490609.500
  0
VERTEX
  8
LC_OH_2021_05_O7
  10
182050.498
  20
4490931.000
  0
SEQEND
  8
LC_OH_2021_05_O7
  0
INSERT
  8
FeatureAttribs
  2
FEATURE
  41
1
  42
1
  43
1
  50
0
  10
194870.375
  20
4492792.000
 66
1
  0
ATTRIB
  8
FeatureAttribs
 70
0
  1
PNOA-H_AMS_1956-57_33k_ES_PAN_21mic_H50_0525_fot_66A-18888_E.tif
  2
NAME
  10
194870.375
  20
4492792.000
 40
35.04790
  0
SEQEND
  0
POLYLINE
  8
LC_OH_2021_05_O7
  70
1
  66
1
  0
VERTEX
  8
LC_OH_2021_05_O7
  10
193640.499
  20
4495241.000
  0
VERTEX
  8
LC_OH_2021_05_O7
  10
196035.499
  20
4495378.500
  0
VERTEX
  8
LC_OH_2021_05_O7
  10
196524.499
  20
4495011.000
  0
VERTEX
  8
LC_OH_2021_05_O7
  10
196103.999
  20
4490386.000
  0
VERTEX
  8
LC_OH_2021_05_O7
  10
194105.499
  20
4490205.500
  0
VERTEX
  8
LC_OH_2021_05_O7
  10
194098.999
  20
4490206.000
  0
VERTEX
  8
LC_OH_2021_05_O7
  10
193280.499
  20
4490524.500
  0
VERTEX
  8
LC_OH_2021_05_O7
  10
193565.999
  20
4495232.500
  0
VERTEX
  8
LC_OH_2021_05_O7
  10
193566.499
  20
4495236.500
  0
VERTEX
  8
LC_OH_2021_05_O7
  10
193631.999
  20
4495240.500
  0
VERTEX
  8
LC_OH_2021_05_O7
  10
193640.499
  20
4495241.000
  0
SEQEND
  8
LC_OH_2021_05_O7
  0
INSERT
  8
FeatureAttribs
  2
FEATURE
  41
1
  42
1
  43
1
  50
0
  10
192002.184
  20
4492958.499
 66
1
  0
ATTRIB
  8
FeatureAttribs
 70
0
  1
PNOA-H_AMS_1956-57_33k_ES_PAN_21mic_H50_0525_fot_66A-18889_E.tif
  2
NAME
  10
192002.184
  20
4492958.499
 40
35.04790
  0
SEQEND
  0
POLYLINE
  8
LC_OH_2021_05_O7
  70
1
  66
1
  0
VERTEX
  8
LC_OH_2021_05_O7
  10
193083.999
  20
4495570.000
  0
VERTEX
  8
LC_OH_2021_05_O7
  10
193088.999
  20
4495568.000
  0
VERTEX
  8
LC_OH_2021_05_O7
  10
193566.499
  20
4495236.500
  0
VERTEX
  8
LC_OH_2021_05_O7
  10
193280.499
  20
4490524.500
  0
VERTEX
  8
LC_OH_2021_05_O7
  10
191345.999
  20
4490347.000
  0
VERTEX
  8
LC_OH_2021_05_O7
  10
191335.999
  20
4490347.000
  0
VERTEX
  8
LC_OH_2021_05_O7
  10
190493.499
  20
4490686.000
  0
VERTEX
  8
LC_OH_2021_05_O7
  10
190663.499
  20
4495361.000
  0
VERTEX
  8
LC_OH_2021_05_O7
  10
193078.499
  20
4495569.500
  0
VERTEX
  8
LC_OH_2021_05_O7
  10
193083.999
  20
4495570.000
  0
SEQEND
  8
LC_OH_2021_05_O7
  0
INSERT
  8
FeatureAttribs
  2
FEATURE
  41
1
  42
1
  43
1
  50
0
  10
186401.830
  20
4493115.000
 66
1
  0
ATTRIB
  8
FeatureAttribs
 70
0
  1
PNOA-H_AMS_1956-57_33k_ES_PAN_21mic_H50_0525_fot_66A-18891_E.tif
  2
NAME
  10
186401.830
  20
4493115.000
 40
35.04790
  0
SEQEND
  0
POLYLINE
  8
LC_OH_2021_05_O7
  70
1
  66
1
  0
VERTEX
  8
LC_OH_2021_05_O7
  10
185009.498
  20
4495357.000
  0
VERTEX
  8
LC_OH_2021_05_O7
  10
185009.998
  20
4495360.000
  0
VERTEX
  8
LC_OH_2021_05_O7
  10
185011.498
  20
4495360.500
  0
VERTEX
  8
LC_OH_2021_05_O7
  10
185449.498
  20
4495433.500
  0
VERTEX
  8
LC_OH_2021_05_O7
  10
185452.498
  20
4495434.000
  0
VERTEX
  8
LC_OH_2021_05_O7
  10
187127.499
  20
4495712.500
  0
VERTEX
  8
LC_OH_2021_05_O7
  10
187715.999
  20
4495399.500
  0
VERTEX
  8
LC_OH_2021_05_O7
  10
187911.499
  20
4490660.000
  0
VERTEX
  8
LC_OH_2021_05_O7
  10
185529.498
  20
4490517.500
  0
VERTEX
  8
LC_OH_2021_05_O7
  10
184976.498
  20
4490758.500
  0
SEQEND
  8
LC_OH_2021_05_O7
  0
INSERT
  8
FeatureAttribs
  2
FEATURE
  41
1
  42
1
  43
1
  50
0
  10
180579.777
  20
4493233.749
 66
1
  0
ATTRIB
  8
FeatureAttribs
 70
0
  1
PNOA-H_AMS_1956-57_33k_ES_PAN_21mic_H50_0525_fot_66A-18893_E.tif
  2
NAME
  10
180579.777
  20
4493233.749
 40
35.04790
  0
SEQEND
  0
POLYLINE
  8
LC_OH_2021_05_O7
  70
1
  66
1
  0
VERTEX
  8
LC_OH_2021_05_O7
  10
179306.998
  20
4495453.500
  0
VERTEX
  8
LC_OH_2021_05_O7
  10
179310.498
  20
4495454.000
  0
VERTEX
  8
LC_OH_2021_05_O7
  10
181397.498
  20
4495756.500
  0
VERTEX
  8
LC_OH_2021_05_O7
  10
182070.998
  20
4495370.000
  0
VERTEX
  8
LC_OH_2021_05_O7
  10
182050.998
  20
4491027.500
  0
VERTEX
  8
LC_OH_2021_05_O7
  10
182050.498
  20
4490931.500
  0
VERTEX
  8
LC_OH_2021_05_O7
  10
182048.498
  20
4490931.000
  0
VERTEX
  8
LC_OH_2021_05_O7
  10
180103.498
  20
4490711.000
  0
VERTEX
  8
LC_OH_2021_05_O7
  10
179166.498
  20
4491079.000
  0
VERTEX
  8
LC_OH_2021_05_O7
  10
179029.498
  20
4495413.000
  0
VERTEX
  8
LC_OH_2021_05_O7
  10
179306.998
  20
4495453.500
  0
SEQEND
  8
LC_OH_2021_05_O7
  0
INSERT
  8
FeatureAttribs
  2
FEATURE
  41
1
  42
1
  43
1
  50
0
  10
202020.297
  20
4500506.000
 66
1
  0
ATTRIB
  8
FeatureAttribs
 70
0
  1
PNOA-H_AMS_1956-57_33k_ES_PAN_21mic_H50_0525_fot_64A-30197_W.tif
  2
NAME
  10
202020.297
  20
4500506.000
 40
35.04790
  0
SEQEND
  0
POLYLINE
  8
LC_OH_2021_05_O7
  70
1
  66
1
  0
VERTEX
  8
LC_OH_2021_05_O7
  10
202007.833
  20
4498497.036
  0
VERTEX
  8
LC_OH_2021_05_O7
  10
200373.499
  20
4499427.000
  0
VERTEX
  8
LC_OH_2021_05_O7
  10
200503.499
  20
4502348.500
  0
VERTEX
  8
LC_OH_2021_05_O7
  10
202176.895
  20
4502718.976
  0
VERTEX
  8
LC_OH_2021_05_O7
  10
202099.171
  20
4500778.444
  0
SEQEND
  8
LC_OH_2021_05_O7
  0
INSERT
  8
FeatureAttribs
  2
FEATURE
  41
1
  42
1
  43
1
  50
0
  10
183046.884
  20
4501936.250
 66
1
  0
ATTRIB
  8
FeatureAttribs
 70
0
  1
PNOA-H_AMS_1956-57_33k_ES_PAN_21mic_H50_0525_fot_64A-30203_W.tif
  2
NAME
  10
183046.884
  20
4501936.250
 40
35.04790
  0
SEQEND
  0
POLYLINE
  8
LC_OH_2021_05_O7
  70
1
  66
1
  0
VERTEX
  8
LC_OH_2021_05_O7
  10
183329.998
  20
4500158.500
  0
VERTEX
  8
LC_OH_2021_05_O7
  10
181359.498
  20
4500035.000
  0
VERTEX
  8
LC_OH_2021_05_O7
  10
181571.998
  20
4503775.000
  0
VERTEX
  8
LC_OH_2021_05_O7
  10
181695.498
  20
4503837.500
  0
VERTEX
  8
LC_OH_2021_05_O7
  10
184676.998
  20
4503471.500
  0
VERTEX
  8
LC_OH_2021_05_O7
  10
184569.998
  20
4500235.500
  0
VERTEX
  8
LC_OH_2021_05_O7
  10
183337.998
  20
4500158.500
  0
VERTEX
  8
LC_OH_2021_05_O7
  10
183329.998
  20
4500158.500
  0
SEQEND
  8
LC_OH_2021_05_O7
  0
INSERT
  8
FeatureAttribs
  2
FEATURE
  41
1
  42
1
  43
1
  50
0
  10
189563.649
  20
4501506.751
 66
1
  0
ATTRIB
  8
FeatureAttribs
 70
0
  1
PNOA-H_AMS_1956-57_33k_ES_PAN_21mic_H50_0525_fot_64A-30201_W.tif
  2
NAME
  10
189563.649
  20
4501506.751
 40
35.04790
  0
SEQEND
  0
POLYLINE
  8
LC_OH_2021_05_O7
  70
1
  66
1
  0
VERTEX
  8
LC_OH_2021_05_O7
  10
190659.499
  20
4503407.500
  0
VERTEX
  8
LC_OH_2021_05_O7
  10
190667.999
  20
4503407.500
  0
VERTEX
  8
LC_OH_2021_05_O7
  10
190673.999
  20
4503404.000
  0
VERTEX
  8
LC_OH_2021_05_O7
  10
191323.499
  20
4503004.000
  0
VERTEX
  8
LC_OH_2021_05_O7
  10
191325.499
  20
4503002.500
  0
VERTEX
  8
LC_OH_2021_05_O7
  10
191325.499
  20
4502999.000
  0
VERTEX
  8
LC_OH_2021_05_O7
  10
191096.999
  20
4500119.500
  0
VERTEX
  8
LC_OH_2021_05_O7
  10
190564.499
  20
4499606.000
  0
VERTEX
  8
LC_OH_2021_05_O7
  10
187896.499
  20
4500332.500
  0
VERTEX
  8
LC_OH_2021_05_O7
  10
187954.999
  20
4503228.500
  0
VERTEX
  8
LC_OH_2021_05_O7
  10
187955.499
  20
4503240.000
  0
VERTEX
  8
LC_OH_2021_05_O7
  10
187957.999
  20
4503240.500
  0
VERTEX
  8
LC_OH_2021_05_O7
  10
190651.499
  20
4503407.000
  0
VERTEX
  8
LC_OH_2021_05_O7
  10
190659.499
  20
4503407.500
  0
SEQEND
  8
LC_OH_2021_05_O7
  0
INSERT
  8
FeatureAttribs
  2
FEATURE
  41
1
  42
1
  43
1
  50
0
  10
195843.811
  20
4501016.500
 66
1
  0
ATTRIB
  8
FeatureAttribs
 70
0
  1
PNOA-H_AMS_1956-57_33k_ES_PAN_21mic_H50_0525_fot_64A-30199_W.tif
  2
NAME
  10
195843.811
  20
4501016.500
 40
35.04790
  0
SEQEND
  0
POLYLINE
  8
LC_OH_2021_05_O7
  70
1
  66
1
  0
VERTEX
  8
LC_OH_2021_05_O7
  10
196436.499
  20
4503036.000
  0
VERTEX
  8
LC_OH_2021_05_O7
  10
196443.999
  20
4503033.500
  0
VERTEX
  8
LC_OH_2021_05_O7
  10
197458.499
  20
4502535.500
  0
VERTEX
  8
LC_OH_2021_05_O7
  10
197302.999
  20
4499741.000
  0
VERTEX
  8
LC_OH_2021_05_O7
  10
197301.999
  20
4499738.500
  0
VERTEX
  8
LC_OH_2021_05_O7
  10
197295.499
  20
4499734.000
  0
VERTEX
  8
LC_OH_2021_05_O7
  10
196210.999
  20
4498997.000
  0
VERTEX
  8
LC_OH_2021_05_O7
  10
196204.999
  20
4498999.000
  0
VERTEX
  8
LC_OH_2021_05_O7
  10
194212.999
  20
4499959.000
  0
VERTEX
  8
LC_OH_2021_05_O7
  10
194204.999
  20
4499963.000
  0
VERTEX
  8
LC_OH_2021_05_O7
  10
194204.999
  20
4499967.000
  0
VERTEX
  8
LC_OH_2021_05_O7
  10
194492.499
  20
4502743.500
  0
VERTEX
  8
LC_OH_2021_05_O7
  10
196433.499
  20
4503035.500
  0
VERTEX
  8
LC_OH_2021_05_O7
  10
196436.499
  20
4503036.000
  0
SEQEND
  8
LC_OH_2021_05_O7
  0
INSERT
  8
FeatureAttribs
  2
FEATURE
  41
1
  42
1
  43
1
  50
0
  10
186271.900
  20
4501727.499
 66
1
  0
ATTRIB
  8
FeatureAttribs
 70
0
  1
PNOA-H_AMS_1956-57_33k_ES_PAN_21mic_H50_0525_fot_64A-30202_W.tif
  2
NAME
  10
186271.900
  20
4501727.499
 40
35.04790
  0
SEQEND
  0
POLYLINE
  8
LC_OH_2021_05_O7
  70
1
  66
1
  0
VERTEX
  8
LC_OH_2021_05_O7
  10
184751.498
  20
4503514.000
  0
VERTEX
  8
LC_OH_2021_05_O7
  10
187713.999
  20
4503411.500
  0
VERTEX
  8
LC_OH_2021_05_O7
  10
187717.999
  20
4503411.000
  0
VERTEX
  8
LC_OH_2021_05_O7
  10
187955.499
  20
4503240.500
  0
VERTEX
  8
LC_OH_2021_05_O7
  10
187896.499
  20
4500332.000
  0
VERTEX
  8
LC_OH_2021_05_O7
  10
187546.499
  20
4499941.000
  0
VERTEX
  8
LC_OH_2021_05_O7
  10
184597.998
  20
4500196.500
  0
VERTEX
  8
LC_OH_2021_05_O7
  10
184570.498
  20
4500234.500
  0
VERTEX
  8
LC_OH_2021_05_O7
  10
184569.998
  20
4500244.000
  0
VERTEX
  8
LC_OH_2021_05_O7
  10
184676.498
  20
4503469.500
  0
VERTEX
  8
LC_OH_2021_05_O7
  10
184677.498
  20
4503472.500
  0
VERTEX
  8
LC_OH_2021_05_O7
  10
184750.498
  20
4503513.500
  0
VERTEX
  8
LC_OH_2021_05_O7
  10
184751.498
  20
4503514.000
  0
SEQEND
  8
LC_OH_2021_05_O7
  0
INSERT
  8
FeatureAttribs
  2
FEATURE
  41
1
  42
1
  43
1
  50
0
  10
192770.604
  20
4501340.751
 66
1
  0
ATTRIB
  8
FeatureAttribs
 70
0
  1
PNOA-H_AMS_1956-57_33k_ES_PAN_21mic_H50_0525_fot_64A-30200_W.tif
  2
NAME
  10
192770.604
  20
4501340.751
 40
35.04790
  0
SEQEND
  0
POLYLINE
  8
LC_OH_2021_05_O7
  70
1
  66
1
  0
VERTEX
  8
LC_OH_2021_05_O7
  10
191596.999
  20
4503034.500
  0
VERTEX
  8
LC_OH_2021_05_O7
  10
193554.999
  20
4503264.000
  0
VERTEX
  8
LC_OH_2021_05_O7
  10
194492.499
  20
4502743.500
  0
VERTEX
  8
LC_OH_2021_05_O7
  10
194204.999
  20
4499963.000
  0
VERTEX
  8
LC_OH_2021_05_O7
  10
193502.499
  20
4499417.500
  0
VERTEX
  8
LC_OH_2021_05_O7
  10
191096.999
  20
4500120.000
  0
VERTEX
  8
LC_OH_2021_05_O7
  10
191325.499
  20
4503002.500
  0
VERTEX
  8
LC_OH_2021_05_O7
  10
191592.999
  20
4503034.000
  0
VERTEX
  8
LC_OH_2021_05_O7
  10
191596.999
  20
4503034.500
  0
SEQEND
  8
LC_OH_2021_05_O7
  0
INSERT
  8
FeatureAttribs
  2
FEATURE
  41
1
  42
1
  43
1
  50
0
  10
198897.849
  20
4500794.499
 66
1
  0
ATTRIB
  8
FeatureAttribs
 70
0
  1
PNOA-H_AMS_1956-57_33k_ES_PAN_21mic_H50_0525_fot_64A-30198_W.tif
  2
NAME
  10
198897.849
  20
4500794.499
 40
35.04790
  0
SEQEND
  0
POLYLINE
  8
LC_OH_2021_05_O7
  70
1
  66
1
  0
VERTEX
  8
LC_OH_2021_05_O7
  10
197740.499
  20
4502587.000
  0
VERTEX
  8
LC_OH_2021_05_O7
  10
199368.999
  20
4502883.000
  0
VERTEX
  8
LC_OH_2021_05_O7
  10
200503.499
  20
4502348.500
  0
VERTEX
  8
LC_OH_2021_05_O7
  10
200373.499
  20
4499427.500
  0
VERTEX
  8
LC_OH_2021_05_O7
  10
199130.999
  20
4498706.000
  0
VERTEX
  8
LC_OH_2021_05_O7
  10
197302.499
  20
4499739.000
  0
VERTEX
  8
LC_OH_2021_05_O7
  10
197458.499
  20
4502535.500
  0
VERTEX
  8
LC_OH_2021_05_O7
  10
197737.999
  20
4502586.500
  0
VERTEX
  8
LC_OH_2021_05_O7
  10
197740.499
  20
4502587.000
  0
SEQEND
  8
LC_OH_2021_05_O7
  0
INSERT
  8
FeatureAttribs
  2
FEATURE
  41
1
  42
1
  43
1
  50
0
  10
179880.231
  20
4501813.750
 66
1
  0
ATTRIB
  8
FeatureAttribs
 70
0
  1
PNOA-H_AMS_1956-57_33k_ES_PAN_21mic_H50_0525_fot_64A-30204_W.tif
  2
NAME
  10
179880.231
  20
4501813.750
 40
35.04790
  0
SEQEND
  0
POLYLINE
  8
LC_OH_2021_05_O7
  70
1
  66
1
  0
VERTEX
  8
LC_OH_2021_05_O7
  10
178421.998
  20
4503871.500
  0
VERTEX
  8
LC_OH_2021_05_O7
  10
178881.498
  20
4504066.000
  0
VERTEX
  8
LC_OH_2021_05_O7
  10
178882.498
  20
4504066.500
  0
VERTEX
  8
LC_OH_2021_05_O7
  10
181571.998
  20
4503775.000
  0
VERTEX
  8
LC_OH_2021_05_O7
  10
181359.498
  20
4500035.000
  0
VERTEX
  8
LC_OH_2021_05_O7
  10
181012.498
  20
4499591.500
  0
VERTEX
  8
LC_OH_2021_05_O7
  10
178572.998
  20
4499561.000
  0
VERTEX
  8
LC_OH_2021_05_O7
  10
178183.998
  20
4499860.500
  0
VERTEX
  8
LC_OH_2021_05_O7
  10
178421.998
  20
4503871.500
  0
SEQEND
  8
LC_OH_2021_05_O7
  0
INSERT
  8
FeatureAttribs
  2
FEATURE
  41
1
  42
1
  43
1
  50
0
  10
179524.524
  20
4508345.953
 66
1
  0
ATTRIB
  8
FeatureAttribs
 70
0
  1
PNOA-H_AMS_1956-57_33k_ES_PAN_21mic_H50_0501_fot_62C-05327_E.tif
  2
NAME
  10
179524.524
  20
4508345.953
 40
35.04790
  0
SEQEND
  0
POLYLINE
  8
LC_OH_2021_05_O7
  70
1
  66
1
  0
VERTEX
  8
LC_OH_2021_05_O7
  10
181042.050
  20
4508604.326
  0
VERTEX
  8
LC_OH_2021_05_O7
  10
181033.498
  20
4508404.000
  0
VERTEX
  8
LC_OH_2021_05_O7
  10
179207.498
  20
4507957.000
  0
VERTEX
  8
LC_OH_2021_05_O7
  10
179201.998
  20
4507956.500
  0
VERTEX
  8
LC_OH_2021_05_O7
  10
178007.998
  20
4508603.000
  0
VERTEX
  8
LC_OH_2021_05_O7
  10
178006.998
  20
4508604.000
  0
VERTEX
  8
LC_OH_2021_05_O7
  10
178006.998
  20
4508735.405
  0
SEQEND
  8
LC_OH_2021_05_O7
  0
INSERT
  8
FeatureAttribs
  2
FEATURE
  41
1
  42
1
  43
1
  50
0
  10
191788.788
  20
4507829.729
 66
1
  0
ATTRIB
  8
FeatureAttribs
 70
0
  1
PNOA-H_AMS_1956-57_33k_ES_PAN_21mic_H50_0502_fot_62C-05331_E.tif
  2
NAME
  10
191788.788
  20
4507829.729
 40
35.04790
  0
SEQEND
  0
POLYLINE
  8
LC_OH_2021_05_O7
  70
1
  66
1
  0
VERTEX
  8
LC_OH_2021_05_O7
  10
193302.963
  20
4508087.704
  0
VERTEX
  8
LC_OH_2021_05_O7
  10
193296.499
  20
4507699.500
  0
VERTEX
  8
LC_OH_2021_05_O7
  10
190871.999
  20
4507446.000
  0
VERTEX
  8
LC_OH_2021_05_O7
  10
190866.499
  20
4507446.500
  0
VERTEX
  8
LC_OH_2021_05_O7
  10
190279.499
  20
4507784.500
  0
VERTEX
  8
LC_OH_2021_05_O7
  10
190274.612
  20
4508213.458
  0
VERTEX
  8
LC_OH_2021_05_O7
  10
191808.625
  20
4508149.397
  0
SEQEND
  8
LC_OH_2021_05_O7
  0
INSERT
  8
FeatureAttribs
  2
FEATURE
  41
1
  42
1
  43
1
  50
0
  10
182574.788
  20
4508136.164
 66
1
  0
ATTRIB
  8
FeatureAttribs
 70
0
  1
PNOA-H_AMS_1956-57_33k_ES_PAN_21mic_H50_0501_fot_62C-05328_E.tif
  2
NAME
  10
182574.788
  20
4508136.164
 40
35.04790
  0
SEQEND
  0
POLYLINE
  8
LC_OH_2021_05_O7
  70
1
  66
1
  0
VERTEX
  8
LC_OH_2021_05_O7
  10
184116.077
  20
4508472.934
  0
VERTEX
  8
LC_OH_2021_05_O7
  10
184106.998
  20
4508127.500
  0
VERTEX
  8
LC_OH_2021_05_O7
  10
182174.498
  20
4507668.000
  0
VERTEX
  8
LC_OH_2021_05_O7
  10
181033.498
  20
4508404.000
  0
VERTEX
  8
LC_OH_2021_05_O7
  10
181042.024
  20
4508604.328
  0
VERTEX
  8
LC_OH_2021_05_O7
  10
181239.786
  20
4508595.787
  0
SEQEND
  8
LC_OH_2021_05_O7
  0
INSERT
  8
FeatureAttribs
  2
FEATURE
  41
1
  42
1
  43
1
  50
0
  10
188741.249
  20
4507907.088
 66
1
  0
ATTRIB
  8
FeatureAttribs
 70
0
  1
PNOA-H_AMS_1956-57_33k_ES_PAN_21mic_H50_0502_fot_62C-05330_E.tif
  2
NAME
  10
188741.249
  20
4507907.088
 40
35.04790
  0
SEQEND
  0
POLYLINE
  8
LC_OH_2021_05_O7
  70
1
  66
1
  0
VERTEX
  8
LC_OH_2021_05_O7
  10
190274.612
  20
4508213.458
  0
VERTEX
  8
LC_OH_2021_05_O7
  10
190279.499
  20
4507784.500
  0
VERTEX
  8
LC_OH_2021_05_O7
  10
187971.999
  20
4507472.000
  0
VERTEX
  8
LC_OH_2021_05_O7
  10
187202.999
  20
4507929.000
  0
VERTEX
  8
LC_OH_2021_05_O7
  10
187204.660
  20
4508342.175
  0
VERTEX
  8
LC_OH_2021_05_O7
  10
188285.703
  20
4508296.516
  0
SEQEND
  8
LC_OH_2021_05_O7
  0
INSERT
  8
FeatureAttribs
  2
FEATURE
  41
1
  42
1
  43
1
  50
0
  10
198023.186
  20
4507656.304
 66
1
  0
ATTRIB
  8
FeatureAttribs
 70
0
  1
PNOA-H_AMS_1956-57_33k_ES_PAN_21mic_H50_0502_fot_62C-05333_E.tif
  2
NAME
  10
198023.186
  20
4507656.304
 40
35.04790
  0
SEQEND
  0
POLYLINE
  8
LC_OH_2021_05_O7
  70
1
  66
1
  0
VERTEX
  8
LC_OH_2021_05_O7
  10
199591.384
  20
4507830.466
  0
VERTEX
  8
LC_OH_2021_05_O7
  10
199589.499
  20
4507364.000
  0
VERTEX
  8
LC_OH_2021_05_O7
  10
196720.999
  20
4507354.500
  0
VERTEX
  8
LC_OH_2021_05_O7
  10
196455.499
  20
4507524.500
  0
VERTEX
  8
LC_OH_2021_05_O7
  10
196454.988
  20
4507958.108
  0
VERTEX
  8
LC_OH_2021_05_O7
  10
198854.394
  20
4507860.191
  0
SEQEND
  8
LC_OH_2021_05_O7
  0
INSERT
  8
FeatureAttribs
  2
FEATURE
  41
1
  42
1
  43
1
  50
0
  10
194875.999
  20
4507738.352
 66
1
  0
ATTRIB
  8
FeatureAttribs
 70
0
  1
PNOA-H_AMS_1956-57_33k_ES_PAN_21mic_H50_0502_fot_62C-05332_E.tif
  2
NAME
  10
194875.999
  20
4507738.352
 40
35.04790
  0
SEQEND
  0
POLYLINE
  8
LC_OH_2021_05_O7
  70
1
  66
1
  0
VERTEX
  8
LC_OH_2021_05_O7
  10
196454.988
  20
4507958.108
  0
VERTEX
  8
LC_OH_2021_05_O7
  10
196455.499
  20
4507524.500
  0
VERTEX
  8
LC_OH_2021_05_O7
  10
193792.999
  20
4507389.000
  0
VERTEX
  8
LC_OH_2021_05_O7
  10
193296.499
  20
4507699.500
  0
VERTEX
  8
LC_OH_2021_05_O7
  10
193302.963
  20
4508087.704
  0
VERTEX
  8
LC_OH_2021_05_O7
  10
195331.521
  20
4508003.956
  0
SEQEND
  8
LC_OH_2021_05_O7
  0
INSERT
  8
FeatureAttribs
  2
FEATURE
  41
1
  42
1
  43
1
  50
0
  10
185655.828
  20
4508013.467
 66
1
  0
ATTRIB
  8
FeatureAttribs
 70
0
  1
PNOA-H_AMS_1956-57_33k_ES_PAN_21mic_H50_0502_fot_62C-05329_E.tif
  2
NAME
  10
185655.828
  20
4508013.467
 40
35.04790
  0
SEQEND
  0
POLYLINE
  8
LC_OH_2021_05_O7
  70
1
  66
1
  0
VERTEX
  8
LC_OH_2021_05_O7
  10
187204.658
  20
4508342.175
  0
VERTEX
  8
LC_OH_2021_05_O7
  10
187202.999
  20
4507929.500
  0
VERTEX
  8
LC_OH_2021_05_O7
  10
185127.498
  20
4507554.000
  0
VERTEX
  8
LC_OH_2021_05_O7
  10
184106.998
  20
4508127.500
  0
VERTEX
  8
LC_OH_2021_05_O7
  10
184116.077
  20
4508472.934
  0
VERTEX
  8
LC_OH_2021_05_O7
  10
184762.757
  20
4508445.312
  0
SEQEND
  8
LC_OH_2021_05_O7
  0
INSERT
  8
FeatureAttribs
  2
FEATURE
  41
1
  42
1
  43
1
  50
0
  10
200983.370
  20
4507517.304
 66
1
  0
ATTRIB
  8
FeatureAttribs
 70
0
  1
PNOA-H_AMS_1956-57_33k_ES_PAN_21mic_H50_0502_fot_62C-05334_E.tif
  2
NAME
  10
200983.370
  20
4507517.304
 40
35.04790
  0
SEQEND
  0
POLYLINE
  8
LC_OH_2021_05_O7
  70
1
  66
1
  0
VERTEX
  8
LC_OH_2021_05_O7
  10
202356.639
  20
4507204.141
  0
VERTEX
  8
LC_OH_2021_05_O7
  10
199621.499
  20
4507342.000
  0
VERTEX
  8
LC_OH_2021_05_O7
  10
199589.499
  20
4507364.000
  0
VERTEX
  8
LC_OH_2021_05_O7
  10
199591.384
  20
4507830.466
  0
VERTEX
  8
LC_OH_2021_05_O7
  10
202377.242
  20
4507718.104
  0
SEQEND
  8
LC_OH_2021_05_O7
  0
INSERT
  8
FeatureAttribs
  2
FEATURE
  41
1
  42
1
  43
1
  50
0
  10
176066.457
  20
4508128.874
 66
1
  0
ATTRIB
  8
FeatureAttribs
 70
0
  1
PNOA-H_AMS_1956-57_33k_ES_PAN_21mic_H50_0501_fot_62C-05326_E.tif
  2
NAME
  10
176066.457
  20
4508128.874
 40
35.04790
  0
SEQEND
  0
POLYLINE
  8
LC_OH_2021_05_O7
  70
1
  66
1
  0
VERTEX
  8
LC_OH_2021_05_O7
  10
178006.998
  20
4508735.405
  0
VERTEX
  8
LC_OH_2021_05_O7
  10
178006.998
  20
4508622.000
  0
VERTEX
  8
LC_OH_2021_05_O7
  10
174125.917
  20
4507355.979
  0
VERTEX
  8
LC_OH_2021_05_O7
  10
174193.766
  20
4508901.769
  0
VERTEX
  8
LC_OH_2021_05_O7
  10
177716.789
  20
4508747.939
  0
SEQEND
  8
LC_OH_2021_05_O7
  0
INSERT
  8
FeatureAttribs
  2
FEATURE
  41
1
  42
1
  43
1
  50
0
  10
191981.218
  20
4498847.751
 66
1
  0
ATTRIB
  8
FeatureAttribs
 70
0
  1
PNOA-H_AMS_1956-57_33k_ES_PAN_21mic_H50_0525_fot_000-44224_R.tif
  2
NAME
  10
191981.218
  20
4498847.751
 40
35.04790
  0
SEQEND
  0
POLYLINE
  8
LC_OH_2021_05_O7
  70
1
  66
1
  0
VERTEX
  8
LC_OH_2021_05_O7
  10
191096.999
  20
4500120.000
  0
VERTEX
  8
LC_OH_2021_05_O7
  10
193501.999
  20
4499417.500
  0
VERTEX
  8
LC_OH_2021_05_O7
  10
193348.499
  20
4497914.500
  0
VERTEX
  8
LC_OH_2021_05_O7
  10
193180.499
  20
4497575.500
  0
VERTEX
  8
LC_OH_2021_05_O7
  10
190495.999
  20
4498469.500
  0
VERTEX
  8
LC_OH_2021_05_O7
  10
190563.999
  20
4499606.000
  0
VERTEX
  8
LC_OH_2021_05_O7
  10
191095.999
  20
4500119.500
  0
VERTEX
  8
LC_OH_2021_05_O7
  10
191096.999
  20
4500120.000
  0
SEQEND
  8
LC_OH_2021_05_O7
  0
INSERT
  8
FeatureAttribs
  2
FEATURE
  41
1
  42
1
  43
1
  50
0
  10
197637.635
  20
4498535.751
 66
1
  0
ATTRIB
  8
FeatureAttribs
 70
0
  1
PNOA-H_AMS_1956-57_33k_ES_PAN_21mic_H50_0525_fot_000-44222_R.tif
  2
NAME
  10
197637.635
  20
4498535.751
 40
35.04790
  0
SEQEND
  0
POLYLINE
  8
LC_OH_2021_05_O7
  70
1
  66
1
  0
VERTEX
  8
LC_OH_2021_05_O7
  10
197301.999
  20
4499739.000
  0
VERTEX
  8
LC_OH_2021_05_O7
  10
197309.999
  20
4499735.500
  0
VERTEX
  8
LC_OH_2021_05_O7
  10
199130.999
  20
4498706.000
  0
VERTEX
  8
LC_OH_2021_05_O7
  10
198992.499
  20
4497778.000
  0
VERTEX
  8
LC_OH_2021_05_O7
  10
196190.999
  20
4497332.500
  0
VERTEX
  8
LC_OH_2021_05_O7
  10
196094.999
  20
4497692.500
  0
VERTEX
  8
LC_OH_2021_05_O7
  10
196210.499
  20
4498997.000
  0
VERTEX
  8
LC_OH_2021_05_O7
  10
197300.999
  20
4499738.500
  0
VERTEX
  8
LC_OH_2021_05_O7
  10
197301.999
  20
4499739.000
  0
SEQEND
  8
LC_OH_2021_05_O7
  0
INSERT
  8
FeatureAttribs
  2
FEATURE
  41
1
  42
1
  43
1
  50
0
  10
200699.124
  20
4498130.250
 66
1
  0
ATTRIB
  8
FeatureAttribs
 70
0
  1
PNOA-H_AMS_1956-57_33k_ES_PAN_21mic_H50_0525_fot_000-44221_R.tif
  2
NAME
  10
200699.124
  20
4498130.250
 40
35.04790
  0
SEQEND
  0
POLYLINE
  8
LC_OH_2021_05_O7
  70
1
  66
1
  0
VERTEX
  8
LC_OH_2021_05_O7
  10
202007.847
  20
4498497.365
  0
VERTEX
  8
LC_OH_2021_05_O7
  10
202006.560
  20
4498465.235
  0
VERTEX
  8
LC_OH_2021_05_O7
  10
201975.558
  20
4497690.536
  0
VERTEX
  8
LC_OH_2021_05_O7
  10
199187.999
  20
4496833.000
  0
VERTEX
  8
LC_OH_2021_05_O7
  10
198992.499
  20
4497776.500
  0
VERTEX
  8
LC_OH_2021_05_O7
  10
199130.999
  20
4498706.500
  0
VERTEX
  8
LC_OH_2021_05_O7
  10
200373.499
  20
4499427.500
  0
VERTEX
  8
LC_OH_2021_05_O7
  10
201838.499
  20
4498593.500
  0
VERTEX
  8
LC_OH_2021_05_O7
  10
201839.499
  20
4498593.000
  0
SEQEND
  8
LC_OH_2021_05_O7
  0
INSERT
  8
FeatureAttribs
  2
FEATURE
  41
1
  42
1
  43
1
  50
0
  10
194818.531
  20
4498827.250
 66
1
  0
ATTRIB
  8
FeatureAttribs
 70
0
  1
PNOA-H_AMS_1956-57_33k_ES_PAN_21mic_H50_0525_fot_000-44223_R.tif
  2
NAME
  10
194818.531
  20
4498827.250
 40
35.04790
  0
SEQEND
  0
POLYLINE
  8
LC_OH_2021_05_O7
  70
1
  66
1
  0
VERTEX
  8
LC_OH_2021_05_O7
  10
195695.499
  20
4499245.000
  0
VERTEX
  8
LC_OH_2021_05_O7
  10
196210.499
  20
4498997.000
  0
VERTEX
  8
LC_OH_2021_05_O7
  10
196094.999
  20
4497691.500
  0
VERTEX
  8
LC_OH_2021_05_O7
  10
193347.999
  20
4497913.000
  0
VERTEX
  8
LC_OH_2021_05_O7
  10
193501.999
  20
4499417.500
  0
VERTEX
  8
LC_OH_2021_05_O7
  10
194203.999
  20
4499963.000
  0
VERTEX
  8
LC_OH_2021_05_O7
  10
194205.999
  20
4499963.000
  0
VERTEX
  8
LC_OH_2021_05_O7
  10
194241.499
  20
4499946.000
  0
VERTEX
  8
LC_OH_2021_05_O7
  10
195693.499
  20
4499245.500
  0
VERTEX
  8
LC_OH_2021_05_O7
  10
195695.499
  20
4499245.000
  0
SEQEND
  8
LC_OH_2021_05_O7
  0
INSERT
  8
FeatureAttribs
  2
FEATURE
  41
1
  42
1
  43
1
  50
0
  10
182885.765
  20
4499156.249
 66
1
  0
ATTRIB
  8
FeatureAttribs
 70
0
  1
PNOA-H_AMS_1956-57_33k_ES_PAN_21mic_H50_0525_fot_000-44227_R.tif
  2
NAME
  10
182885.765
  20
4499156.249
 40
35.04790
  0
SEQEND
  0
POLYLINE
  8
LC_OH_2021_05_O7
  70
1
  66
1
  0
VERTEX
  8
LC_OH_2021_05_O7
  10
184597.498
  20
4500158.500
  0
VERTEX
  8
LC_OH_2021_05_O7
  10
184571.998
  20
4498555.000
  0
VERTEX
  8
LC_OH_2021_05_O7
  10
184319.998
  20
4498077.000
  0
VERTEX
  8
LC_OH_2021_05_O7
  10
181434.498
  20
4498558.500
  0
VERTEX
  8
LC_OH_2021_05_O7
  10
181012.498
  20
4499590.000
  0
VERTEX
  8
LC_OH_2021_05_O7
  10
181012.498
  20
4499592.000
  0
VERTEX
  8
LC_OH_2021_05_O7
  10
181014.998
  20
4499595.500
  0
VERTEX
  8
LC_OH_2021_05_O7
  10
181352.498
  20
4500027.000
  0
VERTEX
  8
LC_OH_2021_05_O7
  10
181357.998
  20
4500034.000
  0
VERTEX
  8
LC_OH_2021_05_O7
  10
181360.498
  20
4500035.500
  0
VERTEX
  8
LC_OH_2021_05_O7
  10
184563.498
  20
4500235.500
  0
VERTEX
  8
LC_OH_2021_05_O7
  10
184570.498
  20
4500235.500
  0
VERTEX
  8
LC_OH_2021_05_O7
  10
184597.998
  20
4500197.500
  0
VERTEX
  8
LC_OH_2021_05_O7
  10
184597.498
  20
4500168.000
  0
VERTEX
  8
LC_OH_2021_05_O7
  10
184597.498
  20
4500158.500
  0
SEQEND
  8
LC_OH_2021_05_O7
  0
INSERT
  8
FeatureAttribs
  2
FEATURE
  41
1
  42
1
  43
1
  50
0
  10
189015.652
  20
4499036.750
 66
1
  0
ATTRIB
  8
FeatureAttribs
 70
0
  1
PNOA-H_AMS_1956-57_33k_ES_PAN_21mic_H50_0525_fot_000-44225_R.tif
  2
NAME
  10
189015.652
  20
4499036.750
 40
35.04790
  0
SEQEND
  0
POLYLINE
  8
LC_OH_2021_05_O7
  70
1
  66
1
  0
VERTEX
  8
LC_OH_2021_05_O7
  10
190319.999
  20
4498110.500
  0
VERTEX
  8
LC_OH_2021_05_O7
  10
190148.999
  20
4497760.500
  0
VERTEX
  8
LC_OH_2021_05_O7
  10
190139.499
  20
4497741.500
  0
VERTEX
  8
LC_OH_2021_05_O7
  10
190137.999
  20
4497741.000
  0
VERTEX
  8
LC_OH_2021_05_O7
  10
187477.499
  20
4498558.500
  0
VERTEX
  8
LC_OH_2021_05_O7
  10
187546.499
  20
4499941.500
  0
VERTEX
  8
LC_OH_2021_05_O7
  10
187888.499
  20
4500324.000
  0
VERTEX
  8
LC_OH_2021_05_O7
  10
187897.499
  20
4500332.500
  0
VERTEX
  8
LC_OH_2021_05_O7
  10
190563.999
  20
4499606.000
  0
VERTEX
  8
LC_OH_2021_05_O7
  10
190495.999
  20
4498469.500
  0
VERTEX
  8
LC_OH_2021_05_O7
  10
190320.499
  20
4498112.000
  0
VERTEX
  8
LC_OH_2021_05_O7
  10
190319.999
  20
4498110.500
  0
SEQEND
  8
LC_OH_2021_05_O7
  0
INSERT
  8
FeatureAttribs
  2
FEATURE
  41
1
  42
1
  43
1
  50
0
  10
186041.995
  20
4499079.749
 66
1
  0
ATTRIB
  8
FeatureAttribs
 70
0
  1
PNOA-H_AMS_1956-57_33k_ES_PAN_21mic_H50_0525_fot_000-44226_R.tif
  2
NAME
  10
186041.995
  20
4499079.749
 40
35.04790
  0
SEQEND
  0
POLYLINE
  8
LC_OH_2021_05_O7
  70
1
  66
1
  0
VERTEX
  8
LC_OH_2021_05_O7
  10
184597.998
  20
4500196.500
  0
VERTEX
  8
LC_OH_2021_05_O7
  10
187546.499
  20
4499941.000
  0
VERTEX
  8
LC_OH_2021_05_O7
  10
187477.499
  20
4498558.500
  0
VERTEX
  8
LC_OH_2021_05_O7
  10
187162.999
  20
4497971.000
  0
VERTEX
  8
LC_OH_2021_05_O7
  10
187158.499
  20
4497963.000
  0
VERTEX
  8
LC_OH_2021_05_O7
  10
187156.999
  20
4497963.000
  0
VERTEX
  8
LC_OH_2021_05_O7
  10
184571.998
  20
4498555.000
  0
VERTEX
  8
LC_OH_2021_05_O7
  10
184597.998
  20
4500168.000
  0
VERTEX
  8
LC_OH_2021_05_O7
  10
184597.998
  20
4500196.500
  0
SEQEND
  8
LC_OH_2021_05_O7
  0
INSERT
  8
FeatureAttribs
  2
FEATURE
  41
1
  42
1
  43
1
  50
0
  10
174532.870
  20
4497231.120
 66
1
  0
ATTRIB
  8
FeatureAttribs
 70
0
  1
PNOA-H_AMS_1956-57_33k_ES_PAN_21mic_H50_0525_fot_65A-46692_W.tif
  2
NAME
  10
174532.870
  20
4497231.120
 40
35.04790
  0
SEQEND
  0
POLYLINE
  8
LC_OH_2021_05_O7
  70
1
  66
1
  0
VERTEX
  8
LC_OH_2021_05_O7
  10
173838.155
  20
4500795.585
  0
VERTEX
  8
LC_OH_2021_05_O7
  10
175624.998
  20
4499619.500
  0
VERTEX
  8
LC_OH_2021_05_O7
  10
175554.998
  20
4495362.500
  0
VERTEX
  8
LC_OH_2021_05_O7
  10
173529.948
  20
4493760.311
  0
VERTEX
  8
LC_OH_2021_05_O7
  10
173585.173
  20
4495021.700
  0
VERTEX
  8
LC_OH_2021_05_O7
  10
173686.497
  20
4497335.034
  0
VERTEX
  8
LC_OH_2021_05_O7
  10
173787.865
  20
4499648.372
  0
SEQEND
  8
LC_OH_2021_05_O7
  0
INSERT
  8
FeatureAttribs
  2
FEATURE
  41
1
  42
1
  43
1
  50
0
  10
176188.826
  20
4493264.500
 66
1
  0
ATTRIB
  8
FeatureAttribs
 70
0
  1
PNOA-H_AMS_1956-57_33k_ES_PAN_21mic_H50_0525_fot_66A-18894_E.tif
  2
NAME
  10
176188.826
  20
4493264.500
 40
35.04790
  0
SEQEND
  0
POLYLINE
  8
LC_OH_2021_05_O7
  70
1
  66
1
  0
VERTEX
  8
LC_OH_2021_05_O7
  10
173529.951
  20
4493760.382
  0
VERTEX
  8
LC_OH_2021_05_O7
  10
175553.998
  20
4495362.500
  0
VERTEX
  8
LC_OH_2021_05_O7
  10
178402.498
  20
4495750.000
  0
VERTEX
  8
LC_OH_2021_05_O7
  10
178406.498
  20
4495750.500
  0
VERTEX
  8
LC_OH_2021_05_O7
  10
178408.998
  20
4495750.500
  0
VERTEX
  8
LC_OH_2021_05_O7
  10
178420.498
  20
4495744.500
  0
VERTEX
  8
LC_OH_2021_05_O7
  10
179029.998
  20
4495412.500
  0
VERTEX
  8
LC_OH_2021_05_O7
  10
179166.498
  20
4491079.000
  0
VERTEX
  8
LC_OH_2021_05_O7
  10
177440.498
  20
4490778.500
  0
VERTEX
  8
LC_OH_2021_05_O7
  10
175991.998
  20
4491322.000
  0
VERTEX
  8
LC_OH_2021_05_O7
  10
175692.998
  20
4491434.000
  0
VERTEX
  8
LC_OH_2021_05_O7
  10
174666.498
  20
4491819.000
  0
VERTEX
  8
LC_OH_2021_05_O7
  10
173494.385
  20
4492948.036
  0
SEQEND
  8
LC_OH_2021_05_O7
  0
INSERT
  8
FeatureAttribs
  2
FEATURE
  41
1
  42
1
  43
1
  50
0
  10
176002.549
  20
4502235.491
 66
1
  0
ATTRIB
  8
FeatureAttribs
 70
0
  1
PNOA-H_AMS_1956-57_33k_ES_PAN_21mic_H50_0525_fot_64A-30205_W.tif
  2
NAME
  10
176002.549
  20
4502235.491
 40
35.04790
  0
SEQEND
  0
POLYLINE
  8
LC_OH_2021_05_O7
  70
1
  66
1
  0
VERTEX
  8
LC_OH_2021_05_O7
  10
174014.834
  20
4504824.476
  0
VERTEX
  8
LC_OH_2021_05_O7
  10
175706.498
  20
4504458.500
  0
VERTEX
  8
LC_OH_2021_05_O7
  10
175707.998
  20
4504458.500
  0
VERTEX
  8
LC_OH_2021_05_O7
  10
176002.498
  20
4504394.500
  0
VERTEX
  8
LC_OH_2021_05_O7
  10
178421.998
  20
4503871.500
  0
VERTEX
  8
LC_OH_2021_05_O7
  10
178184.498
  20
4499861.500
  0
VERTEX
  8
LC_OH_2021_05_O7
  10
178181.498
  20
4499860.000
  0
VERTEX
  8
LC_OH_2021_05_O7
  10
178170.998
  20
4499859.000
  0
VERTEX
  8
LC_OH_2021_05_O7
  10
175624.998
  20
4499619.500
  0
VERTEX
  8
LC_OH_2021_05_O7
  10
173838.159
  20
4500795.666
  0
VERTEX
  8
LC_OH_2021_05_O7
  10
173889.275
  20
4501961.714
  0
VERTEX
  8
LC_OH_2021_05_O7
  10
173990.729
  20
4504275.061
  0
SEQEND
  8
LC_OH_2021_05_O7
  0
ENDSEC
  0
EOF
