  0
SECTION
  2
HEADER
  9
$ACADVER
  1
AC1009
  9
$LUNITS
  70
2
  9
$LIMMIN
  10
399626.890
  20
4502105.685
  9
$LIMMAX
  10
427982.233
  20
4520934.223
  9
$EXTMIN
  10
399626.890
  20
4502105.685
  9
$EXTMAX
  10
427982.233
  20
4520934.223
  999
Created by Global Mapper
  999
Projection: UTM
  999
Datum: ETRS89
  999
Ground Units: meters
  999
ZONE: 30
  0
ENDSEC
  0
SECTION
  2
TABLES
  0
ENDSEC
  0
SECTION
  2
BLOCKS
  0
BLOCK
  8
FeatureAttribs
  70
0
  2
FEATURE
  3
FEATURE
  10
0.00000000
  20
0.00000000
  0
ATTDEF
  8
FeatureAttribs
  70
0
  1
 
  2
NAME
  3
NAME
  10
0.00000000
  20
0.00000000
  40
1.00000000
  0
ENDBLK
  0
ENDSEC
  0
SECTION
  2
ENTITIES
  0
INSERT
  8
FeatureAttribs
  2
FEATURE
  41
1
  42
1
  43
1
  50
0
  10
400199.580
  20
4520174.842
 66
1
  0
ATTRIB
  8
FeatureAttribs
 70
0
  1
PNOA-H_AMS_1956-57_33k_ES_PAN_21mic_H50_0482_fot_58C-35942_W.tif
  2
NAME
  10
400199.580
  20
4520174.842
 40
34.03732
  0
SEQEND
  0
POLYLINE
  8
LC_OH_2021_05_O7
  70
1
  66
1
  0
VERTEX
  8
LC_OH_2021_05_O7
  10
400499.940
  20
4520925.931
  0
VERTEX
  8
LC_OH_2021_05_O7
  10
400542.510
  20
4519634.999
  0
VERTEX
  8
LC_OH_2021_05_O7
  10
399856.650
  20
4519415.461
  0
VERTEX
  8
LC_OH_2021_05_O7
  10
399877.230
  20
4520934.223
  0
SEQEND
  8
LC_OH_2021_05_O7
  0
INSERT
  8
FeatureAttribs
  2
FEATURE
  41
1
  42
1
  43
1
  50
0
  10
409318.352
  20
4520292.500
 66
1
  0
ATTRIB
  8
FeatureAttribs
 70
0
  1
PNOA-H_AMS_1956-57_33k_ES_PAN_21mic_H50_0483_fot_58D-42406_W.tif
  2
NAME
  10
409318.352
  20
4520292.500
 40
34.03732
  0
SEQEND
  0
POLYLINE
  8
LC_OH_2021_05_O7
  70
1
  66
1
  0
VERTEX
  8
LC_OH_2021_05_O7
  10
410539.534
  20
4520797.433
  0
VERTEX
  8
LC_OH_2021_05_O7
  10
410588.512
  20
4519985.499
  0
VERTEX
  8
LC_OH_2021_05_O7
  10
410590.012
  20
4519946.999
  0
VERTEX
  8
LC_OH_2021_05_O7
  10
409291.511
  20
4519634.999
  0
VERTEX
  8
LC_OH_2021_05_O7
  10
408091.011
  20
4519940.999
  0
VERTEX
  8
LC_OH_2021_05_O7
  10
408029.635
  20
4520828.409
  0
VERTEX
  8
LC_OH_2021_05_O7
  10
410416.657
  20
4520798.894
  0
SEQEND
  8
LC_OH_2021_05_O7
  0
INSERT
  8
FeatureAttribs
  2
FEATURE
  41
1
  42
1
  43
1
  50
0
  10
413473.430
  20
4520250.250
 66
1
  0
ATTRIB
  8
FeatureAttribs
 70
0
  1
PNOA-H_AMS_1956-57_33k_ES_PAN_21mic_H50_0483_fot_58D-42404_W.tif
  2
NAME
  10
413473.430
  20
4520250.250
 40
34.03732
  0
SEQEND
  0
POLYLINE
  8
LC_OH_2021_05_O7
  70
1
  66
1
  0
VERTEX
  8
LC_OH_2021_05_O7
  10
414030.012
  20
4520755.983
  0
VERTEX
  8
LC_OH_2021_05_O7
  10
414030.012
  20
4519577.073
  0
VERTEX
  8
LC_OH_2021_05_O7
  10
413847.512
  20
4519550.499
  0
VERTEX
  8
LC_OH_2021_05_O7
  10
412916.512
  20
4519868.499
  0
VERTEX
  8
LC_OH_2021_05_O7
  10
412916.012
  20
4520004.499
  0
VERTEX
  8
LC_OH_2021_05_O7
  10
412918.616
  20
4520769.149
  0
VERTEX
  8
LC_OH_2021_05_O7
  10
413929.785
  20
4520757.127
  0
SEQEND
  8
LC_OH_2021_05_O7
  0
INSERT
  8
FeatureAttribs
  2
FEATURE
  41
1
  42
1
  43
1
  50
0
  10
406748.618
  20
4520293.249
 66
1
  0
ATTRIB
  8
FeatureAttribs
 70
0
  1
PNOA-H_AMS_1956-57_33k_ES_PAN_21mic_H50_0483_fot_58D-42407_W.tif
  2
NAME
  10
406748.618
  20
4520293.249
 40
34.03732
  0
SEQEND
  0
POLYLINE
  8
LC_OH_2021_05_O7
  70
1
  66
1
  0
VERTEX
  8
LC_OH_2021_05_O7
  10
408029.872
  20
4520828.406
  0
VERTEX
  8
LC_OH_2021_05_O7
  10
408091.011
  20
4519945.499
  0
VERTEX
  8
LC_OH_2021_05_O7
  10
408091.011
  20
4519940.999
  0
VERTEX
  8
LC_OH_2021_05_O7
  10
406914.511
  20
4519546.499
  0
VERTEX
  8
LC_OH_2021_05_O7
  10
405443.511
  20
4519854.499
  0
VERTEX
  8
LC_OH_2021_05_O7
  10
405413.213
  20
4520861.468
  0
VERTEX
  8
LC_OH_2021_05_O7
  10
406903.522
  20
4520842.332
  0
SEQEND
  8
LC_OH_2021_05_O7
  0
INSERT
  8
FeatureAttribs
  2
FEATURE
  41
1
  42
1
  43
1
  50
0
  10
411743.366
  20
4520300.500
 66
1
  0
ATTRIB
  8
FeatureAttribs
 70
0
  1
PNOA-H_AMS_1956-57_33k_ES_PAN_21mic_H50_0483_fot_58D-42405_W.tif
  2
NAME
  10
411743.366
  20
4520300.500
 40
34.03732
  0
SEQEND
  0
POLYLINE
  8
LC_OH_2021_05_O7
  70
1
  66
1
  0
VERTEX
  8
LC_OH_2021_05_O7
  10
412919.012
  20
4520769.144
  0
VERTEX
  8
LC_OH_2021_05_O7
  10
412916.512
  20
4520004.499
  0
VERTEX
  8
LC_OH_2021_05_O7
  10
412916.012
  20
4519868.999
  0
VERTEX
  8
LC_OH_2021_05_O7
  10
412914.512
  20
4519868.499
  0
VERTEX
  8
LC_OH_2021_05_O7
  10
411618.012
  20
4519650.999
  0
VERTEX
  8
LC_OH_2021_05_O7
  10
410590.512
  20
4519947.499
  0
VERTEX
  8
LC_OH_2021_05_O7
  10
410539.308
  20
4520797.436
  0
SEQEND
  8
LC_OH_2021_05_O7
  0
INSERT
  8
FeatureAttribs
  2
FEATURE
  41
1
  42
1
  43
1
  50
0
  10
399767.162
  20
4508167.576
 66
1
  0
ATTRIB
  8
FeatureAttribs
 70
0
  1
PNOA-H_AMS_1956-57_33k_ES_PAN_21mic_H50_0508_fot_61C-39576_W.tif
  2
NAME
  10
399767.162
  20
4508167.576
 40
34.03732
  0
SEQEND
  0
POLYLINE
  8
LC_OH_2021_05_O7
  70
1
  66
1
  0
VERTEX
  8
LC_OH_2021_05_O7
  10
399733.950
  20
4510352.603
  0
VERTEX
  8
LC_OH_2021_05_O7
  10
399860.010
  20
4510401.374
  0
VERTEX
  8
LC_OH_2021_05_O7
  10
399860.010
  20
4506949.999
  0
VERTEX
  8
LC_OH_2021_05_O7
  10
399790.010
  20
4506949.999
  0
VERTEX
  8
LC_OH_2021_05_O7
  10
399790.010
  20
4505933.778
  0
VERTEX
  8
LC_OH_2021_05_O7
  10
399674.314
  20
4505942.403
  0
VERTEX
  8
LC_OH_2021_05_O7
  10
399689.395
  20
4507058.145
  0
VERTEX
  8
LC_OH_2021_05_O7
  10
399720.668
  20
4509370.805
  0
SEQEND
  8
LC_OH_2021_05_O7
  0
INSERT
  8
FeatureAttribs
  2
FEATURE
  41
1
  42
1
  43
1
  50
0
  10
413888.402
  20
4517965.469
 66
1
  0
ATTRIB
  8
FeatureAttribs
 70
0
  1
PNOA-H_AMS_1956-57_33k_ES_PAN_21mic_H50_0508_fot_59C-48009_W.tif
  2
NAME
  10
413888.402
  20
4517965.469
 40
34.03732
  0
SEQEND
  0
POLYLINE
  8
LC_OH_2021_05_O7
  70
1
  66
1
  0
VERTEX
  8
LC_OH_2021_05_O7
  10
414030.012
  20
4519577.109
  0
VERTEX
  8
LC_OH_2021_05_O7
  10
414030.012
  20
4516353.831
  0
VERTEX
  8
LC_OH_2021_05_O7
  10
413667.012
  20
4516710.499
  0
VERTEX
  8
LC_OH_2021_05_O7
  10
413847.512
  20
4519550.499
  0
VERTEX
  8
LC_OH_2021_05_O7
  10
414030.012
  20
4519577.109
  0
SEQEND
  8
LC_OH_2021_05_O7
  0
INSERT
  8
FeatureAttribs
  2
FEATURE
  41
1
  42
1
  43
1
  50
0
  10
408082.224
  20
4518085.749
 66
1
  0
ATTRIB
  8
FeatureAttribs
 70
0
  1
PNOA-H_AMS_1956-57_33k_ES_PAN_21mic_H50_0508_fot_59C-48012_W.tif
  2
NAME
  10
408082.224
  20
4518085.749
 40
34.03732
  0
SEQEND
  0
POLYLINE
  8
LC_OH_2021_05_O7
  70
1
  66
1
  0
VERTEX
  8
LC_OH_2021_05_O7
  10
408089.511
  20
4519940.999
  0
VERTEX
  8
LC_OH_2021_05_O7
  10
408109.011
  20
4519936.999
  0
VERTEX
  8
LC_OH_2021_05_O7
  10
409290.511
  20
4519634.999
  0
VERTEX
  8
LC_OH_2021_05_O7
  10
409189.011
  20
4516738.999
  0
VERTEX
  8
LC_OH_2021_05_O7
  10
408573.011
  20
4516542.499
  0
VERTEX
  8
LC_OH_2021_05_O7
  10
408571.511
  20
4516542.499
  0
VERTEX
  8
LC_OH_2021_05_O7
  10
407603.511
  20
4516232.999
  0
VERTEX
  8
LC_OH_2021_05_O7
  10
407593.011
  20
4516230.499
  0
VERTEX
  8
LC_OH_2021_05_O7
  10
406941.011
  20
4516723.499
  0
VERTEX
  8
LC_OH_2021_05_O7
  10
406914.511
  20
4519546.999
  0
VERTEX
  8
LC_OH_2021_05_O7
  10
408089.511
  20
4519940.999
  0
SEQEND
  8
LC_OH_2021_05_O7
  0
INSERT
  8
FeatureAttribs
  2
FEATURE
  41
1
  42
1
  43
1
  50
0
  10
410357.218
  20
4518079.498
 66
1
  0
ATTRIB
  8
FeatureAttribs
 70
0
  1
PNOA-H_AMS_1956-57_33k_ES_PAN_21mic_H50_0508_fot_59C-48011_W.tif
  2
NAME
  10
410357.218
  20
4518079.498
 40
34.03732
  0
SEQEND
  0
POLYLINE
  8
LC_OH_2021_05_O7
  70
1
  66
1
  0
VERTEX
  8
LC_OH_2021_05_O7
  10
409290.511
  20
4519634.999
  0
VERTEX
  8
LC_OH_2021_05_O7
  10
410590.012
  20
4519947.499
  0
VERTEX
  8
LC_OH_2021_05_O7
  10
410733.012
  20
4519905.999
  0
VERTEX
  8
LC_OH_2021_05_O7
  10
410735.512
  20
4519905.499
  0
VERTEX
  8
LC_OH_2021_05_O7
  10
411619.012
  20
4519650.999
  0
VERTEX
  8
LC_OH_2021_05_O7
  10
411355.012
  20
4516699.499
  0
VERTEX
  8
LC_OH_2021_05_O7
  10
411354.512
  20
4516697.999
  0
VERTEX
  8
LC_OH_2021_05_O7
  10
411312.512
  20
4516683.999
  0
VERTEX
  8
LC_OH_2021_05_O7
  10
409884.511
  20
4516211.499
  0
VERTEX
  8
LC_OH_2021_05_O7
  10
409189.011
  20
4516738.999
  0
VERTEX
  8
LC_OH_2021_05_O7
  10
409290.511
  20
4519634.999
  0
SEQEND
  8
LC_OH_2021_05_O7
  0
INSERT
  8
FeatureAttribs
  2
FEATURE
  41
1
  42
1
  43
1
  50
0
  10
412607.626
  20
4517967.750
 66
1
  0
ATTRIB
  8
FeatureAttribs
 70
0
  1
PNOA-H_AMS_1956-57_33k_ES_PAN_21mic_H50_0508_fot_59C-48010_W.tif
  2
NAME
  10
412607.626
  20
4517967.750
 40
34.03732
  0
SEQEND
  0
POLYLINE
  8
LC_OH_2021_05_O7
  70
1
  66
1
  0
VERTEX
  8
LC_OH_2021_05_O7
  10
411618.512
  20
4519649.499
  0
VERTEX
  8
LC_OH_2021_05_O7
  10
411620.012
  20
4519651.499
  0
VERTEX
  8
LC_OH_2021_05_O7
  10
411649.512
  20
4519656.499
  0
VERTEX
  8
LC_OH_2021_05_O7
  10
412911.512
  20
4519868.499
  0
VERTEX
  8
LC_OH_2021_05_O7
  10
412914.512
  20
4519868.999
  0
VERTEX
  8
LC_OH_2021_05_O7
  10
413847.512
  20
4519550.999
  0
VERTEX
  8
LC_OH_2021_05_O7
  10
413667.512
  20
4516710.999
  0
VERTEX
  8
LC_OH_2021_05_O7
  10
412128.512
  20
4516066.499
  0
VERTEX
  8
LC_OH_2021_05_O7
  10
412127.012
  20
4516066.499
  0
VERTEX
  8
LC_OH_2021_05_O7
  10
412122.012
  20
4516070.499
  0
VERTEX
  8
LC_OH_2021_05_O7
  10
411354.512
  20
4516697.999
  0
VERTEX
  8
LC_OH_2021_05_O7
  10
411618.512
  20
4519649.499
  0
SEQEND
  8
LC_OH_2021_05_O7
  0
INSERT
  8
FeatureAttribs
  2
FEATURE
  41
1
  42
1
  43
1
  50
0
  10
403363.339
  20
4517953.248
 66
1
  0
ATTRIB
  8
FeatureAttribs
 70
0
  1
PNOA-H_AMS_1956-57_33k_ES_PAN_21mic_H50_0508_fot_59C-48014_W.tif
  2
NAME
  10
403363.339
  20
4517953.248
 40
34.03732
  0
SEQEND
  0
POLYLINE
  8
LC_OH_2021_05_O7
  70
1
  66
1
  0
VERTEX
  8
LC_OH_2021_05_O7
  10
402159.010
  20
4519525.999
  0
VERTEX
  8
LC_OH_2021_05_O7
  10
402168.010
  20
4519530.499
  0
VERTEX
  8
LC_OH_2021_05_O7
  10
402703.510
  20
4519784.499
  0
VERTEX
  8
LC_OH_2021_05_O7
  10
402706.010
  20
4519784.499
  0
VERTEX
  8
LC_OH_2021_05_O7
  10
404486.010
  20
4519478.499
  0
VERTEX
  8
LC_OH_2021_05_O7
  10
404591.510
  20
4516767.999
  0
VERTEX
  8
LC_OH_2021_05_O7
  10
404591.510
  20
4516754.999
  0
VERTEX
  8
LC_OH_2021_05_O7
  10
404592.010
  20
4516739.499
  0
VERTEX
  8
LC_OH_2021_05_O7
  10
403087.510
  20
4516121.999
  0
VERTEX
  8
LC_OH_2021_05_O7
  10
402198.010
  20
4516775.999
  0
VERTEX
  8
LC_OH_2021_05_O7
  10
402159.010
  20
4519522.499
  0
VERTEX
  8
LC_OH_2021_05_O7
  10
402159.010
  20
4519525.999
  0
SEQEND
  8
LC_OH_2021_05_O7
  0
INSERT
  8
FeatureAttribs
  2
FEATURE
  41
1
  42
1
  43
1
  50
0
  10
400936.051
  20
4517829.999
 66
1
  0
ATTRIB
  8
FeatureAttribs
 70
0
  1
PNOA-H_AMS_1956-57_33k_ES_PAN_21mic_H50_0508_fot_59C-48015_W.tif
  2
NAME
  10
400936.051
  20
4517829.999
 40
34.03732
  0
SEQEND
  0
POLYLINE
  8
LC_OH_2021_05_O7
  70
1
  66
1
  0
VERTEX
  8
LC_OH_2021_05_O7
  10
399856.649
  20
4519415.446
  0
VERTEX
  8
LC_OH_2021_05_O7
  10
400539.510
  20
4519634.499
  0
VERTEX
  8
LC_OH_2021_05_O7
  10
400541.510
  20
4519634.999
  0
VERTEX
  8
LC_OH_2021_05_O7
  10
402159.010
  20
4519525.999
  0
VERTEX
  8
LC_OH_2021_05_O7
  10
402198.010
  20
4516798.499
  0
VERTEX
  8
LC_OH_2021_05_O7
  10
402198.010
  20
4516775.999
  0
VERTEX
  8
LC_OH_2021_05_O7
  10
402196.010
  20
4516774.999
  0
VERTEX
  8
LC_OH_2021_05_O7
  10
400551.510
  20
4516024.999
  0
VERTEX
  8
LC_OH_2021_05_O7
  10
400550.010
  20
4516024.999
  0
VERTEX
  8
LC_OH_2021_05_O7
  10
400544.510
  20
4516030.499
  0
VERTEX
  8
LC_OH_2021_05_O7
  10
399820.749
  20
4516765.368
  0
VERTEX
  8
LC_OH_2021_05_O7
  10
399845.891
  20
4518621.523
  0
SEQEND
  8
LC_OH_2021_05_O7
  0
INSERT
  8
FeatureAttribs
  2
FEATURE
  41
1
  42
1
  43
1
  50
0
  10
405735.460
  20
4518033.499
 66
1
  0
ATTRIB
  8
FeatureAttribs
 70
0
  1
PNOA-H_AMS_1956-57_33k_ES_PAN_21mic_H50_0508_fot_59C-48013_W.tif
  2
NAME
  10
405735.460
  20
4518033.499
 40
34.03732
  0
SEQEND
  0
POLYLINE
  8
LC_OH_2021_05_O7
  70
1
  66
1
  0
VERTEX
  8
LC_OH_2021_05_O7
  10
405443.011
  20
4519854.499
  0
VERTEX
  8
LC_OH_2021_05_O7
  10
406637.011
  20
4519604.499
  0
VERTEX
  8
LC_OH_2021_05_O7
  10
406639.511
  20
4519603.999
  0
VERTEX
  8
LC_OH_2021_05_O7
  10
406914.511
  20
4519546.499
  0
VERTEX
  8
LC_OH_2021_05_O7
  10
406941.011
  20
4516723.499
  0
VERTEX
  8
LC_OH_2021_05_O7
  10
405330.011
  20
4516212.499
  0
VERTEX
  8
LC_OH_2021_05_O7
  10
404592.510
  20
4516739.499
  0
VERTEX
  8
LC_OH_2021_05_O7
  10
404486.010
  20
4519478.499
  0
VERTEX
  8
LC_OH_2021_05_O7
  10
405443.011
  20
4519854.499
  0
SEQEND
  8
LC_OH_2021_05_O7
  0
INSERT
  8
FeatureAttribs
  2
FEATURE
  41
1
  42
1
  43
1
  50
0
  10
413433.686
  20
4516370.249
 66
1
  0
ATTRIB
  8
FeatureAttribs
 70
0
  1
PNOA-H_AMS_1956-57_33k_ES_PAN_21mic_H50_0508_fot_000-51188_R.tif
  2
NAME
  10
413433.686
  20
4516370.249
 40
34.03732
  0
SEQEND
  0
POLYLINE
  8
LC_OH_2021_05_O7
  70
1
  66
1
  0
VERTEX
  8
LC_OH_2021_05_O7
  10
414030.012
  20
4516354.618
  0
VERTEX
  8
LC_OH_2021_05_O7
  10
414030.012
  20
4516029.999
  0
VERTEX
  8
LC_OH_2021_05_O7
  10
412127.786
  20
4516029.999
  0
VERTEX
  8
LC_OH_2021_05_O7
  10
412127.512
  20
4516066.499
  0
VERTEX
  8
LC_OH_2021_05_O7
  10
413665.012
  20
4516709.999
  0
VERTEX
  8
LC_OH_2021_05_O7
  10
413666.012
  20
4516710.499
  0
VERTEX
  8
LC_OH_2021_05_O7
  10
413669.512
  20
4516708.999
  0
VERTEX
  8
LC_OH_2021_05_O7
  10
414030.012
  20
4516354.618
  0
SEQEND
  8
LC_OH_2021_05_O7
  0
INSERT
  8
FeatureAttribs
  2
FEATURE
  41
1
  42
1
  43
1
  50
0
  10
411054.514
  20
4516363.999
 66
1
  0
ATTRIB
  8
FeatureAttribs
 70
0
  1
PNOA-H_AMS_1956-57_33k_ES_PAN_21mic_H50_0508_fot_000-51189_R.tif
  2
NAME
  10
411054.514
  20
4516363.999
 40
34.03732
  0
SEQEND
  0
POLYLINE
  8
LC_OH_2021_05_O7
  70
1
  66
1
  0
VERTEX
  8
LC_OH_2021_05_O7
  10
412127.786
  20
4516029.999
  0
VERTEX
  8
LC_OH_2021_05_O7
  10
409886.484
  20
4516029.999
  0
VERTEX
  8
LC_OH_2021_05_O7
  10
409885.011
  20
4516211.499
  0
VERTEX
  8
LC_OH_2021_05_O7
  10
411351.512
  20
4516697.499
  0
VERTEX
  8
LC_OH_2021_05_O7
  10
411353.012
  20
4516697.999
  0
VERTEX
  8
LC_OH_2021_05_O7
  10
411355.512
  20
4516697.999
  0
VERTEX
  8
LC_OH_2021_05_O7
  10
411358.012
  20
4516695.999
  0
VERTEX
  8
LC_OH_2021_05_O7
  10
412127.512
  20
4516066.499
  0
VERTEX
  8
LC_OH_2021_05_O7
  10
412127.786
  20
4516029.999
  0
SEQEND
  8
LC_OH_2021_05_O7
  0
INSERT
  8
FeatureAttribs
  2
FEATURE
  41
1
  42
1
  43
1
  50
0
  10
408866.805
  20
4516384.499
 66
1
  0
ATTRIB
  8
FeatureAttribs
 70
0
  1
PNOA-H_AMS_1956-57_33k_ES_PAN_21mic_H50_0508_fot_000-51190_R.tif
  2
NAME
  10
408866.805
  20
4516384.499
 40
34.03732
  0
SEQEND
  0
POLYLINE
  8
LC_OH_2021_05_O7
  70
1
  66
1
  0
VERTEX
  8
LC_OH_2021_05_O7
  10
409886.484
  20
4516029.999
  0
VERTEX
  8
LC_OH_2021_05_O7
  10
407599.185
  20
4516029.999
  0
VERTEX
  8
LC_OH_2021_05_O7
  10
407594.011
  20
4516230.499
  0
VERTEX
  8
LC_OH_2021_05_O7
  10
409186.011
  20
4516738.499
  0
VERTEX
  8
LC_OH_2021_05_O7
  10
409187.511
  20
4516738.999
  0
VERTEX
  8
LC_OH_2021_05_O7
  10
409189.511
  20
4516738.999
  0
VERTEX
  8
LC_OH_2021_05_O7
  10
409193.011
  20
4516736.499
  0
VERTEX
  8
LC_OH_2021_05_O7
  10
409885.011
  20
4516211.499
  0
VERTEX
  8
LC_OH_2021_05_O7
  10
409886.484
  20
4516029.999
  0
SEQEND
  8
LC_OH_2021_05_O7
  0
INSERT
  8
FeatureAttribs
  2
FEATURE
  41
1
  42
1
  43
1
  50
0
  10
404193.477
  20
4515279.750
 66
1
  0
ATTRIB
  8
FeatureAttribs
 70
0
  1
PNOA-H_AMS_1956-57_33k_ES_PAN_21mic_H50_0508_fot_000-51192_R.tif
  2
NAME
  10
404193.477
  20
4515279.750
 40
34.03732
  0
SEQEND
  0
POLYLINE
  8
LC_OH_2021_05_O7
  70
1
  66
1
  0
VERTEX
  8
LC_OH_2021_05_O7
  10
403088.010
  20
4516121.999
  0
VERTEX
  8
LC_OH_2021_05_O7
  10
404590.510
  20
4516739.499
  0
VERTEX
  8
LC_OH_2021_05_O7
  10
404592.010
  20
4516739.999
  0
VERTEX
  8
LC_OH_2021_05_O7
  10
405330.511
  20
4516212.499
  0
VERTEX
  8
LC_OH_2021_05_O7
  10
405337.011
  20
4513819.499
  0
VERTEX
  8
LC_OH_2021_05_O7
  10
402996.010
  20
4513849.999
  0
VERTEX
  8
LC_OH_2021_05_O7
  10
403088.010
  20
4516121.999
  0
SEQEND
  8
LC_OH_2021_05_O7
  0
INSERT
  8
FeatureAttribs
  2
FEATURE
  41
1
  42
1
  43
1
  50
0
  10
401785.569
  20
4515253.249
 66
1
  0
ATTRIB
  8
FeatureAttribs
 70
0
  1
PNOA-H_AMS_1956-57_33k_ES_PAN_21mic_H50_0508_fot_000-51193_R.tif
  2
NAME
  10
401785.569
  20
4515253.249
 40
34.03732
  0
SEQEND
  0
POLYLINE
  8
LC_OH_2021_05_O7
  70
1
  66
1
  0
VERTEX
  8
LC_OH_2021_05_O7
  10
400550.510
  20
4516024.999
  0
VERTEX
  8
LC_OH_2021_05_O7
  10
402197.010
  20
4516775.999
  0
VERTEX
  8
LC_OH_2021_05_O7
  10
402199.010
  20
4516775.999
  0
VERTEX
  8
LC_OH_2021_05_O7
  10
402543.010
  20
4516522.999
  0
VERTEX
  8
LC_OH_2021_05_O7
  10
402543.510
  20
4516521.999
  0
VERTEX
  8
LC_OH_2021_05_O7
  10
403088.010
  20
4516121.999
  0
VERTEX
  8
LC_OH_2021_05_O7
  10
402996.010
  20
4513849.499
  0
VERTEX
  8
LC_OH_2021_05_O7
  10
402832.010
  20
4513731.999
  0
VERTEX
  8
LC_OH_2021_05_O7
  10
402829.510
  20
4513730.499
  0
VERTEX
  8
LC_OH_2021_05_O7
  10
402825.010
  20
4513730.499
  0
VERTEX
  8
LC_OH_2021_05_O7
  10
400466.010
  20
4514000.499
  0
SEQEND
  8
LC_OH_2021_05_O7
  0
INSERT
  8
FeatureAttribs
  2
FEATURE
  41
1
  42
1
  43
1
  50
0
  10
406141.551
  20
4515264.000
 66
1
  0
ATTRIB
  8
FeatureAttribs
 70
0
  1
PNOA-H_AMS_1956-57_33k_ES_PAN_21mic_H50_0508_fot_000-51191_R.tif
  2
NAME
  10
406141.551
  20
4515264.000
 40
34.03732
  0
SEQEND
  0
POLYLINE
  8
LC_OH_2021_05_O7
  70
1
  66
1
  0
VERTEX
  8
LC_OH_2021_05_O7
  10
407599.227
  20
4516029.999
  0
VERTEX
  8
LC_OH_2021_05_O7
  10
406950.011
  20
4516029.999
  0
VERTEX
  8
LC_OH_2021_05_O7
  10
406950.011
  20
4513900.891
  0
VERTEX
  8
LC_OH_2021_05_O7
  10
405358.511
  20
4513804.499
  0
VERTEX
  8
LC_OH_2021_05_O7
  10
405357.011
  20
4513804.499
  0
VERTEX
  8
LC_OH_2021_05_O7
  10
405337.011
  20
4513819.499
  0
VERTEX
  8
LC_OH_2021_05_O7
  10
405330.511
  20
4516212.499
  0
VERTEX
  8
LC_OH_2021_05_O7
  10
406938.011
  20
4516722.999
  0
VERTEX
  8
LC_OH_2021_05_O7
  10
406939.511
  20
4516723.499
  0
VERTEX
  8
LC_OH_2021_05_O7
  10
406941.511
  20
4516723.499
  0
VERTEX
  8
LC_OH_2021_05_O7
  10
406949.011
  20
4516717.999
  0
VERTEX
  8
LC_OH_2021_05_O7
  10
407594.011
  20
4516230.499
  0
VERTEX
  8
LC_OH_2021_05_O7
  10
407599.227
  20
4516029.999
  0
SEQEND
  8
LC_OH_2021_05_O7
  0
INSERT
  8
FeatureAttribs
  2
FEATURE
  41
1
  42
1
  43
1
  50
0
  10
400165.733
  20
4515276.860
 66
1
  0
ATTRIB
  8
FeatureAttribs
 70
0
  1
PNOA-H_AMS_1956-57_33k_ES_PAN_21mic_H50_0508_fot_000-51194_R.tif
  2
NAME
  10
400165.733
  20
4515276.860
 40
34.03732
  0
SEQEND
  0
POLYLINE
  8
LC_OH_2021_05_O7
  70
1
  66
1
  0
VERTEX
  8
LC_OH_2021_05_O7
  10
399820.761
  20
4516766.220
  0
VERTEX
  8
LC_OH_2021_05_O7
  10
400550.510
  20
4516024.999
  0
VERTEX
  8
LC_OH_2021_05_O7
  10
400486.510
  20
4514501.499
  0
VERTEX
  8
LC_OH_2021_05_O7
  10
400486.510
  20
4514494.499
  0
VERTEX
  8
LC_OH_2021_05_O7
  10
400466.010
  20
4514000.499
  0
VERTEX
  8
LC_OH_2021_05_O7
  10
400168.010
  20
4513787.499
  0
VERTEX
  8
LC_OH_2021_05_O7
  10
399780.957
  20
4513826.484
  0
VERTEX
  8
LC_OH_2021_05_O7
  10
399783.253
  20
4513996.148
  0
VERTEX
  8
LC_OH_2021_05_O7
  10
399814.565
  20
4516308.831
  0
SEQEND
  8
LC_OH_2021_05_O7
  0
INSERT
  8
FeatureAttribs
  2
FEATURE
  41
1
  42
1
  43
1
  50
0
  10
399957.850
  20
4512089.384
 66
1
  0
ATTRIB
  8
FeatureAttribs
 70
0
  1
PNOA-H_AMS_1956-57_33k_ES_PAN_21mic_H50_0507_fot_60C-47035_W.tif
  2
NAME
  10
399957.850
  20
4512089.384
 40
34.03732
  0
SEQEND
  0
POLYLINE
  8
LC_OH_2021_05_O7
  70
1
  66
1
  0
VERTEX
  8
LC_OH_2021_05_O7
  10
399780.956
  20
4513826.419
  0
VERTEX
  8
LC_OH_2021_05_O7
  10
400168.010
  20
4513787.499
  0
VERTEX
  8
LC_OH_2021_05_O7
  10
400181.755
  20
4511489.999
  0
VERTEX
  8
LC_OH_2021_05_O7
  10
399860.010
  20
4511489.999
  0
VERTEX
  8
LC_OH_2021_05_O7
  10
399860.010
  20
4510401.170
  0
VERTEX
  8
LC_OH_2021_05_O7
  10
399733.946
  20
4510352.350
  0
VERTEX
  8
LC_OH_2021_05_O7
  10
399751.954
  20
4511683.472
  0
SEQEND
  8
LC_OH_2021_05_O7
  0
INSERT
  8
FeatureAttribs
  2
FEATURE
  41
1
  42
1
  43
1
  50
0
  10
404120.848
  20
4512669.999
 66
1
  0
ATTRIB
  8
FeatureAttribs
 70
0
  1
PNOA-H_AMS_1956-57_33k_ES_PAN_21mic_H50_0508_fot_60C-47033_W.tif
  2
NAME
  10
404120.848
  20
4512669.999
 40
34.03732
  0
SEQEND
  0
POLYLINE
  8
LC_OH_2021_05_O7
  70
1
  66
1
  0
VERTEX
  8
LC_OH_2021_05_O7
  10
405430.438
  20
4511489.999
  0
VERTEX
  8
LC_OH_2021_05_O7
  10
402870.050
  20
4511489.999
  0
VERTEX
  8
LC_OH_2021_05_O7
  10
402829.010
  20
4513730.499
  0
VERTEX
  8
LC_OH_2021_05_O7
  10
402996.010
  20
4513849.999
  0
VERTEX
  8
LC_OH_2021_05_O7
  10
404559.510
  20
4513829.499
  0
VERTEX
  8
LC_OH_2021_05_O7
  10
404591.510
  20
4513829.499
  0
VERTEX
  8
LC_OH_2021_05_O7
  10
405331.511
  20
4513819.999
  0
VERTEX
  8
LC_OH_2021_05_O7
  10
405337.511
  20
4513819.499
  0
VERTEX
  8
LC_OH_2021_05_O7
  10
405357.511
  20
4513804.499
  0
VERTEX
  8
LC_OH_2021_05_O7
  10
405430.438
  20
4511489.999
  0
SEQEND
  8
LC_OH_2021_05_O7
  0
INSERT
  8
FeatureAttribs
  2
FEATURE
  41
1
  42
1
  43
1
  50
0
  10
406171.234
  20
4512695.554
 66
1
  0
ATTRIB
  8
FeatureAttribs
 70
0
  1
PNOA-H_AMS_1956-57_33k_ES_PAN_21mic_H50_0508_fot_60C-47032_W.tif
  2
NAME
  10
406171.234
  20
4512695.554
 40
34.03732
  0
SEQEND
  0
POLYLINE
  8
LC_OH_2021_05_O7
  70
1
  66
1
  0
VERTEX
  8
LC_OH_2021_05_O7
  10
406950.011
  20
4513901.110
  0
VERTEX
  8
LC_OH_2021_05_O7
  10
406950.011
  20
4511489.999
  0
VERTEX
  8
LC_OH_2021_05_O7
  10
405430.438
  20
4511489.999
  0
VERTEX
  8
LC_OH_2021_05_O7
  10
405357.511
  20
4513804.499
  0
VERTEX
  8
LC_OH_2021_05_O7
  10
406950.011
  20
4513901.110
  0
SEQEND
  8
LC_OH_2021_05_O7
  0
INSERT
  8
FeatureAttribs
  2
FEATURE
  41
1
  42
1
  43
1
  50
0
  10
401510.648
  20
4512745.250
 66
1
  0
ATTRIB
  8
FeatureAttribs
 70
0
  1
PNOA-H_AMS_1956-57_33k_ES_PAN_21mic_H50_0508_fot_60C-47034_W.tif
  2
NAME
  10
401510.648
  20
4512745.250
 40
34.03732
  0
SEQEND
  0
POLYLINE
  8
LC_OH_2021_05_O7
  70
1
  66
1
  0
VERTEX
  8
LC_OH_2021_05_O7
  10
400464.510
  20
4513999.499
  0
VERTEX
  8
LC_OH_2021_05_O7
  10
400465.010
  20
4514000.499
  0
VERTEX
  8
LC_OH_2021_05_O7
  10
402829.010
  20
4513730.499
  0
VERTEX
  8
LC_OH_2021_05_O7
  10
402870.050
  20
4511489.999
  0
VERTEX
  8
LC_OH_2021_05_O7
  10
400181.755
  20
4511489.999
  0
VERTEX
  8
LC_OH_2021_05_O7
  10
400168.010
  20
4513787.999
  0
SEQEND
  8
LC_OH_2021_05_O7
  0
INSERT
  8
FeatureAttribs
  2
FEATURE
  41
1
  42
1
  43
1
  50
0
  10
399708.450
  20
4504186.599
 66
1
  0
ATTRIB
  8
FeatureAttribs
 70
0
  1
PNOA-H_AMS_1956-57_33k_ES_PAN_21mic_H50_0508_fot_62C-05388_E.tif
  2
NAME
  10
399708.450
  20
4504186.599
 40
34.03732
  0
SEQEND
  0
POLYLINE
  8
LC_OH_2021_05_O7
  70
1
  66
1
  0
VERTEX
  8
LC_OH_2021_05_O7
  10
399790.010
  20
4502430.685
  0
VERTEX
  8
LC_OH_2021_05_O7
  10
399626.890
  20
4502432.850
  0
VERTEX
  8
LC_OH_2021_05_O7
  10
399658.136
  20
4504745.494
  0
VERTEX
  8
LC_OH_2021_05_O7
  10
399674.316
  20
4505942.513
  0
VERTEX
  8
LC_OH_2021_05_O7
  10
399790.010
  20
4505933.859
  0
SEQEND
  8
LC_OH_2021_05_O7
  0
INSERT
  8
FeatureAttribs
  2
FEATURE
  41
1
  42
1
  43
1
  50
0
  10
401613.180
  20
4520282.999
 66
1
  0
ATTRIB
  8
FeatureAttribs
 70
0
  1
PNOA-H_AMS_1956-57_33k_ES_PAN_21mic_H50_0483_fot_58D-42409_W.tif
  2
NAME
  10
401613.180
  20
4520282.999
 40
34.03732
  0
SEQEND
  0
POLYLINE
  8
LC_OH_2021_05_O7
  70
1
  66
1
  0
VERTEX
  8
LC_OH_2021_05_O7
  10
402706.118
  20
4520896.553
  0
VERTEX
  8
LC_OH_2021_05_O7
  10
402704.510
  20
4519784.499
  0
VERTEX
  8
LC_OH_2021_05_O7
  10
402160.010
  20
4519525.999
  0
VERTEX
  8
LC_OH_2021_05_O7
  10
400542.510
  20
4519634.999
  0
VERTEX
  8
LC_OH_2021_05_O7
  10
400499.884
  20
4520925.931
  0
SEQEND
  8
LC_OH_2021_05_O7
  0
INSERT
  8
FeatureAttribs
  2
FEATURE
  41
1
  42
1
  43
1
  50
0
  10
404068.050
  20
4520259.250
 66
1
  0
ATTRIB
  8
FeatureAttribs
 70
0
  1
PNOA-H_AMS_1956-57_33k_ES_PAN_21mic_H50_0483_fot_58D-42408_W.tif
  2
NAME
  10
404068.050
  20
4520259.250
 40
34.03732
  0
SEQEND
  0
POLYLINE
  8
LC_OH_2021_05_O7
  70
1
  66
1
  0
VERTEX
  8
LC_OH_2021_05_O7
  10
405413.213
  20
4520861.468
  0
VERTEX
  8
LC_OH_2021_05_O7
  10
405443.511
  20
4519854.499
  0
VERTEX
  8
LC_OH_2021_05_O7
  10
404487.010
  20
4519478.499
  0
VERTEX
  8
LC_OH_2021_05_O7
  10
402708.510
  20
4519783.499
  0
VERTEX
  8
LC_OH_2021_05_O7
  10
402704.510
  20
4519784.499
  0
VERTEX
  8
LC_OH_2021_05_O7
  10
402704.510
  20
4520107.999
  0
VERTEX
  8
LC_OH_2021_05_O7
  10
402705.756
  20
4520896.558
  0
VERTEX
  8
LC_OH_2021_05_O7
  10
403390.380
  20
4520887.442
  0
SEQEND
  8
LC_OH_2021_05_O7
  0
ENDSEC
  0
EOF
