  0
SECTION
  2
HEADER
  9
$ACADVER
  1
AC1009
  9
$LUNITS
  70
2
  9
$LIMMIN
  10
371451.082
  20
4502432.850
  9
$LIMMAX
  10
399877.230
  20
4521368.642
  9
$EXTMIN
  10
371451.082
  20
4502432.850
  9
$EXTMAX
  10
399877.230
  20
4521368.642
  999
Created by Global Mapper
  999
Projection: UTM
  999
Datum: ETRS89
  999
Ground Units: meters
  999
ZONE: 30
  0
ENDSEC
  0
SECTION
  2
TABLES
  0
ENDSEC
  0
SECTION
  2
BLOCKS
  0
BLOCK
  8
FeatureAttribs
  70
0
  2
FEATURE
  3
FEATURE
  10
0.00000000
  20
0.00000000
  0
ATTDEF
  8
FeatureAttribs
  70
0
  1
 
  2
NAME
  3
NAME
  10
0.00000000
  20
0.00000000
  40
1.00000000
  0
ENDBLK
  0
ENDSEC
  0
SECTION
  2
ENTITIES
  0
INSERT
  8
FeatureAttribs
  2
FEATURE
  41
1
  42
1
  43
1
  50
0
  10
372173.430
  20
4520620.071
 66
1
  0
ATTRIB
  8
FeatureAttribs
 70
0
  1
PNOA-H_AMS_1956-57_33k_ES_PAN_21mic_H50_0481_fot_58C-35952_W.tif
  2
NAME
  10
372173.430
  20
4520620.071
 40
34.15567
  0
SEQEND
  0
POLYLINE
  8
LC_OH_2021_05_O7
  70
1
  66
1
  0
VERTEX
  8
LC_OH_2021_05_O7
  10
372600.140
  20
4521354.458
  0
VERTEX
  8
LC_OH_2021_05_O7
  10
372500.506
  20
4520053.000
  0
VERTEX
  8
LC_OH_2021_05_O7
  10
372085.006
  20
4519871.500
  0
VERTEX
  8
LC_OH_2021_05_O7
  10
371746.721
  20
4519927.774
  0
VERTEX
  8
LC_OH_2021_05_O7
  10
371771.729
  20
4521368.642
  0
SEQEND
  8
LC_OH_2021_05_O7
  0
INSERT
  8
FeatureAttribs
  2
FEATURE
  41
1
  42
1
  43
1
  50
0
  10
391176.536
  20
4520331.249
 66
1
  0
ATTRIB
  8
FeatureAttribs
 70
0
  1
PNOA-H_AMS_1956-57_33k_ES_PAN_21mic_H50_0482_fot_58C-35945_W.tif
  2
NAME
  10
391176.536
  20
4520331.249
 40
34.15567
  0
SEQEND
  0
POLYLINE
  8
LC_OH_2021_05_O7
  70
1
  66
1
  0
VERTEX
  8
LC_OH_2021_05_O7
  10
391973.113
  20
4521045.739
  0
VERTEX
  8
LC_OH_2021_05_O7
  10
392161.508
  20
4519678.000
  0
VERTEX
  8
LC_OH_2021_05_O7
  10
392161.008
  20
4519674.000
  0
VERTEX
  8
LC_OH_2021_05_O7
  10
392143.008
  20
4519665.000
  0
VERTEX
  8
LC_OH_2021_05_O7
  10
391647.508
  20
4519422.500
  0
VERTEX
  8
LC_OH_2021_05_O7
  10
390229.508
  20
4519742.000
  0
VERTEX
  8
LC_OH_2021_05_O7
  10
390230.508
  20
4519762.500
  0
VERTEX
  8
LC_OH_2021_05_O7
  10
390255.008
  20
4520030.000
  0
VERTEX
  8
LC_OH_2021_05_O7
  10
390255.008
  20
4520035.500
  0
VERTEX
  8
LC_OH_2021_05_O7
  10
390347.754
  20
4521069.702
  0
SEQEND
  8
LC_OH_2021_05_O7
  0
INSERT
  8
FeatureAttribs
  2
FEATURE
  41
1
  42
1
  43
1
  50
0
  10
397035.660
  20
4520283.749
 66
1
  0
ATTRIB
  8
FeatureAttribs
 70
0
  1
PNOA-H_AMS_1956-57_33k_ES_PAN_21mic_H50_0482_fot_58C-35943_W.tif
  2
NAME
  10
397035.660
  20
4520283.749
 40
34.15567
  0
SEQEND
  0
POLYLINE
  8
LC_OH_2021_05_O7
  70
1
  66
1
  0
VERTEX
  8
LC_OH_2021_05_O7
  10
398199.974
  20
4520957.355
  0
VERTEX
  8
LC_OH_2021_05_O7
  10
398185.509
  20
4519792.999
  0
VERTEX
  8
LC_OH_2021_05_O7
  10
397184.009
  20
4519428.499
  0
VERTEX
  8
LC_OH_2021_05_O7
  10
397178.009
  20
4519427.499
  0
VERTEX
  8
LC_OH_2021_05_O7
  10
395772.009
  20
4519718.500
  0
VERTEX
  8
LC_OH_2021_05_O7
  10
396013.806
  20
4520987.672
  0
VERTEX
  8
LC_OH_2021_05_O7
  10
396364.073
  20
4520982.675
  0
SEQEND
  8
LC_OH_2021_05_O7
  0
INSERT
  8
FeatureAttribs
  2
FEATURE
  41
1
  42
1
  43
1
  50
0
  10
385442.164
  20
4520458.500
 66
1
  0
ATTRIB
  8
FeatureAttribs
 70
0
  1
PNOA-H_AMS_1956-57_33k_ES_PAN_21mic_H50_0482_fot_58C-35947_W.tif
  2
NAME
  10
385442.164
  20
4520458.500
 40
34.15567
  0
SEQEND
  0
POLYLINE
  8
LC_OH_2021_05_O7
  70
1
  66
1
  0
VERTEX
  8
LC_OH_2021_05_O7
  10
386139.296
  20
4521133.269
  0
VERTEX
  8
LC_OH_2021_05_O7
  10
386137.008
  20
4520685.000
  0
VERTEX
  8
LC_OH_2021_05_O7
  10
386137.008
  20
4520638.500
  0
VERTEX
  8
LC_OH_2021_05_O7
  10
386131.508
  20
4519557.000
  0
VERTEX
  8
LC_OH_2021_05_O7
  10
384763.507
  20
4519714.000
  0
VERTEX
  8
LC_OH_2021_05_O7
  10
384733.938
  20
4521155.176
  0
VERTEX
  8
LC_OH_2021_05_O7
  10
385824.551
  20
4521138.059
  0
SEQEND
  8
LC_OH_2021_05_O7
  0
INSERT
  8
FeatureAttribs
  2
FEATURE
  41
1
  42
1
  43
1
  50
0
  10
393982.784
  20
4520284.749
 66
1
  0
ATTRIB
  8
FeatureAttribs
 70
0
  1
PNOA-H_AMS_1956-57_33k_ES_PAN_21mic_H50_0482_fot_58C-35944_W.tif
  2
NAME
  10
393982.784
  20
4520284.749
 40
34.15567
  0
SEQEND
  0
POLYLINE
  8
LC_OH_2021_05_O7
  70
1
  66
1
  0
VERTEX
  8
LC_OH_2021_05_O7
  10
394860.639
  20
4521004.125
  0
VERTEX
  8
LC_OH_2021_05_O7
  10
395054.509
  20
4519669.500
  0
VERTEX
  8
LC_OH_2021_05_O7
  10
395053.009
  20
4519667.500
  0
VERTEX
  8
LC_OH_2021_05_O7
  10
394543.009
  20
4519429.500
  0
VERTEX
  8
LC_OH_2021_05_O7
  10
392898.009
  20
4519740.500
  0
VERTEX
  8
LC_OH_2021_05_O7
  10
393140.396
  20
4521028.668
  0
SEQEND
  8
LC_OH_2021_05_O7
  0
INSERT
  8
FeatureAttribs
  2
FEATURE
  41
1
  42
1
  43
1
  50
0
  10
399356.729
  20
4520248.499
 66
1
  0
ATTRIB
  8
FeatureAttribs
 70
0
  1
PNOA-H_AMS_1956-57_33k_ES_PAN_21mic_H50_0482_fot_58C-35942_W.tif
  2
NAME
  10
399356.729
  20
4520248.499
 40
34.15567
  0
SEQEND
  0
POLYLINE
  8
LC_OH_2021_05_O7
  70
1
  66
1
  0
VERTEX
  8
LC_OH_2021_05_O7
  10
399856.650
  20
4519415.461
  0
VERTEX
  8
LC_OH_2021_05_O7
  10
399674.010
  20
4519356.999
  0
VERTEX
  8
LC_OH_2021_05_O7
  10
398185.509
  20
4519792.499
  0
VERTEX
  8
LC_OH_2021_05_O7
  10
398199.979
  20
4520957.355
  0
VERTEX
  8
LC_OH_2021_05_O7
  10
399877.230
  20
4520934.223
  0
SEQEND
  8
LC_OH_2021_05_O7
  0
INSERT
  8
FeatureAttribs
  2
FEATURE
  41
1
  42
1
  43
1
  50
0
  10
395425.326
  20
4520404.249
 66
1
  0
ATTRIB
  8
FeatureAttribs
 70
0
  1
PNOA-H_AMS_1956-57_33k_ES_PAN_21mic_H50_0482_fot_000-42411_R.tif
  2
NAME
  10
395425.326
  20
4520404.249
 40
34.15567
  0
SEQEND
  0
POLYLINE
  8
LC_OH_2021_05_O7
  70
1
  66
1
  0
VERTEX
  8
LC_OH_2021_05_O7
  10
396014.088
  20
4520987.668
  0
VERTEX
  8
LC_OH_2021_05_O7
  10
395772.509
  20
4519719.000
  0
VERTEX
  8
LC_OH_2021_05_O7
  10
395756.509
  20
4519717.000
  0
VERTEX
  8
LC_OH_2021_05_O7
  10
395054.509
  20
4519668.500
  0
VERTEX
  8
LC_OH_2021_05_O7
  10
394860.496
  20
4521004.127
  0
SEQEND
  8
LC_OH_2021_05_O7
  0
INSERT
  8
FeatureAttribs
  2
FEATURE
  41
1
  42
1
  43
1
  50
0
  10
388294.872
  20
4520406.500
 66
1
  0
ATTRIB
  8
FeatureAttribs
 70
0
  1
PNOA-H_AMS_1956-57_33k_ES_PAN_21mic_H50_0482_fot_58C-35946_W.tif
  2
NAME
  10
388294.872
  20
4520406.500
 40
34.15567
  0
SEQEND
  0
POLYLINE
  8
LC_OH_2021_05_O7
  70
1
  66
1
  0
VERTEX
  8
LC_OH_2021_05_O7
  10
389019.644
  20
4521089.434
  0
VERTEX
  8
LC_OH_2021_05_O7
  10
389087.508
  20
4519661.000
  0
VERTEX
  8
LC_OH_2021_05_O7
  10
388896.508
  20
4519573.000
  0
VERTEX
  8
LC_OH_2021_05_O7
  10
387528.508
  20
4519717.000
  0
VERTEX
  8
LC_OH_2021_05_O7
  10
387522.008
  20
4519718.000
  0
VERTEX
  8
LC_OH_2021_05_O7
  10
387522.008
  20
4519722.500
  0
VERTEX
  8
LC_OH_2021_05_O7
  10
387553.752
  20
4521111.743
  0
SEQEND
  8
LC_OH_2021_05_O7
  0
INSERT
  8
FeatureAttribs
  2
FEATURE
  41
1
  42
1
  43
1
  50
0
  10
382659.875
  20
4520465.750
 66
1
  0
ATTRIB
  8
FeatureAttribs
 70
0
  1
PNOA-H_AMS_1956-57_33k_ES_PAN_21mic_H50_0482_fot_58C-35948_W.tif
  2
NAME
  10
382659.875
  20
4520465.750
 40
34.15567
  0
SEQEND
  0
POLYLINE
  8
LC_OH_2021_05_O7
  70
1
  66
1
  0
VERTEX
  8
LC_OH_2021_05_O7
  10
383276.275
  20
4521178.053
  0
VERTEX
  8
LC_OH_2021_05_O7
  10
383198.507
  20
4519573.500
  0
VERTEX
  8
LC_OH_2021_05_O7
  10
383198.007
  20
4519571.500
  0
VERTEX
  8
LC_OH_2021_05_O7
  10
383196.007
  20
4519571.500
  0
VERTEX
  8
LC_OH_2021_05_O7
  10
382142.007
  20
4519714.500
  0
VERTEX
  8
LC_OH_2021_05_O7
  10
382139.507
  20
4519715.000
  0
VERTEX
  8
LC_OH_2021_05_O7
  10
382139.007
  20
4519716.500
  0
VERTEX
  8
LC_OH_2021_05_O7
  10
382018.376
  20
4521197.935
  0
VERTEX
  8
LC_OH_2021_05_O7
  10
382311.359
  20
4521193.197
  0
SEQEND
  8
LC_OH_2021_05_O7
  0
INSERT
  8
FeatureAttribs
  2
FEATURE
  41
1
  42
1
  43
1
  50
0
  10
381257.923
  20
4520445.250
 66
1
  0
ATTRIB
  8
FeatureAttribs
 70
0
  1
PNOA-H_AMS_1956-57_33k_ES_PAN_21mic_H50_0482_fot_000-42416_R.tif
  2
NAME
  10
381257.923
  20
4520445.250
 40
34.15567
  0
SEQEND
  0
POLYLINE
  8
LC_OH_2021_05_O7
  70
1
  66
1
  0
VERTEX
  8
LC_OH_2021_05_O7
  10
382018.862
  20
4521197.927
  0
VERTEX
  8
LC_OH_2021_05_O7
  10
382064.007
  20
4520643.500
  0
VERTEX
  8
LC_OH_2021_05_O7
  10
382064.007
  20
4520638.500
  0
VERTEX
  8
LC_OH_2021_05_O7
  10
382139.507
  20
4519715.000
  0
VERTEX
  8
LC_OH_2021_05_O7
  10
380481.007
  20
4519530.500
  0
VERTEX
  8
LC_OH_2021_05_O7
  10
380476.507
  20
4519531.000
  0
VERTEX
  8
LC_OH_2021_05_O7
  10
380369.507
  20
4519589.500
  0
VERTEX
  8
LC_OH_2021_05_O7
  10
380496.460
  20
4521222.545
  0
SEQEND
  8
LC_OH_2021_05_O7
  0
INSERT
  8
FeatureAttribs
  2
FEATURE
  41
1
  42
1
  43
1
  50
0
  10
379334.941
  20
4520530.000
 66
1
  0
ATTRIB
  8
FeatureAttribs
 70
0
  1
PNOA-H_AMS_1956-57_33k_ES_PAN_21mic_H50_0482_fot_58C-35949_W.tif
  2
NAME
  10
379334.941
  20
4520530.000
 40
34.15567
  0
SEQEND
  0
POLYLINE
  8
LC_OH_2021_05_O7
  70
1
  66
1
  0
VERTEX
  8
LC_OH_2021_05_O7
  10
380496.435
  20
4521222.545
  0
VERTEX
  8
LC_OH_2021_05_O7
  10
380369.507
  20
4519590.000
  0
VERTEX
  8
LC_OH_2021_05_O7
  10
378207.007
  20
4519850.500
  0
VERTEX
  8
LC_OH_2021_05_O7
  10
378249.053
  20
4521259.148
  0
VERTEX
  8
LC_OH_2021_05_O7
  10
378798.159
  20
4521250.007
  0
SEQEND
  8
LC_OH_2021_05_O7
  0
INSERT
  8
FeatureAttribs
  2
FEATURE
  41
1
  42
1
  43
1
  50
0
  10
386836.356
  20
4520364.250
 66
1
  0
ATTRIB
  8
FeatureAttribs
 70
0
  1
PNOA-H_AMS_1956-57_33k_ES_PAN_21mic_H50_0482_fot_000-42414_R.tif
  2
NAME
  10
386836.356
  20
4520364.250
 40
34.15567
  0
SEQEND
  0
POLYLINE
  8
LC_OH_2021_05_O7
  70
1
  66
1
  0
VERTEX
  8
LC_OH_2021_05_O7
  10
387554.135
  20
4521111.737
  0
VERTEX
  8
LC_OH_2021_05_O7
  10
387522.508
  20
4519722.500
  0
VERTEX
  8
LC_OH_2021_05_O7
  10
387522.008
  20
4519718.000
  0
VERTEX
  8
LC_OH_2021_05_O7
  10
387521.008
  20
4519717.500
  0
VERTEX
  8
LC_OH_2021_05_O7
  10
386268.508
  20
4519488.500
  0
VERTEX
  8
LC_OH_2021_05_O7
  10
386131.508
  20
4519557.000
  0
VERTEX
  8
LC_OH_2021_05_O7
  10
386139.459
  20
4521133.267
  0
SEQEND
  8
LC_OH_2021_05_O7
  0
INSERT
  8
FeatureAttribs
  2
FEATURE
  41
1
  42
1
  43
1
  50
0
  10
389671.208
  20
4520450.500
 66
1
  0
ATTRIB
  8
FeatureAttribs
 70
0
  1
PNOA-H_AMS_1956-57_33k_ES_PAN_21mic_H50_0482_fot_000-42413_R.tif
  2
NAME
  10
389671.208
  20
4520450.500
 40
34.15567
  0
SEQEND
  0
POLYLINE
  8
LC_OH_2021_05_O7
  70
1
  66
1
  0
VERTEX
  8
LC_OH_2021_05_O7
  10
390347.999
  20
4521069.698
  0
VERTEX
  8
LC_OH_2021_05_O7
  10
390229.008
  20
4519742.500
  0
VERTEX
  8
LC_OH_2021_05_O7
  10
389087.508
  20
4519661.000
  0
VERTEX
  8
LC_OH_2021_05_O7
  10
389019.518
  20
4521089.436
  0
VERTEX
  8
LC_OH_2021_05_O7
  10
389337.733
  20
4521084.593
  0
SEQEND
  8
LC_OH_2021_05_O7
  0
INSERT
  8
FeatureAttribs
  2
FEATURE
  41
1
  42
1
  43
1
  50
0
  10
373989.314
  20
4520579.750
 66
1
  0
ATTRIB
  8
FeatureAttribs
 70
0
  1
PNOA-H_AMS_1956-57_33k_ES_PAN_21mic_H50_0482_fot_58C-35951_W.tif
  2
NAME
  10
373989.314
  20
4520579.750
 40
34.15567
  0
SEQEND
  0
POLYLINE
  8
LC_OH_2021_05_O7
  70
1
  66
1
  0
VERTEX
  8
LC_OH_2021_05_O7
  10
375462.166
  20
4521305.538
  0
VERTEX
  8
LC_OH_2021_05_O7
  10
375415.506
  20
4519916.500
  0
VERTEX
  8
LC_OH_2021_05_O7
  10
375405.506
  20
4519911.500
  0
VERTEX
  8
LC_OH_2021_05_O7
  10
374942.506
  20
4519689.500
  0
VERTEX
  8
LC_OH_2021_05_O7
  10
374112.506
  20
4519773.500
  0
VERTEX
  8
LC_OH_2021_05_O7
  10
372500.506
  20
4520053.000
  0
VERTEX
  8
LC_OH_2021_05_O7
  10
372600.140
  20
4521354.458
  0
VERTEX
  8
LC_OH_2021_05_O7
  10
375284.949
  20
4521308.488
  0
SEQEND
  8
LC_OH_2021_05_O7
  0
INSERT
  8
FeatureAttribs
  2
FEATURE
  41
1
  42
1
  43
1
  50
0
  10
383994.320
  20
4520419.499
 66
1
  0
ATTRIB
  8
FeatureAttribs
 70
0
  1
PNOA-H_AMS_1956-57_33k_ES_PAN_21mic_H50_0482_fot_000-42415_R.tif
  2
NAME
  10
383994.320
  20
4520419.499
 40
34.15567
  0
SEQEND
  0
POLYLINE
  8
LC_OH_2021_05_O7
  70
1
  66
1
  0
VERTEX
  8
LC_OH_2021_05_O7
  10
384734.355
  20
4521155.169
  0
VERTEX
  8
LC_OH_2021_05_O7
  10
384763.507
  20
4519734.000
  0
VERTEX
  8
LC_OH_2021_05_O7
  10
384763.007
  20
4519713.500
  0
VERTEX
  8
LC_OH_2021_05_O7
  10
383378.507
  20
4519479.000
  0
VERTEX
  8
LC_OH_2021_05_O7
  10
383374.507
  20
4519479.000
  0
VERTEX
  8
LC_OH_2021_05_O7
  10
383366.507
  20
4519483.000
  0
VERTEX
  8
LC_OH_2021_05_O7
  10
383198.007
  20
4519571.500
  0
VERTEX
  8
LC_OH_2021_05_O7
  10
383276.020
  20
4521178.057
  0
SEQEND
  8
LC_OH_2021_05_O7
  0
INSERT
  8
FeatureAttribs
  2
FEATURE
  41
1
  42
1
  43
1
  50
0
  10
392543.352
  20
4520457.249
 66
1
  0
ATTRIB
  8
FeatureAttribs
 70
0
  1
PNOA-H_AMS_1956-57_33k_ES_PAN_21mic_H50_0482_fot_000-42412_R.tif
  2
NAME
  10
392543.352
  20
4520457.249
 40
34.15567
  0
SEQEND
  0
POLYLINE
  8
LC_OH_2021_05_O7
  70
1
  66
1
  0
VERTEX
  8
LC_OH_2021_05_O7
  10
393140.491
  20
4521028.666
  0
VERTEX
  8
LC_OH_2021_05_O7
  10
392898.009
  20
4519740.500
  0
VERTEX
  8
LC_OH_2021_05_O7
  10
392161.508
  20
4519674.500
  0
VERTEX
  8
LC_OH_2021_05_O7
  10
391972.762
  20
4521045.745
  0
VERTEX
  8
LC_OH_2021_05_O7
  10
392850.907
  20
4521032.798
  0
SEQEND
  8
LC_OH_2021_05_O7
  0
INSERT
  8
FeatureAttribs
  2
FEATURE
  41
1
  42
1
  43
1
  50
0
  10
376831.823
  20
4520535.000
 66
1
  0
ATTRIB
  8
FeatureAttribs
 70
0
  1
PNOA-H_AMS_1956-57_33k_ES_PAN_21mic_H50_0482_fot_58C-35950_W.tif
  2
NAME
  10
376831.823
  20
4520535.000
 40
34.15567
  0
SEQEND
  0
POLYLINE
  8
LC_OH_2021_05_O7
  70
1
  66
1
  0
VERTEX
  8
LC_OH_2021_05_O7
  10
378249.053
  20
4521259.148
  0
VERTEX
  8
LC_OH_2021_05_O7
  10
378207.007
  20
4519850.500
  0
VERTEX
  8
LC_OH_2021_05_O7
  10
377701.506
  20
4519600.000
  0
VERTEX
  8
LC_OH_2021_05_O7
  10
377697.006
  20
4519600.000
  0
VERTEX
  8
LC_OH_2021_05_O7
  10
375415.506
  20
4519916.500
  0
VERTEX
  8
LC_OH_2021_05_O7
  10
375462.016
  20
4521305.541
  0
SEQEND
  8
LC_OH_2021_05_O7
  0
INSERT
  8
FeatureAttribs
  2
FEATURE
  41
1
  42
1
  43
1
  50
0
  10
371906.278
  20
4508441.877
 66
1
  0
ATTRIB
  8
FeatureAttribs
 70
0
  1
PNOA-H_AMS_1956-57_33k_ES_PAN_21mic_H50_0506_fot_61C-39588_W.tif
  2
NAME
  10
371906.278
  20
4508441.877
 40
34.15567
  0
SEQEND
  0
POLYLINE
  8
LC_OH_2021_05_O7
  70
1
  66
1
  0
VERTEX
  8
LC_OH_2021_05_O7
  10
371589.559
  20
4510864.754
  0
VERTEX
  8
LC_OH_2021_05_O7
  10
371821.506
  20
4510832.000
  0
VERTEX
  8
LC_OH_2021_05_O7
  10
371823.506
  20
4510832.000
  0
VERTEX
  8
LC_OH_2021_05_O7
  10
372306.506
  20
4510764.000
  0
VERTEX
  8
LC_OH_2021_05_O7
  10
372280.506
  20
4506310.500
  0
VERTEX
  8
LC_OH_2021_05_O7
  10
372280.006
  20
4506305.500
  0
VERTEX
  8
LC_OH_2021_05_O7
  10
372272.006
  20
4506301.500
  0
VERTEX
  8
LC_OH_2021_05_O7
  10
371678.006
  20
4506019.000
  0
VERTEX
  8
LC_OH_2021_05_O7
  10
371506.051
  20
4506043.008
  0
VERTEX
  8
LC_OH_2021_05_O7
  10
371531.141
  20
4507492.280
  0
VERTEX
  8
LC_OH_2021_05_O7
  10
371571.197
  20
4509804.987
  0
SEQEND
  8
LC_OH_2021_05_O7
  0
INSERT
  8
FeatureAttribs
  2
FEATURE
  41
1
  42
1
  43
1
  50
0
  10
371894.626
  20
4517358.699
 66
1
  0
ATTRIB
  8
FeatureAttribs
 70
0
  1
PNOA-H_AMS_1956-57_33k_ES_PAN_21mic_H50_0506_fot_59C-48026_W.tif
  2
NAME
  10
371894.626
  20
4517358.699
 40
34.15567
  0
SEQEND
  0
POLYLINE
  8
LC_OH_2021_05_O7
  70
1
  66
1
  0
VERTEX
  8
LC_OH_2021_05_O7
  10
371727.913
  20
4518844.015
  0
VERTEX
  8
LC_OH_2021_05_O7
  10
372026.506
  20
4519169.000
  0
VERTEX
  8
LC_OH_2021_05_O7
  10
372118.506
  20
4515625.000
  0
VERTEX
  8
LC_OH_2021_05_O7
  10
371670.746
  20
4515548.398
  0
VERTEX
  8
LC_OH_2021_05_O7
  10
371691.465
  20
4516743.157
  0
SEQEND
  8
LC_OH_2021_05_O7
  0
INSERT
  8
FeatureAttribs
  2
FEATURE
  41
1
  42
1
  43
1
  50
0
  10
390195.206
  20
4508316.500
 66
1
  0
ATTRIB
  8
FeatureAttribs
 70
0
  1
PNOA-H_AMS_1956-57_33k_ES_PAN_21mic_H50_0507_fot_61C-39580_W.tif
  2
NAME
  10
390195.206
  20
4508316.500
 40
34.15567
  0
SEQEND
  0
POLYLINE
  8
LC_OH_2021_05_O7
  70
1
  66
1
  0
VERTEX
  8
LC_OH_2021_05_O7
  10
389389.008
  20
4510599.500
  0
VERTEX
  8
LC_OH_2021_05_O7
  10
389400.508
  20
4510603.500
  0
VERTEX
  8
LC_OH_2021_05_O7
  10
390927.508
  20
4510122.500
  0
VERTEX
  8
LC_OH_2021_05_O7
  10
390992.008
  20
4506312.000
  0
VERTEX
  8
LC_OH_2021_05_O7
  10
390992.008
  20
4506302.500
  0
VERTEX
  8
LC_OH_2021_05_O7
  10
390996.508
  20
4506029.500
  0
VERTEX
  8
LC_OH_2021_05_O7
  10
389476.008
  20
4506042.500
  0
VERTEX
  8
LC_OH_2021_05_O7
  10
389389.008
  20
4510573.500
  0
VERTEX
  8
LC_OH_2021_05_O7
  10
389389.008
  20
4510599.500
  0
SEQEND
  8
LC_OH_2021_05_O7
  0
INSERT
  8
FeatureAttribs
  2
FEATURE
  41
1
  42
1
  43
1
  50
0
  10
392284.342
  20
4508294.250
 66
1
  0
ATTRIB
  8
FeatureAttribs
 70
0
  1
PNOA-H_AMS_1956-57_33k_ES_PAN_21mic_H50_0507_fot_61C-39579_W.tif
  2
NAME
  10
392284.342
  20
4508294.250
 40
34.15567
  0
SEQEND
  0
POLYLINE
  8
LC_OH_2021_05_O7
  70
1
  66
1
  0
VERTEX
  8
LC_OH_2021_05_O7
  10
392187.008
  20
4510590.500
  0
VERTEX
  8
LC_OH_2021_05_O7
  10
392188.008
  20
4510591.000
  0
VERTEX
  8
LC_OH_2021_05_O7
  10
393633.509
  20
4510115.500
  0
VERTEX
  8
LC_OH_2021_05_O7
  10
393581.509
  20
4506024.000
  0
VERTEX
  8
LC_OH_2021_05_O7
  10
391053.508
  20
4505997.500
  0
VERTEX
  8
LC_OH_2021_05_O7
  10
390996.508
  20
4506029.500
  0
VERTEX
  8
LC_OH_2021_05_O7
  10
390927.508
  20
4510122.500
  0
VERTEX
  8
LC_OH_2021_05_O7
  10
392187.008
  20
4510590.500
  0
SEQEND
  8
LC_OH_2021_05_O7
  0
INSERT
  8
FeatureAttribs
  2
FEATURE
  41
1
  42
1
  43
1
  50
0
  10
388661.146
  20
4508273.751
 66
1
  0
ATTRIB
  8
FeatureAttribs
 70
0
  1
PNOA-H_AMS_1956-57_33k_ES_PAN_21mic_H50_0507_fot_61C-39581_W.tif
  2
NAME
  10
388661.146
  20
4508273.751
 40
34.15567
  0
SEQEND
  0
POLYLINE
  8
LC_OH_2021_05_O7
  70
1
  66
1
  0
VERTEX
  8
LC_OH_2021_05_O7
  10
389385.508
  20
4510598.500
  0
VERTEX
  8
LC_OH_2021_05_O7
  10
389387.508
  20
4510599.000
  0
VERTEX
  8
LC_OH_2021_05_O7
  10
389389.008
  20
4510599.000
  0
VERTEX
  8
LC_OH_2021_05_O7
  10
389389.508
  20
4510573.500
  0
VERTEX
  8
LC_OH_2021_05_O7
  10
389476.008
  20
4506046.000
  0
VERTEX
  8
LC_OH_2021_05_O7
  10
389476.008
  20
4506042.500
  0
VERTEX
  8
LC_OH_2021_05_O7
  10
389474.508
  20
4506042.000
  0
VERTEX
  8
LC_OH_2021_05_O7
  10
388316.508
  20
4505948.500
  0
VERTEX
  8
LC_OH_2021_05_O7
  10
387927.008
  20
4506141.000
  0
VERTEX
  8
LC_OH_2021_05_O7
  10
387926.008
  20
4506165.500
  0
VERTEX
  8
LC_OH_2021_05_O7
  10
387855.008
  20
4510195.500
  0
VERTEX
  8
LC_OH_2021_05_O7
  10
389385.508
  20
4510598.500
  0
SEQEND
  8
LC_OH_2021_05_O7
  0
INSERT
  8
FeatureAttribs
  2
FEATURE
  41
1
  42
1
  43
1
  50
0
  10
386553.395
  20
4508315.500
 66
1
  0
ATTRIB
  8
FeatureAttribs
 70
0
  1
PNOA-H_AMS_1956-57_33k_ES_PAN_21mic_H50_0507_fot_61C-39582_W.tif
  2
NAME
  10
386553.395
  20
4508315.500
 40
34.15567
  0
SEQEND
  0
POLYLINE
  8
LC_OH_2021_05_O7
  70
1
  66
1
  0
VERTEX
  8
LC_OH_2021_05_O7
  10
385231.007
  20
4510278.000
  0
VERTEX
  8
LC_OH_2021_05_O7
  10
386155.508
  20
4510540.000
  0
VERTEX
  8
LC_OH_2021_05_O7
  10
386157.508
  20
4510540.500
  0
VERTEX
  8
LC_OH_2021_05_O7
  10
386636.508
  20
4510676.000
  0
VERTEX
  8
LC_OH_2021_05_O7
  10
387855.008
  20
4510196.000
  0
VERTEX
  8
LC_OH_2021_05_O7
  10
387926.508
  20
4506165.500
  0
VERTEX
  8
LC_OH_2021_05_O7
  10
387926.508
  20
4506141.500
  0
VERTEX
  8
LC_OH_2021_05_O7
  10
387925.508
  20
4506141.000
  0
VERTEX
  8
LC_OH_2021_05_O7
  10
385567.008
  20
4505955.000
  0
VERTEX
  8
LC_OH_2021_05_O7
  10
385562.508
  20
4505955.000
  0
VERTEX
  8
LC_OH_2021_05_O7
  10
385554.508
  20
4505959.000
  0
VERTEX
  8
LC_OH_2021_05_O7
  10
385204.507
  20
4506141.000
  0
VERTEX
  8
LC_OH_2021_05_O7
  10
385231.007
  20
4510278.000
  0
SEQEND
  8
LC_OH_2021_05_O7
  0
INSERT
  8
FeatureAttribs
  2
FEATURE
  41
1
  42
1
  43
1
  50
0
  10
394958.075
  20
4508253.000
 66
1
  0
ATTRIB
  8
FeatureAttribs
 70
0
  1
PNOA-H_AMS_1956-57_33k_ES_PAN_21mic_H50_0507_fot_61C-39578_W.tif
  2
NAME
  10
394958.075
  20
4508253.000
 40
34.15567
  0
SEQEND
  0
POLYLINE
  8
LC_OH_2021_05_O7
  70
1
  66
1
  0
VERTEX
  8
LC_OH_2021_05_O7
  10
393633.509
  20
4510115.500
  0
VERTEX
  8
LC_OH_2021_05_O7
  10
394856.009
  20
4510570.500
  0
VERTEX
  8
LC_OH_2021_05_O7
  10
394857.009
  20
4510571.000
  0
VERTEX
  8
LC_OH_2021_05_O7
  10
394861.509
  20
4510570.500
  0
VERTEX
  8
LC_OH_2021_05_O7
  10
396309.509
  20
4510104.500
  0
VERTEX
  8
LC_OH_2021_05_O7
  10
396302.509
  20
4506011.000
  0
VERTEX
  8
LC_OH_2021_05_O7
  10
396148.509
  20
4505935.000
  0
VERTEX
  8
LC_OH_2021_05_O7
  10
396138.009
  20
4505935.000
  0
VERTEX
  8
LC_OH_2021_05_O7
  10
393664.009
  20
4505979.000
  0
VERTEX
  8
LC_OH_2021_05_O7
  10
393581.509
  20
4506024.000
  0
VERTEX
  8
LC_OH_2021_05_O7
  10
393633.509
  20
4510115.500
  0
SEQEND
  8
LC_OH_2021_05_O7
  0
INSERT
  8
FeatureAttribs
  2
FEATURE
  41
1
  42
1
  43
1
  50
0
  10
383921.955
  20
4508374.749
 66
1
  0
ATTRIB
  8
FeatureAttribs
 70
0
  1
PNOA-H_AMS_1956-57_33k_ES_PAN_21mic_H50_0507_fot_61C-39583_W.tif
  2
NAME
  10
383921.955
  20
4508374.749
 40
34.15567
  0
SEQEND
  0
POLYLINE
  8
LC_OH_2021_05_O7
  70
1
  66
1
  0
VERTEX
  8
LC_OH_2021_05_O7
  10
382638.007
  20
4510452.500
  0
VERTEX
  8
LC_OH_2021_05_O7
  10
383843.007
  20
4510756.000
  0
VERTEX
  8
LC_OH_2021_05_O7
  10
383845.007
  20
4510756.500
  0
VERTEX
  8
LC_OH_2021_05_O7
  10
383848.507
  20
4510756.500
  0
VERTEX
  8
LC_OH_2021_05_O7
  10
383866.007
  20
4510750.500
  0
VERTEX
  8
LC_OH_2021_05_O7
  10
385231.007
  20
4510278.000
  0
VERTEX
  8
LC_OH_2021_05_O7
  10
385204.507
  20
4506141.000
  0
VERTEX
  8
LC_OH_2021_05_O7
  10
382838.507
  20
4505993.000
  0
VERTEX
  8
LC_OH_2021_05_O7
  10
382829.507
  20
4505993.000
  0
VERTEX
  8
LC_OH_2021_05_O7
  10
382823.507
  20
4505996.000
  0
VERTEX
  8
LC_OH_2021_05_O7
  10
382611.007
  20
4506108.000
  0
VERTEX
  8
LC_OH_2021_05_O7
  10
382638.007
  20
4510452.500
  0
SEQEND
  8
LC_OH_2021_05_O7
  0
INSERT
  8
FeatureAttribs
  2
FEATURE
  41
1
  42
1
  43
1
  50
0
  10
381373.161
  20
4508470.250
 66
1
  0
ATTRIB
  8
FeatureAttribs
 70
0
  1
PNOA-H_AMS_1956-57_33k_ES_PAN_21mic_H50_0507_fot_61C-39584_W.tif
  2
NAME
  10
381373.161
  20
4508470.250
 40
34.15567
  0
SEQEND
  0
POLYLINE
  8
LC_OH_2021_05_O7
  70
1
  66
1
  0
VERTEX
  8
LC_OH_2021_05_O7
  10
381230.507
  20
4510886.000
  0
VERTEX
  8
LC_OH_2021_05_O7
  10
382638.007
  20
4510452.500
  0
VERTEX
  8
LC_OH_2021_05_O7
  10
382611.007
  20
4506108.000
  0
VERTEX
  8
LC_OH_2021_05_O7
  10
380122.507
  20
4506054.500
  0
VERTEX
  8
LC_OH_2021_05_O7
  10
380119.007
  20
4510549.000
  0
VERTEX
  8
LC_OH_2021_05_O7
  10
381229.007
  20
4510885.500
  0
VERTEX
  8
LC_OH_2021_05_O7
  10
381230.507
  20
4510886.000
  0
SEQEND
  8
LC_OH_2021_05_O7
  0
INSERT
  8
FeatureAttribs
  2
FEATURE
  41
1
  42
1
  43
1
  50
0
  10
395825.866
  20
4517973.748
 66
1
  0
ATTRIB
  8
FeatureAttribs
 70
0
  1
PNOA-H_AMS_1956-57_33k_ES_PAN_21mic_H50_0507_fot_59C-48017_W.tif
  2
NAME
  10
395825.866
  20
4517973.748
 40
34.15567
  0
SEQEND
  0
POLYLINE
  8
LC_OH_2021_05_O7
  70
1
  66
1
  0
VERTEX
  8
LC_OH_2021_05_O7
  10
394542.509
  20
4519429.500
  0
VERTEX
  8
LC_OH_2021_05_O7
  10
395054.009
  20
4519668.500
  0
VERTEX
  8
LC_OH_2021_05_O7
  10
395770.509
  20
4519718.500
  0
VERTEX
  8
LC_OH_2021_05_O7
  10
397180.009
  20
4519427.499
  0
VERTEX
  8
LC_OH_2021_05_O7
  10
397117.009
  20
4516811.999
  0
VERTEX
  8
LC_OH_2021_05_O7
  10
396258.009
  20
4516542.500
  0
VERTEX
  8
LC_OH_2021_05_O7
  10
396256.509
  20
4516542.500
  0
VERTEX
  8
LC_OH_2021_05_O7
  10
395279.009
  20
4516235.500
  0
VERTEX
  8
LC_OH_2021_05_O7
  10
395255.509
  20
4516229.000
  0
VERTEX
  8
LC_OH_2021_05_O7
  10
394481.509
  20
4516947.500
  0
VERTEX
  8
LC_OH_2021_05_O7
  10
394542.509
  20
4519429.500
  0
SEQEND
  8
LC_OH_2021_05_O7
  0
INSERT
  8
FeatureAttribs
  2
FEATURE
  41
1
  42
1
  43
1
  50
0
  10
398416.021
  20
4517934.499
 66
1
  0
ATTRIB
  8
FeatureAttribs
 70
0
  1
PNOA-H_AMS_1956-57_33k_ES_PAN_21mic_H50_0507_fot_59C-48016_W.tif
  2
NAME
  10
398416.021
  20
4517934.499
 40
34.15567
  0
SEQEND
  0
POLYLINE
  8
LC_OH_2021_05_O7
  70
1
  66
1
  0
VERTEX
  8
LC_OH_2021_05_O7
  10
397180.009
  20
4519427.499
  0
VERTEX
  8
LC_OH_2021_05_O7
  10
398185.009
  20
4519792.999
  0
VERTEX
  8
LC_OH_2021_05_O7
  10
398445.509
  20
4519716.499
  0
VERTEX
  8
LC_OH_2021_05_O7
  10
398447.509
  20
4519715.999
  0
VERTEX
  8
LC_OH_2021_05_O7
  10
399675.010
  20
4519356.999
  0
VERTEX
  8
LC_OH_2021_05_O7
  10
399697.510
  20
4516890.999
  0
VERTEX
  8
LC_OH_2021_05_O7
  10
397817.009
  20
4516075.999
  0
VERTEX
  8
LC_OH_2021_05_O7
  10
397117.009
  20
4516811.999
  0
SEQEND
  8
LC_OH_2021_05_O7
  0
INSERT
  8
FeatureAttribs
  2
FEATURE
  41
1
  42
1
  43
1
  50
0
  10
376310.442
  20
4508488.249
 66
1
  0
ATTRIB
  8
FeatureAttribs
 70
0
  1
PNOA-H_AMS_1956-57_33k_ES_PAN_21mic_H50_0507_fot_61C-39586_W.tif
  2
NAME
  10
376310.442
  20
4508488.249
 40
34.15567
  0
SEQEND
  0
POLYLINE
  8
LC_OH_2021_05_O7
  70
1
  66
1
  0
VERTEX
  8
LC_OH_2021_05_O7
  10
375641.006
  20
4510976.000
  0
VERTEX
  8
LC_OH_2021_05_O7
  10
377614.506
  20
4510638.500
  0
VERTEX
  8
LC_OH_2021_05_O7
  10
377572.006
  20
4506135.000
  0
VERTEX
  8
LC_OH_2021_05_O7
  10
377308.506
  20
4506000.500
  0
VERTEX
  8
LC_OH_2021_05_O7
  10
375003.506
  20
4506212.000
  0
VERTEX
  8
LC_OH_2021_05_O7
  10
375049.506
  20
4510734.000
  0
VERTEX
  8
LC_OH_2021_05_O7
  10
375639.506
  20
4510975.500
  0
VERTEX
  8
LC_OH_2021_05_O7
  10
375641.006
  20
4510976.000
  0
SEQEND
  8
LC_OH_2021_05_O7
  0
INSERT
  8
FeatureAttribs
  2
FEATURE
  41
1
  42
1
  43
1
  50
0
  10
397646.086
  20
4508217.250
 66
1
  0
ATTRIB
  8
FeatureAttribs
 70
0
  1
PNOA-H_AMS_1956-57_33k_ES_PAN_21mic_H50_0507_fot_61C-39577_W.tif
  2
NAME
  10
397646.086
  20
4508217.250
 40
34.15567
  0
SEQEND
  0
POLYLINE
  8
LC_OH_2021_05_O7
  70
1
  66
1
  0
VERTEX
  8
LC_OH_2021_05_O7
  10
396309.509
  20
4510105.000
  0
VERTEX
  8
LC_OH_2021_05_O7
  10
397482.509
  20
4510552.499
  0
VERTEX
  8
LC_OH_2021_05_O7
  10
399034.510
  20
4510081.999
  0
VERTEX
  8
LC_OH_2021_05_O7
  10
398936.509
  20
4506320.999
  0
VERTEX
  8
LC_OH_2021_05_O7
  10
398936.509
  20
4506302.499
  0
VERTEX
  8
LC_OH_2021_05_O7
  10
398928.509
  20
4505997.999
  0
VERTEX
  8
LC_OH_2021_05_O7
  10
398679.509
  20
4505881.999
  0
VERTEX
  8
LC_OH_2021_05_O7
  10
396302.509
  20
4506011.000
  0
SEQEND
  8
LC_OH_2021_05_O7
  0
INSERT
  8
FeatureAttribs
  2
FEATURE
  41
1
  42
1
  43
1
  50
0
  10
373659.807
  20
4508485.249
 66
1
  0
ATTRIB
  8
FeatureAttribs
 70
0
  1
PNOA-H_AMS_1956-57_33k_ES_PAN_21mic_H50_0507_fot_61C-39587_W.tif
  2
NAME
  10
373659.807
  20
4508485.249
 40
34.15567
  0
SEQEND
  0
POLYLINE
  8
LC_OH_2021_05_O7
  70
1
  66
1
  0
VERTEX
  8
LC_OH_2021_05_O7
  10
372306.506
  20
4510764.000
  0
VERTEX
  8
LC_OH_2021_05_O7
  10
372838.006
  20
4510999.500
  0
VERTEX
  8
LC_OH_2021_05_O7
  10
372839.006
  20
4511000.000
  0
VERTEX
  8
LC_OH_2021_05_O7
  10
375049.506
  20
4510734.000
  0
VERTEX
  8
LC_OH_2021_05_O7
  10
375003.506
  20
4506211.500
  0
VERTEX
  8
LC_OH_2021_05_O7
  10
374485.006
  20
4505970.500
  0
VERTEX
  8
LC_OH_2021_05_O7
  10
372280.006
  20
4506306.000
  0
SEQEND
  8
LC_OH_2021_05_O7
  0
INSERT
  8
FeatureAttribs
  2
FEATURE
  41
1
  42
1
  43
1
  50
0
  10
378857.389
  20
4508483.000
 66
1
  0
ATTRIB
  8
FeatureAttribs
 70
0
  1
PNOA-H_AMS_1956-57_33k_ES_PAN_21mic_H50_0507_fot_61C-39585_W.tif
  2
NAME
  10
378857.389
  20
4508483.000
 40
34.15567
  0
SEQEND
  0
POLYLINE
  8
LC_OH_2021_05_O7
  70
1
  66
1
  0
VERTEX
  8
LC_OH_2021_05_O7
  10
380015.507
  20
4510573.000
  0
VERTEX
  8
LC_OH_2021_05_O7
  10
380119.007
  20
4510549.000
  0
VERTEX
  8
LC_OH_2021_05_O7
  10
380122.507
  20
4506054.500
  0
VERTEX
  8
LC_OH_2021_05_O7
  10
380073.507
  20
4506026.500
  0
VERTEX
  8
LC_OH_2021_05_O7
  10
380064.007
  20
4506026.500
  0
VERTEX
  8
LC_OH_2021_05_O7
  10
377572.006
  20
4506135.000
  0
VERTEX
  8
LC_OH_2021_05_O7
  10
377614.506
  20
4510638.500
  0
VERTEX
  8
LC_OH_2021_05_O7
  10
378437.507
  20
4510938.500
  0
VERTEX
  8
LC_OH_2021_05_O7
  10
378443.507
  20
4510939.500
  0
VERTEX
  8
LC_OH_2021_05_O7
  10
380013.007
  20
4510573.500
  0
VERTEX
  8
LC_OH_2021_05_O7
  10
380015.507
  20
4510573.000
  0
SEQEND
  8
LC_OH_2021_05_O7
  0
INSERT
  8
FeatureAttribs
  2
FEATURE
  41
1
  42
1
  43
1
  50
0
  10
387602.685
  20
4517318.249
 66
1
  0
ATTRIB
  8
FeatureAttribs
 70
0
  1
PNOA-H_AMS_1956-57_33k_ES_PAN_21mic_H50_0507_fot_59C-48020_W.tif
  2
NAME
  10
387602.685
  20
4517318.249
 40
34.15567
  0
SEQEND
  0
POLYLINE
  8
LC_OH_2021_05_O7
  70
1
  66
1
  0
VERTEX
  8
LC_OH_2021_05_O7
  10
387521.008
  20
4519718.000
  0
VERTEX
  8
LC_OH_2021_05_O7
  10
388203.008
  20
4519646.000
  0
VERTEX
  8
LC_OH_2021_05_O7
  10
388207.508
  20
4519646.000
  0
VERTEX
  8
LC_OH_2021_05_O7
  10
388897.008
  20
4519573.000
  0
VERTEX
  8
LC_OH_2021_05_O7
  10
388940.008
  20
4515086.500
  0
VERTEX
  8
LC_OH_2021_05_O7
  10
386913.508
  20
4514918.500
  0
VERTEX
  8
LC_OH_2021_05_O7
  10
386908.008
  20
4514918.500
  0
VERTEX
  8
LC_OH_2021_05_O7
  10
386900.508
  20
4514922.000
  0
VERTEX
  8
LC_OH_2021_05_O7
  10
386305.008
  20
4515208.000
  0
VERTEX
  8
LC_OH_2021_05_O7
  10
386268.008
  20
4519488.500
  0
VERTEX
  8
LC_OH_2021_05_O7
  10
387521.008
  20
4519718.000
  0
SEQEND
  8
LC_OH_2021_05_O7
  0
INSERT
  8
FeatureAttribs
  2
FEATURE
  41
1
  42
1
  43
1
  50
0
  10
393048.054
  20
4517621.249
 66
1
  0
ATTRIB
  8
FeatureAttribs
 70
0
  1
PNOA-H_AMS_1956-57_33k_ES_PAN_21mic_H50_0507_fot_59C-48018_W.tif
  2
NAME
  10
393048.054
  20
4517621.249
 40
34.15567
  0
SEQEND
  0
POLYLINE
  8
LC_OH_2021_05_O7
  70
1
  66
1
  0
VERTEX
  8
LC_OH_2021_05_O7
  10
391540.008
  20
4515531.000
  0
VERTEX
  8
LC_OH_2021_05_O7
  10
391648.008
  20
4519422.500
  0
VERTEX
  8
LC_OH_2021_05_O7
  10
392161.008
  20
4519674.500
  0
VERTEX
  8
LC_OH_2021_05_O7
  10
392292.008
  20
4519686.500
  0
VERTEX
  8
LC_OH_2021_05_O7
  10
392298.008
  20
4519687.000
  0
VERTEX
  8
LC_OH_2021_05_O7
  10
392899.509
  20
4519740.500
  0
VERTEX
  8
LC_OH_2021_05_O7
  10
394542.509
  20
4519429.500
  0
VERTEX
  8
LC_OH_2021_05_O7
  10
394481.509
  20
4516947.500
  0
VERTEX
  8
LC_OH_2021_05_O7
  10
391540.508
  20
4515502.000
  0
VERTEX
  8
LC_OH_2021_05_O7
  10
391539.508
  20
4515502.000
  0
VERTEX
  8
LC_OH_2021_05_O7
  10
391540.008
  20
4515531.000
  0
SEQEND
  8
LC_OH_2021_05_O7
  0
INSERT
  8
FeatureAttribs
  2
FEATURE
  41
1
  42
1
  43
1
  50
0
  10
381944.173
  20
4517389.251
 66
1
  0
ATTRIB
  8
FeatureAttribs
 70
0
  1
PNOA-H_AMS_1956-57_33k_ES_PAN_21mic_H50_0507_fot_59C-48022_W.tif
  2
NAME
  10
381944.173
  20
4517389.251
 40
34.15567
  0
SEQEND
  0
POLYLINE
  8
LC_OH_2021_05_O7
  70
1
  66
1
  0
VERTEX
  8
LC_OH_2021_05_O7
  10
382136.007
  20
4519715.000
  0
VERTEX
  8
LC_OH_2021_05_O7
  10
382146.007
  20
4519714.500
  0
VERTEX
  8
LC_OH_2021_05_O7
  10
383196.007
  20
4519572.000
  0
VERTEX
  8
LC_OH_2021_05_O7
  10
383205.507
  20
4519568.000
  0
VERTEX
  8
LC_OH_2021_05_O7
  10
383375.507
  20
4519479.000
  0
VERTEX
  8
LC_OH_2021_05_O7
  10
383370.507
  20
4515402.500
  0
VERTEX
  8
LC_OH_2021_05_O7
  10
381479.507
  20
4515063.500
  0
VERTEX
  8
LC_OH_2021_05_O7
  10
380549.007
  20
4515465.500
  0
VERTEX
  8
LC_OH_2021_05_O7
  10
380478.007
  20
4519530.500
  0
VERTEX
  8
LC_OH_2021_05_O7
  10
382131.507
  20
4519714.500
  0
VERTEX
  8
LC_OH_2021_05_O7
  10
382136.007
  20
4519715.000
  0
SEQEND
  8
LC_OH_2021_05_O7
  0
INSERT
  8
FeatureAttribs
  2
FEATURE
  41
1
  42
1
  43
1
  50
0
  10
396552.475
  20
4515318.500
 66
1
  0
ATTRIB
  8
FeatureAttribs
 70
0
  1
PNOA-H_AMS_1956-57_33k_ES_PAN_21mic_H50_0507_fot_000-51195_R.tif
  2
NAME
  10
396552.475
  20
4515318.500
 40
34.15567
  0
SEQEND
  0
POLYLINE
  8
LC_OH_2021_05_O7
  70
1
  66
1
  0
VERTEX
  8
LC_OH_2021_05_O7
  10
397115.009
  20
4516811.499
  0
VERTEX
  8
LC_OH_2021_05_O7
  10
397116.509
  20
4516811.999
  0
VERTEX
  8
LC_OH_2021_05_O7
  10
397118.509
  20
4516810.999
  0
VERTEX
  8
LC_OH_2021_05_O7
  10
397817.509
  20
4516075.999
  0
VERTEX
  8
LC_OH_2021_05_O7
  10
397810.009
  20
4514024.499
  0
VERTEX
  8
LC_OH_2021_05_O7
  10
397523.509
  20
4513824.999
  0
VERTEX
  8
LC_OH_2021_05_O7
  10
395338.509
  20
4514013.000
  0
VERTEX
  8
LC_OH_2021_05_O7
  10
395256.509
  20
4516229.000
  0
VERTEX
  8
LC_OH_2021_05_O7
  10
397115.009
  20
4516811.499
  0
SEQEND
  8
LC_OH_2021_05_O7
  0
INSERT
  8
FeatureAttribs
  2
FEATURE
  41
1
  42
1
  43
1
  50
0
  10
390253.851
  20
4517279.500
 66
1
  0
ATTRIB
  8
FeatureAttribs
 70
0
  1
PNOA-H_AMS_1956-57_33k_ES_PAN_21mic_H50_0507_fot_59C-48019_W.tif
  2
NAME
  10
390253.851
  20
4517279.500
 40
34.15567
  0
SEQEND
  0
POLYLINE
  8
LC_OH_2021_05_O7
  70
1
  66
1
  0
VERTEX
  8
LC_OH_2021_05_O7
  10
389088.008
  20
4519661.500
  0
VERTEX
  8
LC_OH_2021_05_O7
  10
390228.008
  20
4519742.500
  0
VERTEX
  8
LC_OH_2021_05_O7
  10
390253.508
  20
4519736.500
  0
VERTEX
  8
LC_OH_2021_05_O7
  10
390255.508
  20
4519736.500
  0
VERTEX
  8
LC_OH_2021_05_O7
  10
391648.008
  20
4519422.500
  0
VERTEX
  8
LC_OH_2021_05_O7
  10
391539.508
  20
4515501.500
  0
VERTEX
  8
LC_OH_2021_05_O7
  10
391301.508
  20
4515049.500
  0
VERTEX
  8
LC_OH_2021_05_O7
  10
389660.008
  20
4514816.500
  0
VERTEX
  8
LC_OH_2021_05_O7
  10
388940.008
  20
4515086.000
  0
VERTEX
  8
LC_OH_2021_05_O7
  10
388897.008
  20
4519573.500
  0
VERTEX
  8
LC_OH_2021_05_O7
  10
389088.008
  20
4519661.500
  0
SEQEND
  8
LC_OH_2021_05_O7
  0
INSERT
  8
FeatureAttribs
  2
FEATURE
  41
1
  42
1
  43
1
  50
0
  10
374194.347
  20
4517505.001
 66
1
  0
ATTRIB
  8
FeatureAttribs
 70
0
  1
PNOA-H_AMS_1956-57_33k_ES_PAN_21mic_H50_0507_fot_59C-48025_W.tif
  2
NAME
  10
374194.347
  20
4517505.001
 40
34.15567
  0
SEQEND
  0
POLYLINE
  8
LC_OH_2021_05_O7
  70
1
  66
1
  0
VERTEX
  8
LC_OH_2021_05_O7
  10
374114.506
  20
4519772.000
  0
VERTEX
  8
LC_OH_2021_05_O7
  10
374114.506
  20
4519773.500
  0
VERTEX
  8
LC_OH_2021_05_O7
  10
374942.006
  20
4519689.500
  0
VERTEX
  8
LC_OH_2021_05_O7
  10
374947.006
  20
4515559.000
  0
VERTEX
  8
LC_OH_2021_05_O7
  10
373011.506
  20
4515236.500
  0
VERTEX
  8
LC_OH_2021_05_O7
  10
373007.506
  20
4515236.500
  0
VERTEX
  8
LC_OH_2021_05_O7
  10
372803.506
  20
4515339.000
  0
SEQEND
  8
LC_OH_2021_05_O7
  0
INSERT
  8
FeatureAttribs
  2
FEATURE
  41
1
  42
1
  43
1
  50
0
  10
376319.243
  20
4517542.000
 66
1
  0
ATTRIB
  8
FeatureAttribs
 70
0
  1
PNOA-H_AMS_1956-57_33k_ES_PAN_21mic_H50_0507_fot_59C-48024_W.tif
  2
NAME
  10
376319.243
  20
4517542.000
 40
34.15567
  0
SEQEND
  0
POLYLINE
  8
LC_OH_2021_05_O7
  70
1
  66
1
  0
VERTEX
  8
LC_OH_2021_05_O7
  10
375415.506
  20
4519916.500
  0
VERTEX
  8
LC_OH_2021_05_O7
  10
375916.506
  20
4519847.000
  0
VERTEX
  8
LC_OH_2021_05_O7
  10
375919.506
  20
4519847.000
  0
VERTEX
  8
LC_OH_2021_05_O7
  10
377700.506
  20
4519600.000
  0
VERTEX
  8
LC_OH_2021_05_O7
  10
377687.507
  20
4515540.000
  0
VERTEX
  8
LC_OH_2021_05_O7
  10
375799.006
  20
4515167.500
  0
VERTEX
  8
LC_OH_2021_05_O7
  10
375789.006
  20
4515171.000
  0
VERTEX
  8
LC_OH_2021_05_O7
  10
374947.006
  20
4515558.500
  0
VERTEX
  8
LC_OH_2021_05_O7
  10
374942.006
  20
4519689.500
  0
VERTEX
  8
LC_OH_2021_05_O7
  10
375415.506
  20
4519916.500
  0
SEQEND
  8
LC_OH_2021_05_O7
  0
INSERT
  8
FeatureAttribs
  2
FEATURE
  41
1
  42
1
  43
1
  50
0
  10
379103.775
  20
4517477.501
 66
1
  0
ATTRIB
  8
FeatureAttribs
 70
0
  1
PNOA-H_AMS_1956-57_33k_ES_PAN_21mic_H50_0507_fot_59C-48023_W.tif
  2
NAME
  10
379103.775
  20
4517477.501
 40
34.15567
  0
SEQEND
  0
POLYLINE
  8
LC_OH_2021_05_O7
  70
1
  66
1
  0
VERTEX
  8
LC_OH_2021_05_O7
  10
377966.507
  20
4519732.000
  0
VERTEX
  8
LC_OH_2021_05_O7
  10
378206.007
  20
4519850.500
  0
VERTEX
  8
LC_OH_2021_05_O7
  10
378211.507
  20
4519850.500
  0
VERTEX
  8
LC_OH_2021_05_O7
  10
380366.007
  20
4519590.500
  0
VERTEX
  8
LC_OH_2021_05_O7
  10
380372.507
  20
4519588.500
  0
VERTEX
  8
LC_OH_2021_05_O7
  10
380478.007
  20
4519530.500
  0
VERTEX
  8
LC_OH_2021_05_O7
  10
380549.007
  20
4515465.500
  0
VERTEX
  8
LC_OH_2021_05_O7
  10
378636.507
  20
4515104.500
  0
VERTEX
  8
LC_OH_2021_05_O7
  10
377687.507
  20
4515540.000
  0
VERTEX
  8
LC_OH_2021_05_O7
  10
377700.506
  20
4519600.000
  0
VERTEX
  8
LC_OH_2021_05_O7
  10
377965.507
  20
4519731.500
  0
VERTEX
  8
LC_OH_2021_05_O7
  10
377966.507
  20
4519732.000
  0
SEQEND
  8
LC_OH_2021_05_O7
  0
INSERT
  8
FeatureAttribs
  2
FEATURE
  41
1
  42
1
  43
1
  50
0
  10
393367.786
  20
4515323.749
 66
1
  0
ATTRIB
  8
FeatureAttribs
 70
0
  1
PNOA-H_AMS_1956-57_33k_ES_PAN_21mic_H50_0507_fot_000-51196_R.tif
  2
NAME
  10
393367.786
  20
4515323.749
 40
34.15567
  0
SEQEND
  0
POLYLINE
  8
LC_OH_2021_05_O7
  70
1
  66
1
  0
VERTEX
  8
LC_OH_2021_05_O7
  10
391539.508
  20
4515502.000
  0
VERTEX
  8
LC_OH_2021_05_O7
  10
392301.508
  20
4515876.500
  0
VERTEX
  8
LC_OH_2021_05_O7
  10
392302.508
  20
4515877.000
  0
VERTEX
  8
LC_OH_2021_05_O7
  10
394482.009
  20
4516947.500
  0
VERTEX
  8
LC_OH_2021_05_O7
  10
395256.509
  20
4516229.000
  0
VERTEX
  8
LC_OH_2021_05_O7
  10
395338.509
  20
4514013.000
  0
VERTEX
  8
LC_OH_2021_05_O7
  10
394857.009
  20
4513700.000
  0
VERTEX
  8
LC_OH_2021_05_O7
  10
394849.509
  20
4513700.000
  0
VERTEX
  8
LC_OH_2021_05_O7
  10
392190.008
  20
4514162.500
  0
VERTEX
  8
LC_OH_2021_05_O7
  10
391491.508
  20
4514859.500
  0
VERTEX
  8
LC_OH_2021_05_O7
  10
391301.508
  20
4515050.500
  0
VERTEX
  8
LC_OH_2021_05_O7
  10
391539.508
  20
4515502.000
  0
SEQEND
  8
LC_OH_2021_05_O7
  0
INSERT
  8
FeatureAttribs
  2
FEATURE
  41
1
  42
1
  43
1
  50
0
  10
384829.670
  20
4517355.750
 66
1
  0
ATTRIB
  8
FeatureAttribs
 70
0
  1
PNOA-H_AMS_1956-57_33k_ES_PAN_21mic_H50_0507_fot_59C-48021_W.tif
  2
NAME
  10
384829.670
  20
4517355.750
 40
34.15567
  0
SEQEND
  0
POLYLINE
  8
LC_OH_2021_05_O7
  70
1
  66
1
  0
VERTEX
  8
LC_OH_2021_05_O7
  10
383375.507
  20
4519479.000
  0
VERTEX
  8
LC_OH_2021_05_O7
  10
384107.507
  20
4519603.000
  0
VERTEX
  8
LC_OH_2021_05_O7
  10
384110.507
  20
4519603.500
  0
VERTEX
  8
LC_OH_2021_05_O7
  10
384764.507
  20
4519714.000
  0
VERTEX
  8
LC_OH_2021_05_O7
  10
386129.008
  20
4519557.500
  0
VERTEX
  8
LC_OH_2021_05_O7
  10
386132.008
  20
4519557.000
  0
VERTEX
  8
LC_OH_2021_05_O7
  10
386268.008
  20
4519488.500
  0
VERTEX
  8
LC_OH_2021_05_O7
  10
386305.008
  20
4515208.000
  0
VERTEX
  8
LC_OH_2021_05_O7
  10
384278.507
  20
4514997.500
  0
VERTEX
  8
LC_OH_2021_05_O7
  10
383370.507
  20
4515402.500
  0
VERTEX
  8
LC_OH_2021_05_O7
  10
383375.507
  20
4519479.000
  0
SEQEND
  8
LC_OH_2021_05_O7
  0
INSERT
  8
FeatureAttribs
  2
FEATURE
  41
1
  42
1
  43
1
  50
0
  10
399422.407
  20
4508167.577
 66
1
  0
ATTRIB
  8
FeatureAttribs
 70
0
  1
PNOA-H_AMS_1956-57_33k_ES_PAN_21mic_H50_0508_fot_61C-39576_W.tif
  2
NAME
  10
399422.407
  20
4508167.577
 40
34.15567
  0
SEQEND
  0
POLYLINE
  8
LC_OH_2021_05_O7
  70
1
  66
1
  0
VERTEX
  8
LC_OH_2021_05_O7
  10
399733.950
  20
4510352.603
  0
VERTEX
  8
LC_OH_2021_05_O7
  10
399720.668
  20
4509370.805
  0
VERTEX
  8
LC_OH_2021_05_O7
  10
399689.395
  20
4507058.145
  0
VERTEX
  8
LC_OH_2021_05_O7
  10
399674.314
  20
4505942.403
  0
VERTEX
  8
LC_OH_2021_05_O7
  10
398928.509
  20
4505997.999
  0
VERTEX
  8
LC_OH_2021_05_O7
  10
399034.510
  20
4510081.999
  0
SEQEND
  8
LC_OH_2021_05_O7
  0
INSERT
  8
FeatureAttribs
  2
FEATURE
  41
1
  42
1
  43
1
  50
0
  10
399765.830
  20
4518090.407
 66
1
  0
ATTRIB
  8
FeatureAttribs
 70
0
  1
PNOA-H_AMS_1956-57_33k_ES_PAN_21mic_H50_0508_fot_59C-48015_W.tif
  2
NAME
  10
399765.830
  20
4518090.407
 40
34.15567
  0
SEQEND
  0
POLYLINE
  8
LC_OH_2021_05_O7
  70
1
  66
1
  0
VERTEX
  8
LC_OH_2021_05_O7
  10
399820.749
  20
4516765.368
  0
VERTEX
  8
LC_OH_2021_05_O7
  10
399697.510
  20
4516890.499
  0
VERTEX
  8
LC_OH_2021_05_O7
  10
399675.010
  20
4519324.999
  0
VERTEX
  8
LC_OH_2021_05_O7
  10
399675.010
  20
4519356.999
  0
VERTEX
  8
LC_OH_2021_05_O7
  10
399676.010
  20
4519357.499
  0
VERTEX
  8
LC_OH_2021_05_O7
  10
399856.649
  20
4519415.446
  0
VERTEX
  8
LC_OH_2021_05_O7
  10
399845.891
  20
4518621.523
  0
SEQEND
  8
LC_OH_2021_05_O7
  0
INSERT
  8
FeatureAttribs
  2
FEATURE
  41
1
  42
1
  43
1
  50
0
  10
399168.257
  20
4515339.250
 66
1
  0
ATTRIB
  8
FeatureAttribs
 70
0
  1
PNOA-H_AMS_1956-57_33k_ES_PAN_21mic_H50_0508_fot_000-51194_R.tif
  2
NAME
  10
399168.257
  20
4515339.250
 40
34.15567
  0
SEQEND
  0
POLYLINE
  8
LC_OH_2021_05_O7
  70
1
  66
1
  0
VERTEX
  8
LC_OH_2021_05_O7
  10
399820.761
  20
4516766.220
  0
VERTEX
  8
LC_OH_2021_05_O7
  10
399814.565
  20
4516308.831
  0
VERTEX
  8
LC_OH_2021_05_O7
  10
399783.253
  20
4513996.148
  0
VERTEX
  8
LC_OH_2021_05_O7
  10
399780.957
  20
4513826.484
  0
VERTEX
  8
LC_OH_2021_05_O7
  10
397810.009
  20
4514024.999
  0
VERTEX
  8
LC_OH_2021_05_O7
  10
397817.509
  20
4516075.999
  0
VERTEX
  8
LC_OH_2021_05_O7
  10
399696.510
  20
4516890.999
  0
VERTEX
  8
LC_OH_2021_05_O7
  10
399723.510
  20
4516864.999
  0
SEQEND
  8
LC_OH_2021_05_O7
  0
INSERT
  8
FeatureAttribs
  2
FEATURE
  41
1
  42
1
  43
1
  50
0
  10
372299.037
  20
4513194.500
 66
1
  0
ATTRIB
  8
FeatureAttribs
 70
0
  1
PNOA-H_AMS_1956-57_33k_ES_PAN_21mic_H50_0506_fot_60C-47045_W.tif
  2
NAME
  10
372299.037
  20
4513194.500
 40
34.15567
  0
SEQEND
  0
POLYLINE
  8
LC_OH_2021_05_O7
  70
1
  66
1
  0
VERTEX
  8
LC_OH_2021_05_O7
  10
371670.753
  20
4515548.784
  0
VERTEX
  8
LC_OH_2021_05_O7
  10
372112.506
  20
4515624.500
  0
VERTEX
  8
LC_OH_2021_05_O7
  10
372115.506
  20
4515625.000
  0
VERTEX
  8
LC_OH_2021_05_O7
  10
372121.006
  20
4515624.500
  0
VERTEX
  8
LC_OH_2021_05_O7
  10
372801.506
  20
4515340.500
  0
VERTEX
  8
LC_OH_2021_05_O7
  10
373008.506
  20
4515236.500
  0
VERTEX
  8
LC_OH_2021_05_O7
  10
372839.506
  20
4511000.000
  0
VERTEX
  8
LC_OH_2021_05_O7
  10
372307.506
  20
4510764.000
  0
VERTEX
  8
LC_OH_2021_05_O7
  10
371589.567
  20
4510865.202
  0
VERTEX
  8
LC_OH_2021_05_O7
  10
371611.269
  20
4512117.703
  0
VERTEX
  8
LC_OH_2021_05_O7
  10
371651.359
  20
4514430.426
  0
SEQEND
  8
LC_OH_2021_05_O7
  0
INSERT
  8
FeatureAttribs
  2
FEATURE
  41
1
  42
1
  43
1
  50
0
  10
396179.326
  20
4512058.751
 66
1
  0
ATTRIB
  8
FeatureAttribs
 70
0
  1
PNOA-H_AMS_1956-57_33k_ES_PAN_21mic_H50_0507_fot_60C-47036_W.tif
  2
NAME
  10
396179.326
  20
4512058.751
 40
34.15567
  0
SEQEND
  0
POLYLINE
  8
LC_OH_2021_05_O7
  70
1
  66
1
  0
VERTEX
  8
LC_OH_2021_05_O7
  10
395338.009
  20
4514013.000
  0
VERTEX
  8
LC_OH_2021_05_O7
  10
396393.509
  20
4513922.000
  0
VERTEX
  8
LC_OH_2021_05_O7
  10
396399.509
  20
4513921.500
  0
VERTEX
  8
LC_OH_2021_05_O7
  10
397523.009
  20
4513824.999
  0
VERTEX
  8
LC_OH_2021_05_O7
  10
397483.509
  20
4510570.499
  0
VERTEX
  8
LC_OH_2021_05_O7
  10
397482.509
  20
4510551.999
  0
VERTEX
  8
LC_OH_2021_05_O7
  10
396309.009
  20
4510104.500
  0
VERTEX
  8
LC_OH_2021_05_O7
  10
394858.509
  20
4510571.000
  0
VERTEX
  8
LC_OH_2021_05_O7
  10
394855.509
  20
4513699.500
  0
VERTEX
  8
LC_OH_2021_05_O7
  10
395338.009
  20
4514013.000
  0
SEQEND
  8
LC_OH_2021_05_O7
  0
INSERT
  8
FeatureAttribs
  2
FEATURE
  41
1
  42
1
  43
1
  50
0
  10
398839.863
  20
4512053.500
 66
1
  0
ATTRIB
  8
FeatureAttribs
 70
0
  1
PNOA-H_AMS_1956-57_33k_ES_PAN_21mic_H50_0507_fot_60C-47035_W.tif
  2
NAME
  10
398839.863
  20
4512053.500
 40
34.15567
  0
SEQEND
  0
POLYLINE
  8
LC_OH_2021_05_O7
  70
1
  66
1
  0
VERTEX
  8
LC_OH_2021_05_O7
  10
399780.956
  20
4513826.419
  0
VERTEX
  8
LC_OH_2021_05_O7
  10
399751.954
  20
4511683.472
  0
VERTEX
  8
LC_OH_2021_05_O7
  10
399733.946
  20
4510352.350
  0
VERTEX
  8
LC_OH_2021_05_O7
  10
399041.010
  20
4510083.999
  0
VERTEX
  8
LC_OH_2021_05_O7
  10
399033.510
  20
4510081.999
  0
VERTEX
  8
LC_OH_2021_05_O7
  10
397483.009
  20
4510552.499
  0
VERTEX
  8
LC_OH_2021_05_O7
  10
397523.009
  20
4513824.999
  0
VERTEX
  8
LC_OH_2021_05_O7
  10
397810.009
  20
4514024.999
  0
VERTEX
  8
LC_OH_2021_05_O7
  10
398442.509
  20
4513960.999
  0
VERTEX
  8
LC_OH_2021_05_O7
  10
398447.509
  20
4513960.499
  0
SEQEND
  8
LC_OH_2021_05_O7
  0
INSERT
  8
FeatureAttribs
  2
FEATURE
  41
1
  42
1
  43
1
  50
0
  10
393523.133
  20
4512139.001
 66
1
  0
ATTRIB
  8
FeatureAttribs
 70
0
  1
PNOA-H_AMS_1956-57_33k_ES_PAN_21mic_H50_0507_fot_60C-47037_W.tif
  2
NAME
  10
393523.133
  20
4512139.001
 40
34.15567
  0
SEQEND
  0
POLYLINE
  8
LC_OH_2021_05_O7
  70
1
  66
1
  0
VERTEX
  8
LC_OH_2021_05_O7
  10
392190.508
  20
4513864.500
  0
VERTEX
  8
LC_OH_2021_05_O7
  10
392190.508
  20
4514162.500
  0
VERTEX
  8
LC_OH_2021_05_O7
  10
394855.509
  20
4513699.500
  0
VERTEX
  8
LC_OH_2021_05_O7
  10
394858.509
  20
4510718.000
  0
VERTEX
  8
LC_OH_2021_05_O7
  10
394858.509
  20
4510571.000
  0
VERTEX
  8
LC_OH_2021_05_O7
  10
393634.509
  20
4510115.500
  0
VERTEX
  8
LC_OH_2021_05_O7
  10
392188.008
  20
4510591.000
  0
VERTEX
  8
LC_OH_2021_05_O7
  10
392190.508
  20
4513864.500
  0
SEQEND
  8
LC_OH_2021_05_O7
  0
INSERT
  8
FeatureAttribs
  2
FEATURE
  41
1
  42
1
  43
1
  50
0
  10
390855.746
  20
4512585.999
 66
1
  0
ATTRIB
  8
FeatureAttribs
 70
0
  1
PNOA-H_AMS_1956-57_33k_ES_PAN_21mic_H50_0507_fot_60C-47038_W.tif
  2
NAME
  10
390855.746
  20
4512585.999
 40
34.15567
  0
SEQEND
  0
POLYLINE
  8
LC_OH_2021_05_O7
  70
1
  66
1
  0
VERTEX
  8
LC_OH_2021_05_O7
  10
389659.508
  20
4514816.500
  0
VERTEX
  8
LC_OH_2021_05_O7
  10
390248.508
  20
4514900.500
  0
VERTEX
  8
LC_OH_2021_05_O7
  10
390252.008
  20
4514901.000
  0
VERTEX
  8
LC_OH_2021_05_O7
  10
391302.008
  20
4515049.500
  0
VERTEX
  8
LC_OH_2021_05_O7
  10
392190.508
  20
4514162.500
  0
VERTEX
  8
LC_OH_2021_05_O7
  10
392188.008
  20
4510590.500
  0
VERTEX
  8
LC_OH_2021_05_O7
  10
390928.508
  20
4510122.500
  0
VERTEX
  8
LC_OH_2021_05_O7
  10
389400.008
  20
4510603.500
  0
VERTEX
  8
LC_OH_2021_05_O7
  10
389659.508
  20
4514816.500
  0
SEQEND
  8
LC_OH_2021_05_O7
  0
INSERT
  8
FeatureAttribs
  2
FEATURE
  41
1
  42
1
  43
1
  50
0
  10
388144.139
  20
4512641.000
 66
1
  0
ATTRIB
  8
FeatureAttribs
 70
0
  1
PNOA-H_AMS_1956-57_33k_ES_PAN_21mic_H50_0507_fot_60C-47039_W.tif
  2
NAME
  10
388144.139
  20
4512641.000
 40
34.15567
  0
SEQEND
  0
POLYLINE
  8
LC_OH_2021_05_O7
  70
1
  66
1
  0
VERTEX
  8
LC_OH_2021_05_O7
  10
386908.508
  20
4514916.500
  0
VERTEX
  8
LC_OH_2021_05_O7
  10
386909.008
  20
4514918.500
  0
VERTEX
  8
LC_OH_2021_05_O7
  10
386913.508
  20
4514919.000
  0
VERTEX
  8
LC_OH_2021_05_O7
  10
388940.008
  20
4515086.500
  0
VERTEX
  8
LC_OH_2021_05_O7
  10
389659.508
  20
4514817.000
  0
VERTEX
  8
LC_OH_2021_05_O7
  10
389400.508
  20
4510604.000
  0
VERTEX
  8
LC_OH_2021_05_O7
  10
389397.508
  20
4510602.000
  0
VERTEX
  8
LC_OH_2021_05_O7
  10
389382.008
  20
4510597.000
  0
VERTEX
  8
LC_OH_2021_05_O7
  10
387855.508
  20
4510195.500
  0
VERTEX
  8
LC_OH_2021_05_O7
  10
386636.508
  20
4510675.500
  0
VERTEX
  8
LC_OH_2021_05_O7
  10
386908.508
  20
4514916.500
  0
SEQEND
  8
LC_OH_2021_05_O7
  0
INSERT
  8
FeatureAttribs
  2
FEATURE
  41
1
  42
1
  43
1
  50
0
  10
374323.597
  20
4513146.500
 66
1
  0
ATTRIB
  8
FeatureAttribs
 70
0
  1
PNOA-H_AMS_1956-57_33k_ES_PAN_21mic_H50_0507_fot_60C-47044_W.tif
  2
NAME
  10
374323.597
  20
4513146.500
 40
34.15567
  0
SEQEND
  0
POLYLINE
  8
LC_OH_2021_05_O7
  70
1
  66
1
  0
VERTEX
  8
LC_OH_2021_05_O7
  10
373008.506
  20
4515236.500
  0
VERTEX
  8
LC_OH_2021_05_O7
  10
374943.506
  20
4515558.500
  0
VERTEX
  8
LC_OH_2021_05_O7
  10
374946.506
  20
4515559.000
  0
VERTEX
  8
LC_OH_2021_05_O7
  10
375797.506
  20
4515167.500
  0
VERTEX
  8
LC_OH_2021_05_O7
  10
375641.006
  20
4510975.500
  0
VERTEX
  8
LC_OH_2021_05_O7
  10
375050.506
  20
4510734.000
  0
VERTEX
  8
LC_OH_2021_05_O7
  10
372839.506
  20
4511000.000
  0
SEQEND
  8
LC_OH_2021_05_O7
  0
INSERT
  8
FeatureAttribs
  2
FEATURE
  41
1
  42
1
  43
1
  50
0
  10
379947.718
  20
4513007.250
 66
1
  0
ATTRIB
  8
FeatureAttribs
 70
0
  1
PNOA-H_AMS_1956-57_33k_ES_PAN_21mic_H50_0507_fot_60C-47042_W.tif
  2
NAME
  10
379947.718
  20
4513007.250
 40
34.15567
  0
SEQEND
  0
POLYLINE
  8
LC_OH_2021_05_O7
  70
1
  66
1
  0
VERTEX
  8
LC_OH_2021_05_O7
  10
380547.507
  20
4515465.500
  0
VERTEX
  8
LC_OH_2021_05_O7
  10
380550.007
  20
4515465.500
  0
VERTEX
  8
LC_OH_2021_05_O7
  10
380566.507
  20
4515458.500
  0
VERTEX
  8
LC_OH_2021_05_O7
  10
381479.007
  20
4515063.500
  0
VERTEX
  8
LC_OH_2021_05_O7
  10
381231.507
  20
4510888.000
  0
VERTEX
  8
LC_OH_2021_05_O7
  10
381230.507
  20
4510885.500
  0
VERTEX
  8
LC_OH_2021_05_O7
  10
381227.507
  20
4510884.500
  0
VERTEX
  8
LC_OH_2021_05_O7
  10
380119.507
  20
4510549.000
  0
VERTEX
  8
LC_OH_2021_05_O7
  10
378441.507
  20
4510939.500
  0
VERTEX
  8
LC_OH_2021_05_O7
  10
378636.507
  20
4515103.500
  0
VERTEX
  8
LC_OH_2021_05_O7
  10
378637.007
  20
4515105.000
  0
VERTEX
  8
LC_OH_2021_05_O7
  10
380544.507
  20
4515465.000
  0
VERTEX
  8
LC_OH_2021_05_O7
  10
380547.507
  20
4515465.500
  0
SEQEND
  8
LC_OH_2021_05_O7
  0
INSERT
  8
FeatureAttribs
  2
FEATURE
  41
1
  42
1
  43
1
  50
0
  10
382710.197
  20
4512927.499
 66
1
  0
ATTRIB
  8
FeatureAttribs
 70
0
  1
PNOA-H_AMS_1956-57_33k_ES_PAN_21mic_H50_0507_fot_60C-47041_W.tif
  2
NAME
  10
382710.197
  20
4512927.499
 40
34.15567
  0
SEQEND
  0
POLYLINE
  8
LC_OH_2021_05_O7
  70
1
  66
1
  0
VERTEX
  8
LC_OH_2021_05_O7
  10
381478.507
  20
4515061.500
  0
VERTEX
  8
LC_OH_2021_05_O7
  10
381479.507
  20
4515064.000
  0
VERTEX
  8
LC_OH_2021_05_O7
  10
383371.007
  20
4515402.500
  0
VERTEX
  8
LC_OH_2021_05_O7
  10
384279.507
  20
4514997.500
  0
VERTEX
  8
LC_OH_2021_05_O7
  10
383847.007
  20
4510756.500
  0
VERTEX
  8
LC_OH_2021_05_O7
  10
382638.507
  20
4510452.500
  0
VERTEX
  8
LC_OH_2021_05_O7
  10
381231.007
  20
4510886.000
  0
VERTEX
  8
LC_OH_2021_05_O7
  10
381478.507
  20
4515061.500
  0
SEQEND
  8
LC_OH_2021_05_O7
  0
INSERT
  8
FeatureAttribs
  2
FEATURE
  41
1
  42
1
  43
1
  50
0
  10
385409.305
  20
4512743.000
 66
1
  0
ATTRIB
  8
FeatureAttribs
 70
0
  1
PNOA-H_AMS_1956-57_33k_ES_PAN_21mic_H50_0507_fot_60C-47040_W.tif
  2
NAME
  10
385409.305
  20
4512743.000
 40
34.15567
  0
SEQEND
  0
POLYLINE
  8
LC_OH_2021_05_O7
  70
1
  66
1
  0
VERTEX
  8
LC_OH_2021_05_O7
  10
384279.507
  20
4514997.500
  0
VERTEX
  8
LC_OH_2021_05_O7
  10
386306.008
  20
4515208.000
  0
VERTEX
  8
LC_OH_2021_05_O7
  10
386909.008
  20
4514918.500
  0
VERTEX
  8
LC_OH_2021_05_O7
  10
386636.008
  20
4510675.500
  0
VERTEX
  8
LC_OH_2021_05_O7
  10
385230.007
  20
4510278.000
  0
VERTEX
  8
LC_OH_2021_05_O7
  10
383847.007
  20
4510756.500
  0
VERTEX
  8
LC_OH_2021_05_O7
  10
384279.507
  20
4514997.500
  0
SEQEND
  8
LC_OH_2021_05_O7
  0
INSERT
  8
FeatureAttribs
  2
FEATURE
  41
1
  42
1
  43
1
  50
0
  10
377131.087
  20
4513089.251
 66
1
  0
ATTRIB
  8
FeatureAttribs
 70
0
  1
PNOA-H_AMS_1956-57_33k_ES_PAN_21mic_H50_0507_fot_60C-47043_W.tif
  2
NAME
  10
377131.087
  20
4513089.251
 40
34.15567
  0
SEQEND
  0
POLYLINE
  8
LC_OH_2021_05_O7
  70
1
  66
1
  0
VERTEX
  8
LC_OH_2021_05_O7
  10
375918.006
  20
4515191.500
  0
VERTEX
  8
LC_OH_2021_05_O7
  10
377688.007
  20
4515540.000
  0
VERTEX
  8
LC_OH_2021_05_O7
  10
378637.007
  20
4515104.500
  0
VERTEX
  8
LC_OH_2021_05_O7
  10
378441.507
  20
4510939.500
  0
VERTEX
  8
LC_OH_2021_05_O7
  10
377616.006
  20
4510638.500
  0
VERTEX
  8
LC_OH_2021_05_O7
  10
375641.006
  20
4510976.000
  0
VERTEX
  8
LC_OH_2021_05_O7
  10
375797.006
  20
4515162.000
  0
VERTEX
  8
LC_OH_2021_05_O7
  10
375797.506
  20
4515167.500
  0
VERTEX
  8
LC_OH_2021_05_O7
  10
375799.006
  20
4515168.000
  0
VERTEX
  8
LC_OH_2021_05_O7
  10
375915.506
  20
4515191.000
  0
VERTEX
  8
LC_OH_2021_05_O7
  10
375918.006
  20
4515191.500
  0
SEQEND
  8
LC_OH_2021_05_O7
  0
INSERT
  8
FeatureAttribs
  2
FEATURE
  41
1
  42
1
  43
1
  50
0
  10
371564.044
  20
4504453.594
 66
1
  0
ATTRIB
  8
FeatureAttribs
 70
0
  1
PNOA-H_AMS_1956-57_33k_ES_PAN_21mic_H50_0506_fot_62C-05377_E.tif
  2
NAME
  10
371564.044
  20
4504453.594
 40
34.15567
  0
SEQEND
  0
POLYLINE
  8
LC_OH_2021_05_O7
  70
1
  66
1
  0
VERTEX
  8
LC_OH_2021_05_O7
  10
371601.944
  20
4502864.314
  0
VERTEX
  8
LC_OH_2021_05_O7
  10
371451.082
  20
4502866.888
  0
VERTEX
  8
LC_OH_2021_05_O7
  10
371491.103
  20
4505179.580
  0
VERTEX
  8
LC_OH_2021_05_O7
  10
371506.049
  20
4506042.874
  0
VERTEX
  8
LC_OH_2021_05_O7
  10
371677.006
  20
4506019.000
  0
SEQEND
  8
LC_OH_2021_05_O7
  0
INSERT
  8
FeatureAttribs
  2
FEATURE
  41
1
  42
1
  43
1
  50
0
  10
375874.731
  20
4503804.499
 66
1
  0
ATTRIB
  8
FeatureAttribs
 70
0
  1
PNOA-H_AMS_1956-57_33k_ES_PAN_21mic_H50_0507_fot_62C-05379_E.tif
  2
NAME
  10
375874.731
  20
4503804.499
 40
34.15567
  0
SEQEND
  0
POLYLINE
  8
LC_OH_2021_05_O7
  70
1
  66
1
  0
VERTEX
  8
LC_OH_2021_05_O7
  10
377271.115
  20
4502768.664
  0
VERTEX
  8
LC_OH_2021_05_O7
  10
374973.091
  20
4502806.788
  0
VERTEX
  8
LC_OH_2021_05_O7
  10
374457.376
  20
4502815.588
  0
VERTEX
  8
LC_OH_2021_05_O7
  10
374486.006
  20
4505971.000
  0
VERTEX
  8
LC_OH_2021_05_O7
  10
375003.506
  20
4506212.000
  0
VERTEX
  8
LC_OH_2021_05_O7
  10
375916.006
  20
4506128.000
  0
VERTEX
  8
LC_OH_2021_05_O7
  10
375919.506
  20
4506128.000
  0
VERTEX
  8
LC_OH_2021_05_O7
  10
377308.506
  20
4506000.500
  0
SEQEND
  8
LC_OH_2021_05_O7
  0
INSERT
  8
FeatureAttribs
  2
FEATURE
  41
1
  42
1
  43
1
  50
0
  10
381444.142
  20
4503638.749
 66
1
  0
ATTRIB
  8
FeatureAttribs
 70
0
  1
PNOA-H_AMS_1956-57_33k_ES_PAN_21mic_H50_0507_fot_62C-05381_E.tif
  2
NAME
  10
381444.142
  20
4503638.749
 40
34.15567
  0
SEQEND
  0
POLYLINE
  8
LC_OH_2021_05_O7
  70
1
  66
1
  0
VERTEX
  8
LC_OH_2021_05_O7
  10
382813.439
  20
4502679.141
  0
VERTEX
  8
LC_OH_2021_05_O7
  10
382017.080
  20
4502691.598
  0
VERTEX
  8
LC_OH_2021_05_O7
  10
380068.874
  20
4502722.995
  0
VERTEX
  8
LC_OH_2021_05_O7
  10
380072.507
  20
4506026.500
  0
VERTEX
  8
LC_OH_2021_05_O7
  10
380122.007
  20
4506054.500
  0
VERTEX
  8
LC_OH_2021_05_O7
  10
380132.507
  20
4506055.000
  0
VERTEX
  8
LC_OH_2021_05_O7
  10
382568.007
  20
4506107.500
  0
VERTEX
  8
LC_OH_2021_05_O7
  10
382591.507
  20
4506108.000
  0
VERTEX
  8
LC_OH_2021_05_O7
  10
382612.007
  20
4506108.000
  0
VERTEX
  8
LC_OH_2021_05_O7
  10
382830.507
  20
4505993.000
  0
SEQEND
  8
LC_OH_2021_05_O7
  0
INSERT
  8
FeatureAttribs
  2
FEATURE
  41
1
  42
1
  43
1
  50
0
  10
384180.918
  20
4503620.750
 66
1
  0
ATTRIB
  8
FeatureAttribs
 70
0
  1
PNOA-H_AMS_1956-57_33k_ES_PAN_21mic_H50_0507_fot_62C-05382_E.tif
  2
NAME
  10
384180.918
  20
4503620.750
 40
34.15567
  0
SEQEND
  0
POLYLINE
  8
LC_OH_2021_05_O7
  70
1
  66
1
  0
VERTEX
  8
LC_OH_2021_05_O7
  10
385535.311
  20
4502636.567
  0
VERTEX
  8
LC_OH_2021_05_O7
  10
382813.439
  20
4502679.141
  0
VERTEX
  8
LC_OH_2021_05_O7
  10
382830.507
  20
4505993.000
  0
VERTEX
  8
LC_OH_2021_05_O7
  10
385188.507
  20
4506140.500
  0
VERTEX
  8
LC_OH_2021_05_O7
  10
385196.507
  20
4506141.000
  0
VERTEX
  8
LC_OH_2021_05_O7
  10
385205.007
  20
4506141.000
  0
VERTEX
  8
LC_OH_2021_05_O7
  10
385218.007
  20
4506134.500
  0
VERTEX
  8
LC_OH_2021_05_O7
  10
385563.008
  20
4505955.000
  0
SEQEND
  8
LC_OH_2021_05_O7
  0
INSERT
  8
FeatureAttribs
  2
FEATURE
  41
1
  42
1
  43
1
  50
0
  10
392298.284
  20
4504177.000
 66
1
  0
ATTRIB
  8
FeatureAttribs
 70
0
  1
PNOA-H_AMS_1956-57_33k_ES_PAN_21mic_H50_0507_fot_62C-05385_E.tif
  2
NAME
  10
392298.284
  20
4504177.000
 40
34.15567
  0
SEQEND
  0
POLYLINE
  8
LC_OH_2021_05_O7
  70
1
  66
1
  0
VERTEX
  8
LC_OH_2021_05_O7
  10
393565.392
  20
4502517.370
  0
VERTEX
  8
LC_OH_2021_05_O7
  10
392582.992
  20
4502531.339
  0
VERTEX
  8
LC_OH_2021_05_O7
  10
390920.730
  20
4502555.763
  0
VERTEX
  8
LC_OH_2021_05_O7
  10
391054.008
  20
4505997.500
  0
VERTEX
  8
LC_OH_2021_05_O7
  10
393492.009
  20
4506023.500
  0
VERTEX
  8
LC_OH_2021_05_O7
  10
393539.509
  20
4506024.000
  0
VERTEX
  8
LC_OH_2021_05_O7
  10
393582.009
  20
4506024.000
  0
VERTEX
  8
LC_OH_2021_05_O7
  10
393663.509
  20
4505980.000
  0
VERTEX
  8
LC_OH_2021_05_O7
  10
393664.509
  20
4505979.000
  0
VERTEX
  8
LC_OH_2021_05_O7
  10
393664.509
  20
4505967.500
  0
SEQEND
  8
LC_OH_2021_05_O7
  0
INSERT
  8
FeatureAttribs
  2
FEATURE
  41
1
  42
1
  43
1
  50
0
  10
378675.858
  20
4503708.999
 66
1
  0
ATTRIB
  8
FeatureAttribs
 70
0
  1
PNOA-H_AMS_1956-57_33k_ES_PAN_21mic_H50_0507_fot_62C-05380_E.tif
  2
NAME
  10
378675.858
  20
4503708.999
 40
34.15567
  0
SEQEND
  0
POLYLINE
  8
LC_OH_2021_05_O7
  70
1
  66
1
  0
VERTEX
  8
LC_OH_2021_05_O7
  10
380068.874
  20
4502722.995
  0
VERTEX
  8
LC_OH_2021_05_O7
  10
378495.090
  20
4502748.358
  0
VERTEX
  8
LC_OH_2021_05_O7
  10
377270.775
  20
4502768.669
  0
VERTEX
  8
LC_OH_2021_05_O7
  10
377308.506
  20
4506001.000
  0
VERTEX
  8
LC_OH_2021_05_O7
  10
377570.506
  20
4506134.000
  0
VERTEX
  8
LC_OH_2021_05_O7
  10
377571.006
  20
4506135.000
  0
VERTEX
  8
LC_OH_2021_05_O7
  10
380072.507
  20
4506026.500
  0
SEQEND
  8
LC_OH_2021_05_O7
  0
INSERT
  8
FeatureAttribs
  2
FEATURE
  41
1
  42
1
  43
1
  50
0
  10
394873.130
  20
4504154.500
 66
1
  0
ATTRIB
  8
FeatureAttribs
 70
0
  1
PNOA-H_AMS_1956-57_33k_ES_PAN_21mic_H50_0507_fot_62C-05386_E.tif
  2
NAME
  10
394873.130
  20
4504154.500
 40
34.15567
  0
SEQEND
  0
POLYLINE
  8
LC_OH_2021_05_O7
  70
1
  66
1
  0
VERTEX
  8
LC_OH_2021_05_O7
  10
396120.956
  20
4502481.040
  0
VERTEX
  8
LC_OH_2021_05_O7
  10
396104.945
  20
4502481.260
  0
VERTEX
  8
LC_OH_2021_05_O7
  10
393565.303
  20
4502517.371
  0
VERTEX
  8
LC_OH_2021_05_O7
  10
393664.509
  20
4505979.000
  0
VERTEX
  8
LC_OH_2021_05_O7
  10
394331.509
  20
4505967.000
  0
VERTEX
  8
LC_OH_2021_05_O7
  10
394351.509
  20
4505967.000
  0
VERTEX
  8
LC_OH_2021_05_O7
  10
396148.009
  20
4505935.000
  0
SEQEND
  8
LC_OH_2021_05_O7
  0
INSERT
  8
FeatureAttribs
  2
FEATURE
  41
1
  42
1
  43
1
  50
0
  10
386902.961
  20
4503757.404
 66
1
  0
ATTRIB
  8
FeatureAttribs
 70
0
  1
PNOA-H_AMS_1956-57_33k_ES_PAN_21mic_H50_0507_fot_62C-05383_E.tif
  2
NAME
  10
386902.961
  20
4503757.404
 40
34.15567
  0
SEQEND
  0
POLYLINE
  8
LC_OH_2021_05_O7
  70
1
  66
1
  0
VERTEX
  8
LC_OH_2021_05_O7
  10
388231.982
  20
4502595.663
  0
VERTEX
  8
LC_OH_2021_05_O7
  10
385539.060
  20
4502636.508
  0
VERTEX
  8
LC_OH_2021_05_O7
  10
385535.311
  20
4502636.567
  0
VERTEX
  8
LC_OH_2021_05_O7
  10
385563.008
  20
4505955.000
  0
VERTEX
  8
LC_OH_2021_05_O7
  10
386150.008
  20
4506001.500
  0
VERTEX
  8
LC_OH_2021_05_O7
  10
386156.508
  20
4506002.000
  0
VERTEX
  8
LC_OH_2021_05_O7
  10
387927.008
  20
4506141.500
  0
VERTEX
  8
LC_OH_2021_05_O7
  10
388316.508
  20
4505949.000
  0
SEQEND
  8
LC_OH_2021_05_O7
  0
INSERT
  8
FeatureAttribs
  2
FEATURE
  41
1
  42
1
  43
1
  50
0
  10
399233.023
  20
4504164.000
 66
1
  0
ATTRIB
  8
FeatureAttribs
 70
0
  1
PNOA-H_AMS_1956-57_33k_ES_PAN_21mic_H50_0508_fot_62C-05388_E.tif
  2
NAME
  10
399233.023
  20
4504164.000
 40
34.15567
  0
SEQEND
  0
POLYLINE
  8
LC_OH_2021_05_O7
  70
1
  66
1
  0
VERTEX
  8
LC_OH_2021_05_O7
  10
399674.316
  20
4505942.513
  0
VERTEX
  8
LC_OH_2021_05_O7
  10
399658.136
  20
4504745.494
  0
VERTEX
  8
LC_OH_2021_05_O7
  10
399626.890
  20
4502432.850
  0
VERTEX
  8
LC_OH_2021_05_O7
  10
398673.113
  20
4502445.960
  0
VERTEX
  8
LC_OH_2021_05_O7
  10
398679.009
  20
4505881.999
  0
VERTEX
  8
LC_OH_2021_05_O7
  10
398927.509
  20
4505997.999
  0
VERTEX
  8
LC_OH_2021_05_O7
  10
398932.509
  20
4505997.999
  0
SEQEND
  8
LC_OH_2021_05_O7
  0
INSERT
  8
FeatureAttribs
  2
FEATURE
  41
1
  42
1
  43
1
  50
0
  10
389629.526
  20
4504236.250
 66
1
  0
ATTRIB
  8
FeatureAttribs
 70
0
  1
PNOA-H_AMS_1956-57_33k_ES_PAN_21mic_H50_0507_fot_62C-05384_E.tif
  2
NAME
  10
389629.526
  20
4504236.250
 40
34.15567
  0
SEQEND
  0
POLYLINE
  8
LC_OH_2021_05_O7
  70
1
  66
1
  0
VERTEX
  8
LC_OH_2021_05_O7
  10
390920.583
  20
4502555.766
  0
VERTEX
  8
LC_OH_2021_05_O7
  10
389061.030
  20
4502583.089
  0
VERTEX
  8
LC_OH_2021_05_O7
  10
388231.983
  20
4502595.663
  0
VERTEX
  8
LC_OH_2021_05_O7
  10
388316.008
  20
4505929.000
  0
VERTEX
  8
LC_OH_2021_05_O7
  10
388316.508
  20
4505948.500
  0
VERTEX
  8
LC_OH_2021_05_O7
  10
388317.508
  20
4505949.000
  0
VERTEX
  8
LC_OH_2021_05_O7
  10
389474.508
  20
4506042.500
  0
VERTEX
  8
LC_OH_2021_05_O7
  10
390980.008
  20
4506030.000
  0
VERTEX
  8
LC_OH_2021_05_O7
  10
390997.008
  20
4506029.500
  0
VERTEX
  8
LC_OH_2021_05_O7
  10
391054.008
  20
4505997.500
  0
SEQEND
  8
LC_OH_2021_05_O7
  0
INSERT
  8
FeatureAttribs
  2
FEATURE
  41
1
  42
1
  43
1
  50
0
  10
397405.118
  20
4504170.501
 66
1
  0
ATTRIB
  8
FeatureAttribs
 70
0
  1
PNOA-H_AMS_1956-57_33k_ES_PAN_21mic_H50_0507_fot_62C-05387_E.tif
  2
NAME
  10
397405.118
  20
4504170.501
 40
34.15567
  0
SEQEND
  0
POLYLINE
  8
LC_OH_2021_05_O7
  70
1
  66
1
  0
VERTEX
  8
LC_OH_2021_05_O7
  10
398673.113
  20
4502445.960
  0
VERTEX
  8
LC_OH_2021_05_O7
  10
396120.956
  20
4502481.040
  0
VERTEX
  8
LC_OH_2021_05_O7
  10
396148.009
  20
4505935.000
  0
VERTEX
  8
LC_OH_2021_05_O7
  10
396300.509
  20
4506010.500
  0
VERTEX
  8
LC_OH_2021_05_O7
  10
396301.509
  20
4506011.000
  0
VERTEX
  8
LC_OH_2021_05_O7
  10
398679.009
  20
4505881.999
  0
SEQEND
  8
LC_OH_2021_05_O7
  0
INSERT
  8
FeatureAttribs
  2
FEATURE
  41
1
  42
1
  43
1
  50
0
  10
373047.100
  20
4503911.249
 66
1
  0
ATTRIB
  8
FeatureAttribs
 70
0
  1
PNOA-H_AMS_1956-57_33k_ES_PAN_21mic_H50_0507_fot_62C-05378_E.tif
  2
NAME
  10
373047.100
  20
4503911.249
 40
34.15567
  0
SEQEND
  0
POLYLINE
  8
LC_OH_2021_05_O7
  70
1
  66
1
  0
VERTEX
  8
LC_OH_2021_05_O7
  10
374457.066
  20
4502815.593
  0
VERTEX
  8
LC_OH_2021_05_O7
  10
371602.245
  20
4502864.309
  0
VERTEX
  8
LC_OH_2021_05_O7
  10
371677.006
  20
4506019.000
  0
VERTEX
  8
LC_OH_2021_05_O7
  10
372280.006
  20
4506306.000
  0
VERTEX
  8
LC_OH_2021_05_O7
  10
374486.006
  20
4505970.500
  0
SEQEND
  8
LC_OH_2021_05_O7
  0
INSERT
  8
FeatureAttribs
  2
FEATURE
  41
1
  42
1
  43
1
  50
0
  10
372782.600
  20
4517696.250
 66
1
  0
ATTRIB
  8
FeatureAttribs
 70
0
  1
PNOA-H_AMS_1956-57_33k_ES_PAN_21mic_H50_0506_fot_000-42216_R.tif
  2
NAME
  10
372782.600
  20
4517696.250
 40
34.15567
  0
SEQEND
  0
POLYLINE
  8
LC_OH_2021_05_O7
  70
1
  66
1
  0
VERTEX
  8
LC_OH_2021_05_O7
  10
372085.506
  20
4519871.500
  0
VERTEX
  8
LC_OH_2021_05_O7
  10
372496.006
  20
4520051.500
  0
VERTEX
  8
LC_OH_2021_05_O7
  10
372499.506
  20
4520053.000
  0
VERTEX
  8
LC_OH_2021_05_O7
  10
372503.506
  20
4520053.000
  0
VERTEX
  8
LC_OH_2021_05_O7
  10
373870.506
  20
4519815.500
  0
VERTEX
  8
LC_OH_2021_05_O7
  10
373871.506
  20
4519815.500
  0
VERTEX
  8
LC_OH_2021_05_O7
  10
374107.006
  20
4519775.000
  0
VERTEX
  8
LC_OH_2021_05_O7
  10
374114.506
  20
4519773.500
  0
VERTEX
  8
LC_OH_2021_05_O7
  10
374114.506
  20
4519772.000
  0
VERTEX
  8
LC_OH_2021_05_O7
  10
372803.506
  20
4515339.500
  0
VERTEX
  8
LC_OH_2021_05_O7
  10
372118.506
  20
4515625.000
  0
VERTEX
  8
LC_OH_2021_05_O7
  10
372026.506
  20
4519163.000
  0
SEQEND
  8
LC_OH_2021_05_O7
  0
INSERT
  8
FeatureAttribs
  2
FEATURE
  41
1
  42
1
  43
1
  50
0
  10
371906.708
  20
4519385.914
 66
1
  0
ATTRIB
  8
FeatureAttribs
 70
0
  1
PNOA-H_AMS_1956-57_33k_ES_PAN_21mic_H50_0506_fot_000-42215_R.tif
  2
NAME
  10
371906.708
  20
4519385.914
 40
34.15567
  0
SEQEND
  0
POLYLINE
  8
LC_OH_2021_05_O7
  70
1
  66
1
  0
VERTEX
  8
LC_OH_2021_05_O7
  10
371746.724
  20
4519927.916
  0
VERTEX
  8
LC_OH_2021_05_O7
  10
372085.506
  20
4519871.500
  0
VERTEX
  8
LC_OH_2021_05_O7
  10
372026.506
  20
4519169.000
  0
VERTEX
  8
LC_OH_2021_05_O7
  10
371727.911
  20
4518843.913
  0
VERTEX
  8
LC_OH_2021_05_O7
  10
371731.589
  20
4519055.895
  0
SEQEND
  8
LC_OH_2021_05_O7
  0
ENDSEC
  0
EOF
