  0
SECTION
  2
HEADER
  9
$ACADVER
  1
AC1009
  9
$LUNITS
  70
2
  9
$LIMMIN
  10
343274.610
  20
4502866.888
  9
$LIMMAX
  10
371771.729
  20
4521910.063
  9
$EXTMIN
  10
343274.610
  20
4502866.888
  9
$EXTMAX
  10
371771.729
  20
4521910.063
  999
Created by Global Mapper
  999
Projection: UTM
  999
Datum: ETRS89
  999
Ground Units: meters
  999
ZONE: 30
  0
ENDSEC
  0
SECTION
  2
TABLES
  0
ENDSEC
  0
SECTION
  2
BLOCKS
  0
BLOCK
  8
FeatureAttribs
  70
0
  2
FEATURE
  3
FEATURE
  10
0.00000000
  20
0.00000000
  0
ATTDEF
  8
FeatureAttribs
  70
0
  1
 
  2
NAME
  3
NAME
  10
0.00000000
  20
0.00000000
  40
1.00000000
  0
ENDBLK
  0
ENDSEC
  0
SECTION
  2
ENTITIES
  0
INSERT
  8
FeatureAttribs
  2
FEATURE
  41
1
  42
1
  43
1
  50
0
  10
344212.622
  20
4521249.645
 66
1
  0
ATTRIB
  8
FeatureAttribs
 70
0
  1
PNOA-H_AMS_1956-57_33k_ES_PAN_21mic_H50_0480_fot_58C-35962_W.tif
  2
NAME
  10
344212.622
  20
4521249.645
 40
34.27431
  0
SEQEND
  0
POLYLINE
  8
LC_OH_2021_05_O7
  70
1
  66
1
  0
VERTEX
  8
LC_OH_2021_05_O7
  10
344787.607
  20
4521886.580
  0
VERTEX
  8
LC_OH_2021_05_O7
  10
344762.503
  20
4520681.500
  0
VERTEX
  8
LC_OH_2021_05_O7
  10
344613.003
  20
4520666.500
  0
VERTEX
  8
LC_OH_2021_05_O7
  10
344202.503
  20
4520625.500
  0
VERTEX
  8
LC_OH_2021_05_O7
  10
344191.503
  20
4520628.500
  0
VERTEX
  8
LC_OH_2021_05_O7
  10
344187.503
  20
4520628.500
  0
VERTEX
  8
LC_OH_2021_05_O7
  10
343641.003
  20
4520589.500
  0
VERTEX
  8
LC_OH_2021_05_O7
  10
343637.638
  20
4520589.227
  0
VERTEX
  8
LC_OH_2021_05_O7
  10
343665.591
  20
4521910.063
  0
SEQEND
  8
LC_OH_2021_05_O7
  0
INSERT
  8
FeatureAttribs
  2
FEATURE
  41
1
  42
1
  43
1
  50
0
  10
371144.263
  20
4520735.750
 66
1
  0
ATTRIB
  8
FeatureAttribs
 70
0
  1
PNOA-H_AMS_1956-57_33k_ES_PAN_21mic_H50_0481_fot_58C-35952_W.tif
  2
NAME
  10
371144.263
  20
4520735.750
 40
34.27431
  0
SEQEND
  0
POLYLINE
  8
LC_OH_2021_05_O7
  70
1
  66
1
  0
VERTEX
  8
LC_OH_2021_05_O7
  10
371746.721
  20
4519927.774
  0
VERTEX
  8
LC_OH_2021_05_O7
  10
369707.506
  20
4520267.000
  0
VERTEX
  8
LC_OH_2021_05_O7
  10
369775.006
  20
4521387.500
  0
VERTEX
  8
LC_OH_2021_05_O7
  10
369775.006
  20
4521396.000
  0
VERTEX
  8
LC_OH_2021_05_O7
  10
369775.474
  20
4521403.771
  0
VERTEX
  8
LC_OH_2021_05_O7
  10
371771.729
  20
4521368.642
  0
SEQEND
  8
LC_OH_2021_05_O7
  0
INSERT
  8
FeatureAttribs
  2
FEATURE
  41
1
  42
1
  43
1
  50
0
  10
365518.352
  20
4520999.250
 66
1
  0
ATTRIB
  8
FeatureAttribs
 70
0
  1
PNOA-H_AMS_1956-57_33k_ES_PAN_21mic_H50_0481_fot_58C-35954_W.tif
  2
NAME
  10
365518.352
  20
4520999.250
 40
34.27431
  0
SEQEND
  0
POLYLINE
  8
LC_OH_2021_05_O7
  70
1
  66
1
  0
VERTEX
  8
LC_OH_2021_05_O7
  10
366936.093
  20
4521454.368
  0
VERTEX
  8
LC_OH_2021_05_O7
  10
366877.005
  20
4520463.000
  0
VERTEX
  8
LC_OH_2021_05_O7
  10
366470.005
  20
4520269.000
  0
VERTEX
  8
LC_OH_2021_05_O7
  10
366466.505
  20
4520268.500
  0
VERTEX
  8
LC_OH_2021_05_O7
  10
364118.005
  20
4520684.000
  0
VERTEX
  8
LC_OH_2021_05_O7
  10
364143.382
  20
4521505.129
  0
VERTEX
  8
LC_OH_2021_05_O7
  10
364745.260
  20
4521493.964
  0
SEQEND
  8
LC_OH_2021_05_O7
  0
INSERT
  8
FeatureAttribs
  2
FEATURE
  41
1
  42
1
  43
1
  50
0
  10
357112.142
  20
4521265.250
 66
1
  0
ATTRIB
  8
FeatureAttribs
 70
0
  1
PNOA-H_AMS_1956-57_33k_ES_PAN_21mic_H50_0481_fot_58C-35957_W.tif
  2
NAME
  10
357112.142
  20
4521265.250
 40
34.27431
  0
SEQEND
  0
POLYLINE
  8
LC_OH_2021_05_O7
  70
1
  66
1
  0
VERTEX
  8
LC_OH_2021_05_O7
  10
358509.574
  20
4521610.929
  0
VERTEX
  8
LC_OH_2021_05_O7
  10
358491.005
  20
4521069.500
  0
VERTEX
  8
LC_OH_2021_05_O7
  10
357430.504
  20
4520660.500
  0
VERTEX
  8
LC_OH_2021_05_O7
  10
355736.504
  20
4521205.000
  0
VERTEX
  8
LC_OH_2021_05_O7
  10
355726.004
  20
4521208.500
  0
VERTEX
  8
LC_OH_2021_05_O7
  10
355725.004
  20
4521210.500
  0
VERTEX
  8
LC_OH_2021_05_O7
  10
355738.153
  20
4521664.599
  0
VERTEX
  8
LC_OH_2021_05_O7
  10
357718.748
  20
4521625.975
  0
SEQEND
  8
LC_OH_2021_05_O7
  0
INSERT
  8
FeatureAttribs
  2
FEATURE
  41
1
  42
1
  43
1
  50
0
  10
368321.026
  20
4520845.500
 66
1
  0
ATTRIB
  8
FeatureAttribs
 70
0
  1
PNOA-H_AMS_1956-57_33k_ES_PAN_21mic_H50_0481_fot_58C-35953_W.tif
  2
NAME
  10
368321.026
  20
4520845.500
 40
34.27431
  0
SEQEND
  0
POLYLINE
  8
LC_OH_2021_05_O7
  70
1
  66
1
  0
VERTEX
  8
LC_OH_2021_05_O7
  10
369775.852
  20
4521403.765
  0
VERTEX
  8
LC_OH_2021_05_O7
  10
369707.506
  20
4520267.000
  0
VERTEX
  8
LC_OH_2021_05_O7
  10
369321.006
  20
4520093.000
  0
VERTEX
  8
LC_OH_2021_05_O7
  10
369316.506
  20
4520091.000
  0
VERTEX
  8
LC_OH_2021_05_O7
  10
369313.506
  20
4520091.000
  0
VERTEX
  8
LC_OH_2021_05_O7
  10
366877.005
  20
4520463.000
  0
VERTEX
  8
LC_OH_2021_05_O7
  10
366936.032
  20
4521454.369
  0
VERTEX
  8
LC_OH_2021_05_O7
  10
368258.500
  20
4521430.467
  0
SEQEND
  8
LC_OH_2021_05_O7
  0
INSERT
  8
FeatureAttribs
  2
FEATURE
  41
1
  42
1
  43
1
  50
0
  10
359885.890
  20
4521124.750
 66
1
  0
ATTRIB
  8
FeatureAttribs
 70
0
  1
PNOA-H_AMS_1956-57_33k_ES_PAN_21mic_H50_0481_fot_58C-35956_W.tif
  2
NAME
  10
359885.890
  20
4521124.750
 40
34.27431
  0
SEQEND
  0
POLYLINE
  8
LC_OH_2021_05_O7
  70
1
  66
1
  0
VERTEX
  8
LC_OH_2021_05_O7
  10
361301.299
  20
4521557.848
  0
VERTEX
  8
LC_OH_2021_05_O7
  10
361268.005
  20
4520900.500
  0
VERTEX
  8
LC_OH_2021_05_O7
  10
361267.505
  20
4520898.500
  0
VERTEX
  8
LC_OH_2021_05_O7
  10
360682.005
  20
4520638.500
  0
VERTEX
  8
LC_OH_2021_05_O7
  10
360681.005
  20
4520638.500
  0
VERTEX
  8
LC_OH_2021_05_O7
  10
360417.505
  20
4520521.000
  0
VERTEX
  8
LC_OH_2021_05_O7
  10
360411.505
  20
4520519.500
  0
VERTEX
  8
LC_OH_2021_05_O7
  10
358490.505
  20
4521069.000
  0
VERTEX
  8
LC_OH_2021_05_O7
  10
358509.143
  20
4521610.937
  0
VERTEX
  8
LC_OH_2021_05_O7
  10
361232.010
  20
4521559.133
  0
SEQEND
  8
LC_OH_2021_05_O7
  0
INSERT
  8
FeatureAttribs
  2
FEATURE
  41
1
  42
1
  43
1
  50
0
  10
351609.211
  20
4521487.251
 66
1
  0
ATTRIB
  8
FeatureAttribs
 70
0
  1
PNOA-H_AMS_1956-57_33k_ES_PAN_21mic_H50_0481_fot_58C-35959_W.tif
  2
NAME
  10
351609.211
  20
4521487.251
 40
34.27431
  0
SEQEND
  0
POLYLINE
  8
LC_OH_2021_05_O7
  70
1
  66
1
  0
VERTEX
  8
LC_OH_2021_05_O7
  10
352981.688
  20
4521718.936
  0
VERTEX
  8
LC_OH_2021_05_O7
  10
352973.504
  20
4521302.500
  0
VERTEX
  8
LC_OH_2021_05_O7
  10
352973.004
  20
4521300.500
  0
VERTEX
  8
LC_OH_2021_05_O7
  10
352949.004
  20
4521292.500
  0
VERTEX
  8
LC_OH_2021_05_O7
  10
351922.504
  20
4520954.500
  0
VERTEX
  8
LC_OH_2021_05_O7
  10
350995.004
  20
4521015.000
  0
VERTEX
  8
LC_OH_2021_05_O7
  10
350239.504
  20
4521299.000
  0
VERTEX
  8
LC_OH_2021_05_O7
  10
350244.027
  20
4521773.841
  0
VERTEX
  8
LC_OH_2021_05_O7
  10
350692.193
  20
4521764.674
  0
SEQEND
  8
LC_OH_2021_05_O7
  0
INSERT
  8
FeatureAttribs
  2
FEATURE
  41
1
  42
1
  43
1
  50
0
  10
354350.901
  20
4521315.500
 66
1
  0
ATTRIB
  8
FeatureAttribs
 70
0
  1
PNOA-H_AMS_1956-57_33k_ES_PAN_21mic_H50_0481_fot_58C-35958_W.tif
  2
NAME
  10
354350.901
  20
4521315.500
 40
34.27431
  0
SEQEND
  0
POLYLINE
  8
LC_OH_2021_05_O7
  70
1
  66
1
  0
VERTEX
  8
LC_OH_2021_05_O7
  10
355738.595
  20
4521664.590
  0
VERTEX
  8
LC_OH_2021_05_O7
  10
355725.504
  20
4521210.500
  0
VERTEX
  8
LC_OH_2021_05_O7
  10
355724.504
  20
4521208.500
  0
VERTEX
  8
LC_OH_2021_05_O7
  10
355722.004
  20
4521207.500
  0
VERTEX
  8
LC_OH_2021_05_O7
  10
354472.004
  20
4520761.000
  0
VERTEX
  8
LC_OH_2021_05_O7
  10
352973.004
  20
4521301.000
  0
VERTEX
  8
LC_OH_2021_05_O7
  10
352981.267
  20
4521718.945
  0
VERTEX
  8
LC_OH_2021_05_O7
  10
354205.476
  20
4521694.488
  0
SEQEND
  8
LC_OH_2021_05_O7
  0
INSERT
  8
FeatureAttribs
  2
FEATURE
  41
1
  42
1
  43
1
  50
0
  10
362702.917
  20
4521063.500
 66
1
  0
ATTRIB
  8
FeatureAttribs
 70
0
  1
PNOA-H_AMS_1956-57_33k_ES_PAN_21mic_H50_0481_fot_58C-35955_W.tif
  2
NAME
  10
362702.917
  20
4521063.500
 40
34.27431
  0
SEQEND
  0
POLYLINE
  8
LC_OH_2021_05_O7
  70
1
  66
1
  0
VERTEX
  8
LC_OH_2021_05_O7
  10
364143.662
  20
4521505.123
  0
VERTEX
  8
LC_OH_2021_05_O7
  10
364118.505
  20
4520692.500
  0
VERTEX
  8
LC_OH_2021_05_O7
  10
364117.505
  20
4520683.500
  0
VERTEX
  8
LC_OH_2021_05_O7
  10
364021.005
  20
4520638.500
  0
VERTEX
  8
LC_OH_2021_05_O7
  10
364020.005
  20
4520638.500
  0
VERTEX
  8
LC_OH_2021_05_O7
  10
363501.505
  20
4520397.000
  0
VERTEX
  8
LC_OH_2021_05_O7
  10
361267.505
  20
4520899.000
  0
VERTEX
  8
LC_OH_2021_05_O7
  10
361300.883
  20
4521557.856
  0
SEQEND
  8
LC_OH_2021_05_O7
  0
INSERT
  8
FeatureAttribs
  2
FEATURE
  41
1
  42
1
  43
1
  50
0
  10
348882.262
  20
4521404.750
 66
1
  0
ATTRIB
  8
FeatureAttribs
 70
0
  1
PNOA-H_AMS_1956-57_33k_ES_PAN_21mic_H50_0481_fot_58C-35960_W.tif
  2
NAME
  10
348882.262
  20
4521404.750
 40
34.27431
  0
SEQEND
  0
POLYLINE
  8
LC_OH_2021_05_O7
  70
1
  66
1
  0
VERTEX
  8
LC_OH_2021_05_O7
  10
350243.953
  20
4521773.842
  0
VERTEX
  8
LC_OH_2021_05_O7
  10
350239.504
  20
4521299.000
  0
VERTEX
  8
LC_OH_2021_05_O7
  10
348493.004
  20
4520789.500
  0
VERTEX
  8
LC_OH_2021_05_O7
  10
348488.504
  20
4520790.000
  0
VERTEX
  8
LC_OH_2021_05_O7
  10
347523.004
  20
4521207.000
  0
VERTEX
  8
LC_OH_2021_05_O7
  10
347526.304
  20
4521829.427
  0
SEQEND
  8
LC_OH_2021_05_O7
  0
INSERT
  8
FeatureAttribs
  2
FEATURE
  41
1
  42
1
  43
1
  50
0
  10
346149.782
  20
4521326.500
 66
1
  0
ATTRIB
  8
FeatureAttribs
 70
0
  1
PNOA-H_AMS_1956-57_33k_ES_PAN_21mic_H50_0481_fot_58C-35961_W.tif
  2
NAME
  10
346149.782
  20
4521326.500
 40
34.27431
  0
SEQEND
  0
POLYLINE
  8
LC_OH_2021_05_O7
  70
1
  66
1
  0
VERTEX
  8
LC_OH_2021_05_O7
  10
347526.338
  20
4521829.426
  0
VERTEX
  8
LC_OH_2021_05_O7
  10
347523.004
  20
4521207.000
  0
VERTEX
  8
LC_OH_2021_05_O7
  10
344786.503
  20
4520633.000
  0
VERTEX
  8
LC_OH_2021_05_O7
  10
344775.503
  20
4520634.500
  0
VERTEX
  8
LC_OH_2021_05_O7
  10
344631.003
  20
4520668.000
  0
VERTEX
  8
LC_OH_2021_05_O7
  10
344762.503
  20
4520681.500
  0
VERTEX
  8
LC_OH_2021_05_O7
  10
344787.607
  20
4521886.580
  0
VERTEX
  8
LC_OH_2021_05_O7
  10
347178.898
  20
4521836.532
  0
SEQEND
  8
LC_OH_2021_05_O7
  0
INSERT
  8
FeatureAttribs
  2
FEATURE
  41
1
  42
1
  43
1
  50
0
  10
344039.956
  20
4508705.001
 66
1
  0
ATTRIB
  8
FeatureAttribs
 70
0
  1
PNOA-H_AMS_1956-57_33k_ES_PAN_21mic_H50_0505_fot_61C-39598_W.tif
  2
NAME
  10
344039.956
  20
4508705.001
 40
34.27431
  0
SEQEND
  0
POLYLINE
  8
LC_OH_2021_05_O7
  70
1
  66
1
  0
VERTEX
  8
LC_OH_2021_05_O7
  10
343434.982
  20
4511004.502
  0
VERTEX
  8
LC_OH_2021_05_O7
  10
344485.003
  20
4510904.500
  0
VERTEX
  8
LC_OH_2021_05_O7
  10
344739.503
  20
4510805.500
  0
VERTEX
  8
LC_OH_2021_05_O7
  10
344693.003
  20
4506584.500
  0
VERTEX
  8
LC_OH_2021_05_O7
  10
344400.003
  20
4506405.500
  0
VERTEX
  8
LC_OH_2021_05_O7
  10
343340.408
  20
4506525.833
  0
VERTEX
  8
LC_OH_2021_05_O7
  10
343372.230
  20
4508033.347
  0
VERTEX
  8
LC_OH_2021_05_O7
  10
343421.072
  20
4510346.115
  0
SEQEND
  8
LC_OH_2021_05_O7
  0
INSERT
  8
FeatureAttribs
  2
FEATURE
  41
1
  42
1
  43
1
  50
0
  10
367986.495
  20
4508614.499
 66
1
  0
ATTRIB
  8
FeatureAttribs
 70
0
  1
PNOA-H_AMS_1956-57_33k_ES_PAN_21mic_H50_0506_fot_61C-39589_W.tif
  2
NAME
  10
367986.495
  20
4508614.499
 40
34.27431
  0
SEQEND
  0
POLYLINE
  8
LC_OH_2021_05_O7
  70
1
  66
1
  0
VERTEX
  8
LC_OH_2021_05_O7
  10
367363.005
  20
4511134.500
  0
VERTEX
  8
LC_OH_2021_05_O7
  10
369412.006
  20
4510799.000
  0
VERTEX
  8
LC_OH_2021_05_O7
  10
369382.506
  20
4506339.500
  0
VERTEX
  8
LC_OH_2021_05_O7
  10
368889.506
  20
4506094.500
  0
VERTEX
  8
LC_OH_2021_05_O7
  10
366592.005
  20
4506310.500
  0
VERTEX
  8
LC_OH_2021_05_O7
  10
366559.505
  20
4510828.000
  0
VERTEX
  8
LC_OH_2021_05_O7
  10
367361.505
  20
4511134.000
  0
VERTEX
  8
LC_OH_2021_05_O7
  10
367363.005
  20
4511134.500
  0
SEQEND
  8
LC_OH_2021_05_O7
  0
INSERT
  8
FeatureAttribs
  2
FEATURE
  41
1
  42
1
  43
1
  50
0
  10
365233.807
  20
4508614.249
 66
1
  0
ATTRIB
  8
FeatureAttribs
 70
0
  1
PNOA-H_AMS_1956-57_33k_ES_PAN_21mic_H50_0506_fot_61C-39590_W.tif
  2
NAME
  10
365233.807
  20
4508614.249
 40
34.27431
  0
SEQEND
  0
POLYLINE
  8
LC_OH_2021_05_O7
  70
1
  66
1
  0
VERTEX
  8
LC_OH_2021_05_O7
  10
364712.005
  20
4511126.000
  0
VERTEX
  8
LC_OH_2021_05_O7
  10
366559.505
  20
4510827.500
  0
VERTEX
  8
LC_OH_2021_05_O7
  10
366592.005
  20
4506310.500
  0
VERTEX
  8
LC_OH_2021_05_O7
  10
366186.005
  20
4506102.500
  0
VERTEX
  8
LC_OH_2021_05_O7
  10
363914.505
  20
4506307.500
  0
VERTEX
  8
LC_OH_2021_05_O7
  10
363871.005
  20
4510798.000
  0
VERTEX
  8
LC_OH_2021_05_O7
  10
364710.505
  20
4511125.500
  0
VERTEX
  8
LC_OH_2021_05_O7
  10
364712.005
  20
4511126.000
  0
SEQEND
  8
LC_OH_2021_05_O7
  0
INSERT
  8
FeatureAttribs
  2
FEATURE
  41
1
  42
1
  43
1
  50
0
  10
359828.371
  20
4508607.249
 66
1
  0
ATTRIB
  8
FeatureAttribs
 70
0
  1
PNOA-H_AMS_1956-57_33k_ES_PAN_21mic_H50_0506_fot_61C-39592_W.tif
  2
NAME
  10
359828.371
  20
4508607.249
 40
34.27431
  0
SEQEND
  0
POLYLINE
  8
LC_OH_2021_05_O7
  70
1
  66
1
  0
VERTEX
  8
LC_OH_2021_05_O7
  10
359127.505
  20
4511073.000
  0
VERTEX
  8
LC_OH_2021_05_O7
  10
361200.005
  20
4510806.500
  0
VERTEX
  8
LC_OH_2021_05_O7
  10
361219.005
  20
4506368.000
  0
VERTEX
  8
LC_OH_2021_05_O7
  10
360777.005
  20
4506141.500
  0
VERTEX
  8
LC_OH_2021_05_O7
  10
358440.505
  20
4506390.500
  0
VERTEX
  8
LC_OH_2021_05_O7
  10
358454.005
  20
4510786.500
  0
VERTEX
  8
LC_OH_2021_05_O7
  10
359126.005
  20
4511072.500
  0
VERTEX
  8
LC_OH_2021_05_O7
  10
359127.505
  20
4511073.000
  0
SEQEND
  8
LC_OH_2021_05_O7
  0
INSERT
  8
FeatureAttribs
  2
FEATURE
  41
1
  42
1
  43
1
  50
0
  10
370845.348
  20
4508548.249
 66
1
  0
ATTRIB
  8
FeatureAttribs
 70
0
  1
PNOA-H_AMS_1956-57_33k_ES_PAN_21mic_H50_0506_fot_61C-39588_W.tif
  2
NAME
  10
370845.348
  20
4508548.249
 40
34.27431
  0
SEQEND
  0
POLYLINE
  8
LC_OH_2021_05_O7
  70
1
  66
1
  0
VERTEX
  8
LC_OH_2021_05_O7
  10
371589.559
  20
4510864.754
  0
VERTEX
  8
LC_OH_2021_05_O7
  10
371571.197
  20
4509804.987
  0
VERTEX
  8
LC_OH_2021_05_O7
  10
371531.141
  20
4507492.280
  0
VERTEX
  8
LC_OH_2021_05_O7
  10
371506.051
  20
4506043.008
  0
VERTEX
  8
LC_OH_2021_05_O7
  10
369382.506
  20
4506339.500
  0
VERTEX
  8
LC_OH_2021_05_O7
  10
369412.006
  20
4510799.000
  0
VERTEX
  8
LC_OH_2021_05_O7
  10
370083.006
  20
4511077.500
  0
SEQEND
  8
LC_OH_2021_05_O7
  0
INSERT
  8
FeatureAttribs
  2
FEATURE
  41
1
  42
1
  43
1
  50
0
  10
367985.671
  20
4517031.249
 66
1
  0
ATTRIB
  8
FeatureAttribs
 70
0
  1
PNOA-H_AMS_1956-57_33k_ES_PAN_21mic_H50_0506_fot_59C-48027_W.tif
  2
NAME
  10
367985.671
  20
4517031.249
 40
34.27431
  0
SEQEND
  0
POLYLINE
  8
LC_OH_2021_05_O7
  70
1
  66
1
  0
VERTEX
  8
LC_OH_2021_05_O7
  10
369191.506
  20
4518682.500
  0
VERTEX
  8
LC_OH_2021_05_O7
  10
369192.506
  20
4518682.000
  0
VERTEX
  8
LC_OH_2021_05_O7
  10
369193.506
  20
4518670.500
  0
VERTEX
  8
LC_OH_2021_05_O7
  10
369395.506
  20
4516306.000
  0
VERTEX
  8
LC_OH_2021_05_O7
  10
369377.006
  20
4515722.000
  0
VERTEX
  8
LC_OH_2021_05_O7
  10
367419.505
  20
4515380.000
  0
VERTEX
  8
LC_OH_2021_05_O7
  10
366580.005
  20
4515790.500
  0
VERTEX
  8
LC_OH_2021_05_O7
  10
366639.005
  20
4517057.000
  0
VERTEX
  8
LC_OH_2021_05_O7
  10
369190.506
  20
4518682.000
  0
VERTEX
  8
LC_OH_2021_05_O7
  10
369191.506
  20
4518682.500
  0
SEQEND
  8
LC_OH_2021_05_O7
  0
INSERT
  8
FeatureAttribs
  2
FEATURE
  41
1
  42
1
  43
1
  50
0
  10
357054.798
  20
4508623.249
 66
1
  0
ATTRIB
  8
FeatureAttribs
 70
0
  1
PNOA-H_AMS_1956-57_33k_ES_PAN_21mic_H50_0506_fot_61C-39593_W.tif
  2
NAME
  10
357054.798
  20
4508623.249
 40
34.27431
  0
SEQEND
  0
POLYLINE
  8
LC_OH_2021_05_O7
  70
1
  66
1
  0
VERTEX
  8
LC_OH_2021_05_O7
  10
356296.504
  20
4511067.500
  0
VERTEX
  8
LC_OH_2021_05_O7
  10
358454.005
  20
4510786.500
  0
VERTEX
  8
LC_OH_2021_05_O7
  10
358440.505
  20
4506390.500
  0
VERTEX
  8
LC_OH_2021_05_O7
  10
358049.005
  20
4506179.000
  0
VERTEX
  8
LC_OH_2021_05_O7
  10
355681.004
  20
4506390.000
  0
VERTEX
  8
LC_OH_2021_05_O7
  10
355644.004
  20
4510789.500
  0
VERTEX
  8
LC_OH_2021_05_O7
  10
356295.004
  20
4511067.000
  0
VERTEX
  8
LC_OH_2021_05_O7
  10
356296.504
  20
4511067.500
  0
SEQEND
  8
LC_OH_2021_05_O7
  0
INSERT
  8
FeatureAttribs
  2
FEATURE
  41
1
  42
1
  43
1
  50
0
  10
348846.099
  20
4508678.750
 66
1
  0
ATTRIB
  8
FeatureAttribs
 70
0
  1
PNOA-H_AMS_1956-57_33k_ES_PAN_21mic_H50_0506_fot_61C-39596_W.tif
  2
NAME
  10
348846.099
  20
4508678.750
 40
34.27431
  0
SEQEND
  0
POLYLINE
  8
LC_OH_2021_05_O7
  70
1
  66
1
  0
VERTEX
  8
LC_OH_2021_05_O7
  10
349978.504
  20
4506302.500
  0
VERTEX
  8
LC_OH_2021_05_O7
  10
349962.504
  20
4506293.000
  0
VERTEX
  8
LC_OH_2021_05_O7
  10
347425.004
  20
4506478.000
  0
VERTEX
  8
LC_OH_2021_05_O7
  10
347495.004
  20
4510881.500
  0
VERTEX
  8
LC_OH_2021_05_O7
  10
347911.504
  20
4511064.500
  0
VERTEX
  8
LC_OH_2021_05_O7
  10
350242.004
  20
4510823.000
  0
VERTEX
  8
LC_OH_2021_05_O7
  10
350222.004
  20
4506445.000
  0
VERTEX
  8
LC_OH_2021_05_O7
  10
349979.504
  20
4506302.500
  0
VERTEX
  8
LC_OH_2021_05_O7
  10
349978.504
  20
4506302.500
  0
SEQEND
  8
LC_OH_2021_05_O7
  0
INSERT
  8
FeatureAttribs
  2
FEATURE
  41
1
  42
1
  43
1
  50
0
  10
351436.580
  20
4519384.001
 66
1
  0
ATTRIB
  8
FeatureAttribs
 70
0
  1
PNOA-H_AMS_1956-57_33k_ES_PAN_21mic_H50_0506_fot_59C-48033_W.tif
  2
NAME
  10
351436.580
  20
4519384.001
 40
34.27431
  0
SEQEND
  0
POLYLINE
  8
LC_OH_2021_05_O7
  70
1
  66
1
  0
VERTEX
  8
LC_OH_2021_05_O7
  10
350994.004
  20
4521015.500
  0
VERTEX
  8
LC_OH_2021_05_O7
  10
351337.504
  20
4520992.500
  0
VERTEX
  8
LC_OH_2021_05_O7
  10
351343.504
  20
4520992.500
  0
VERTEX
  8
LC_OH_2021_05_O7
  10
351921.504
  20
4520954.500
  0
VERTEX
  8
LC_OH_2021_05_O7
  10
352284.504
  20
4517752.500
  0
VERTEX
  8
LC_OH_2021_05_O7
  10
350655.504
  20
4518509.500
  0
SEQEND
  8
LC_OH_2021_05_O7
  0
INSERT
  8
FeatureAttribs
  2
FEATURE
  41
1
  42
1
  43
1
  50
0
  10
371162.579
  20
4517233.750
 66
1
  0
ATTRIB
  8
FeatureAttribs
 70
0
  1
PNOA-H_AMS_1956-57_33k_ES_PAN_21mic_H50_0506_fot_59C-48026_W.tif
  2
NAME
  10
371162.579
  20
4517233.750
 40
34.27431
  0
SEQEND
  0
POLYLINE
  8
LC_OH_2021_05_O7
  70
1
  66
1
  0
VERTEX
  8
LC_OH_2021_05_O7
  10
371670.746
  20
4515548.398
  0
VERTEX
  8
LC_OH_2021_05_O7
  10
370210.006
  20
4515298.500
  0
VERTEX
  8
LC_OH_2021_05_O7
  10
369377.006
  20
4515721.500
  0
VERTEX
  8
LC_OH_2021_05_O7
  10
369395.506
  20
4516305.500
  0
VERTEX
  8
LC_OH_2021_05_O7
  10
369774.506
  20
4516717.500
  0
VERTEX
  8
LC_OH_2021_05_O7
  10
369775.006
  20
4516718.500
  0
VERTEX
  8
LC_OH_2021_05_O7
  10
371727.913
  20
4518844.015
  0
VERTEX
  8
LC_OH_2021_05_O7
  10
371691.465
  20
4516743.157
  0
SEQEND
  8
LC_OH_2021_05_O7
  0
INSERT
  8
FeatureAttribs
  2
FEATURE
  41
1
  42
1
  43
1
  50
0
  10
351597.211
  20
4508622.499
 66
1
  0
ATTRIB
  8
FeatureAttribs
 70
0
  1
PNOA-H_AMS_1956-57_33k_ES_PAN_21mic_H50_0506_fot_61C-39595_W.tif
  2
NAME
  10
351597.211
  20
4508622.499
 40
34.27431
  0
SEQEND
  0
POLYLINE
  8
LC_OH_2021_05_O7
  70
1
  66
1
  0
VERTEX
  8
LC_OH_2021_05_O7
  10
352817.004
  20
4506302.500
  0
VERTEX
  8
LC_OH_2021_05_O7
  10
352633.004
  20
4506200.000
  0
VERTEX
  8
LC_OH_2021_05_O7
  10
352628.504
  20
4506200.000
  0
VERTEX
  8
LC_OH_2021_05_O7
  10
350222.004
  20
4506445.000
  0
VERTEX
  8
LC_OH_2021_05_O7
  10
350242.004
  20
4510823.000
  0
VERTEX
  8
LC_OH_2021_05_O7
  10
350730.504
  20
4511045.000
  0
VERTEX
  8
LC_OH_2021_05_O7
  10
352949.504
  20
4510838.000
  0
VERTEX
  8
LC_OH_2021_05_O7
  10
352975.504
  20
4506390.000
  0
VERTEX
  8
LC_OH_2021_05_O7
  10
352818.004
  20
4506302.500
  0
VERTEX
  8
LC_OH_2021_05_O7
  10
352817.004
  20
4506302.500
  0
SEQEND
  8
LC_OH_2021_05_O7
  0
INSERT
  8
FeatureAttribs
  2
FEATURE
  41
1
  42
1
  43
1
  50
0
  10
365363.500
  20
4517282.499
 66
1
  0
ATTRIB
  8
FeatureAttribs
 70
0
  1
PNOA-H_AMS_1956-57_33k_ES_PAN_21mic_H50_0506_fot_59C-48028_W.tif
  2
NAME
  10
365363.500
  20
4517282.499
 40
34.27431
  0
SEQEND
  0
POLYLINE
  8
LC_OH_2021_05_O7
  70
1
  66
1
  0
VERTEX
  8
LC_OH_2021_05_O7
  10
366366.005
  20
4519114.500
  0
VERTEX
  8
LC_OH_2021_05_O7
  10
366639.005
  20
4517057.500
  0
VERTEX
  8
LC_OH_2021_05_O7
  10
366579.505
  20
4515790.500
  0
VERTEX
  8
LC_OH_2021_05_O7
  10
364586.505
  20
4515450.500
  0
VERTEX
  8
LC_OH_2021_05_O7
  10
363081.505
  20
4516157.000
  0
VERTEX
  8
LC_OH_2021_05_O7
  10
363165.005
  20
4516502.500
  0
VERTEX
  8
LC_OH_2021_05_O7
  10
363167.005
  20
4516507.500
  0
VERTEX
  8
LC_OH_2021_05_O7
  10
366365.005
  20
4519114.000
  0
VERTEX
  8
LC_OH_2021_05_O7
  10
366366.005
  20
4519114.500
  0
SEQEND
  8
LC_OH_2021_05_O7
  0
INSERT
  8
FeatureAttribs
  2
FEATURE
  41
1
  42
1
  43
1
  50
0
  10
362551.064
  20
4508588.749
 66
1
  0
ATTRIB
  8
FeatureAttribs
 70
0
  1
PNOA-H_AMS_1956-57_33k_ES_PAN_21mic_H50_0506_fot_61C-39591_W.tif
  2
NAME
  10
362551.064
  20
4508588.749
 40
34.27431
  0
SEQEND
  0
POLYLINE
  8
LC_OH_2021_05_O7
  70
1
  66
1
  0
VERTEX
  8
LC_OH_2021_05_O7
  10
363903.505
  20
4506302.500
  0
VERTEX
  8
LC_OH_2021_05_O7
  10
363503.005
  20
4506102.500
  0
VERTEX
  8
LC_OH_2021_05_O7
  10
363498.005
  20
4506102.500
  0
VERTEX
  8
LC_OH_2021_05_O7
  10
361219.005
  20
4506368.000
  0
VERTEX
  8
LC_OH_2021_05_O7
  10
361200.005
  20
4510806.500
  0
VERTEX
  8
LC_OH_2021_05_O7
  10
361846.005
  20
4511075.000
  0
VERTEX
  8
LC_OH_2021_05_O7
  10
363871.005
  20
4510798.000
  0
VERTEX
  8
LC_OH_2021_05_O7
  10
363914.505
  20
4506348.000
  0
VERTEX
  8
LC_OH_2021_05_O7
  10
363914.505
  20
4506307.500
  0
VERTEX
  8
LC_OH_2021_05_O7
  10
363904.505
  20
4506302.500
  0
VERTEX
  8
LC_OH_2021_05_O7
  10
363903.505
  20
4506302.500
  0
SEQEND
  8
LC_OH_2021_05_O7
  0
INSERT
  8
FeatureAttribs
  2
FEATURE
  41
1
  42
1
  43
1
  50
0
  10
354312.243
  20
4508638.249
 66
1
  0
ATTRIB
  8
FeatureAttribs
 70
0
  1
PNOA-H_AMS_1956-57_33k_ES_PAN_21mic_H50_0506_fot_61C-39594_W.tif
  2
NAME
  10
354312.243
  20
4508638.249
 40
34.27431
  0
SEQEND
  0
POLYLINE
  8
LC_OH_2021_05_O7
  70
1
  66
1
  0
VERTEX
  8
LC_OH_2021_05_O7
  10
355525.504
  20
4506302.500
  0
VERTEX
  8
LC_OH_2021_05_O7
  10
355369.504
  20
4506214.000
  0
VERTEX
  8
LC_OH_2021_05_O7
  10
355367.504
  20
4506213.000
  0
VERTEX
  8
LC_OH_2021_05_O7
  10
355360.504
  20
4506213.000
  0
VERTEX
  8
LC_OH_2021_05_O7
  10
352975.504
  20
4506390.000
  0
VERTEX
  8
LC_OH_2021_05_O7
  10
352949.504
  20
4510838.500
  0
VERTEX
  8
LC_OH_2021_05_O7
  10
353482.004
  20
4511063.000
  0
VERTEX
  8
LC_OH_2021_05_O7
  10
353488.004
  20
4511063.500
  0
VERTEX
  8
LC_OH_2021_05_O7
  10
353508.004
  20
4511061.000
  0
VERTEX
  8
LC_OH_2021_05_O7
  10
355644.004
  20
4510789.500
  0
VERTEX
  8
LC_OH_2021_05_O7
  10
355681.004
  20
4506390.000
  0
VERTEX
  8
LC_OH_2021_05_O7
  10
355527.004
  20
4506303.000
  0
VERTEX
  8
LC_OH_2021_05_O7
  10
355525.504
  20
4506302.500
  0
SEQEND
  8
LC_OH_2021_05_O7
  0
INSERT
  8
FeatureAttribs
  2
FEATURE
  41
1
  42
1
  43
1
  50
0
  10
346088.116
  20
4508684.250
 66
1
  0
ATTRIB
  8
FeatureAttribs
 70
0
  1
PNOA-H_AMS_1956-57_33k_ES_PAN_21mic_H50_0506_fot_61C-39597_W.tif
  2
NAME
  10
346088.116
  20
4508684.250
 40
34.27431
  0
SEQEND
  0
POLYLINE
  8
LC_OH_2021_05_O7
  70
1
  66
1
  0
VERTEX
  8
LC_OH_2021_05_O7
  10
344739.503
  20
4510805.500
  0
VERTEX
  8
LC_OH_2021_05_O7
  10
345194.503
  20
4510881.000
  0
VERTEX
  8
LC_OH_2021_05_O7
  10
345197.503
  20
4510881.500
  0
VERTEX
  8
LC_OH_2021_05_O7
  10
346000.004
  20
4511013.500
  0
VERTEX
  8
LC_OH_2021_05_O7
  10
347495.004
  20
4510881.000
  0
VERTEX
  8
LC_OH_2021_05_O7
  10
347425.004
  20
4506477.500
  0
VERTEX
  8
LC_OH_2021_05_O7
  10
347218.504
  20
4506355.000
  0
VERTEX
  8
LC_OH_2021_05_O7
  10
344693.003
  20
4506584.500
  0
SEQEND
  8
LC_OH_2021_05_O7
  0
INSERT
  8
FeatureAttribs
  2
FEATURE
  41
1
  42
1
  43
1
  50
0
  10
356975.951
  20
4517925.999
 66
1
  0
ATTRIB
  8
FeatureAttribs
 70
0
  1
PNOA-H_AMS_1956-57_33k_ES_PAN_21mic_H50_0506_fot_59C-48031_W.tif
  2
NAME
  10
356975.951
  20
4517925.999
 40
34.27431
  0
SEQEND
  0
POLYLINE
  8
LC_OH_2021_05_O7
  70
1
  66
1
  0
VERTEX
  8
LC_OH_2021_05_O7
  10
355439.004
  20
4517138.000
  0
VERTEX
  8
LC_OH_2021_05_O7
  10
355439.004
  20
4517139.000
  0
VERTEX
  8
LC_OH_2021_05_O7
  10
357399.504
  20
4520167.000
  0
VERTEX
  8
LC_OH_2021_05_O7
  10
357400.504
  20
4520167.000
  0
VERTEX
  8
LC_OH_2021_05_O7
  10
358509.505
  20
4516044.500
  0
VERTEX
  8
LC_OH_2021_05_O7
  10
358509.505
  20
4516043.500
  0
VERTEX
  8
LC_OH_2021_05_O7
  10
358506.505
  20
4516043.000
  0
VERTEX
  8
LC_OH_2021_05_O7
  10
356324.504
  20
4515685.000
  0
VERTEX
  8
LC_OH_2021_05_O7
  10
356322.004
  20
4515685.500
  0
VERTEX
  8
LC_OH_2021_05_O7
  10
354884.504
  20
4516282.000
  0
VERTEX
  8
LC_OH_2021_05_O7
  10
355439.004
  20
4517138.000
  0
SEQEND
  8
LC_OH_2021_05_O7
  0
INSERT
  8
FeatureAttribs
  2
FEATURE
  41
1
  42
1
  43
1
  50
0
  10
371537.119
  20
4513194.499
 66
1
  0
ATTRIB
  8
FeatureAttribs
 70
0
  1
PNOA-H_AMS_1956-57_33k_ES_PAN_21mic_H50_0506_fot_60C-47045_W.tif
  2
NAME
  10
371537.119
  20
4513194.499
 40
34.27431
  0
SEQEND
  0
POLYLINE
  8
LC_OH_2021_05_O7
  70
1
  66
1
  0
VERTEX
  8
LC_OH_2021_05_O7
  10
371589.567
  20
4510865.202
  0
VERTEX
  8
LC_OH_2021_05_O7
  10
370083.506
  20
4511077.500
  0
VERTEX
  8
LC_OH_2021_05_O7
  10
370210.506
  20
4515298.500
  0
VERTEX
  8
LC_OH_2021_05_O7
  10
371670.753
  20
4515548.784
  0
VERTEX
  8
LC_OH_2021_05_O7
  10
371651.359
  20
4514430.426
  0
VERTEX
  8
LC_OH_2021_05_O7
  10
371611.269
  20
4512117.703
  0
SEQEND
  8
LC_OH_2021_05_O7
  0
INSERT
  8
FeatureAttribs
  2
FEATURE
  41
1
  42
1
  43
1
  50
0
  10
366020.889
  20
4513309.250
 66
1
  0
ATTRIB
  8
FeatureAttribs
 70
0
  1
PNOA-H_AMS_1956-57_33k_ES_PAN_21mic_H50_0506_fot_60C-47047_W.tif
  2
NAME
  10
366020.889
  20
4513309.250
 40
34.27431
  0
SEQEND
  0
POLYLINE
  8
LC_OH_2021_05_O7
  70
1
  66
1
  0
VERTEX
  8
LC_OH_2021_05_O7
  10
366579.505
  20
4515791.000
  0
VERTEX
  8
LC_OH_2021_05_O7
  10
367419.505
  20
4515380.500
  0
VERTEX
  8
LC_OH_2021_05_O7
  10
367419.505
  20
4515354.500
  0
VERTEX
  8
LC_OH_2021_05_O7
  10
367363.505
  20
4511134.500
  0
VERTEX
  8
LC_OH_2021_05_O7
  10
366559.505
  20
4510827.500
  0
VERTEX
  8
LC_OH_2021_05_O7
  10
364712.505
  20
4511126.000
  0
VERTEX
  8
LC_OH_2021_05_O7
  10
364587.505
  20
4515450.500
  0
VERTEX
  8
LC_OH_2021_05_O7
  10
366577.005
  20
4515790.500
  0
VERTEX
  8
LC_OH_2021_05_O7
  10
366579.505
  20
4515791.000
  0
SEQEND
  8
LC_OH_2021_05_O7
  0
INSERT
  8
FeatureAttribs
  2
FEATURE
  41
1
  42
1
  43
1
  50
0
  10
368770.479
  20
4513260.500
 66
1
  0
ATTRIB
  8
FeatureAttribs
 70
0
  1
PNOA-H_AMS_1956-57_33k_ES_PAN_21mic_H50_0506_fot_60C-47046_W.tif
  2
NAME
  10
368770.479
  20
4513260.500
 40
34.27431
  0
SEQEND
  0
POLYLINE
  8
LC_OH_2021_05_O7
  70
1
  66
1
  0
VERTEX
  8
LC_OH_2021_05_O7
  10
367726.505
  20
4515434.000
  0
VERTEX
  8
LC_OH_2021_05_O7
  10
369377.006
  20
4515722.000
  0
VERTEX
  8
LC_OH_2021_05_O7
  10
370210.506
  20
4515298.500
  0
VERTEX
  8
LC_OH_2021_05_O7
  10
370084.006
  20
4511078.500
  0
VERTEX
  8
LC_OH_2021_05_O7
  10
370083.006
  20
4511077.000
  0
VERTEX
  8
LC_OH_2021_05_O7
  10
370072.506
  20
4511072.500
  0
VERTEX
  8
LC_OH_2021_05_O7
  10
369412.506
  20
4510799.000
  0
VERTEX
  8
LC_OH_2021_05_O7
  10
367363.505
  20
4511134.500
  0
VERTEX
  8
LC_OH_2021_05_O7
  10
367419.505
  20
4515380.000
  0
VERTEX
  8
LC_OH_2021_05_O7
  10
367723.505
  20
4515433.500
  0
VERTEX
  8
LC_OH_2021_05_O7
  10
367726.505
  20
4515434.000
  0
SEQEND
  8
LC_OH_2021_05_O7
  0
INSERT
  8
FeatureAttribs
  2
FEATURE
  41
1
  42
1
  43
1
  50
0
  10
343813.295
  20
4513396.999
 66
1
  0
ATTRIB
  8
FeatureAttribs
 70
0
  1
PNOA-H_AMS_1956-57_33k_ES_PAN_21mic_H50_0506_fot_60C-47055_W.tif
  2
NAME
  10
343813.295
  20
4513396.999
 40
34.27431
  0
SEQEND
  0
POLYLINE
  8
LC_OH_2021_05_O7
  70
1
  66
1
  0
VERTEX
  8
LC_OH_2021_05_O7
  10
343537.759
  20
4515867.477
  0
VERTEX
  8
LC_OH_2021_05_O7
  10
344579.003
  20
4515587.000
  0
VERTEX
  8
LC_OH_2021_05_O7
  10
344485.003
  20
4510904.500
  0
VERTEX
  8
LC_OH_2021_05_O7
  10
343434.983
  20
4511004.579
  0
VERTEX
  8
LC_OH_2021_05_O7
  10
343469.934
  20
4512658.889
  0
VERTEX
  8
LC_OH_2021_05_O7
  10
343518.817
  20
4514971.672
  0
SEQEND
  8
LC_OH_2021_05_O7
  0
INSERT
  8
FeatureAttribs
  2
FEATURE
  41
1
  42
1
  43
1
  50
0
  10
363261.165
  20
4513477.750
 66
1
  0
ATTRIB
  8
FeatureAttribs
 70
0
  1
PNOA-H_AMS_1956-57_33k_ES_PAN_21mic_H50_0506_fot_60C-47048_W.tif
  2
NAME
  10
363261.165
  20
4513477.750
 40
34.27431
  0
SEQEND
  0
POLYLINE
  8
LC_OH_2021_05_O7
  70
1
  66
1
  0
VERTEX
  8
LC_OH_2021_05_O7
  10
363631.505
  20
4515899.000
  0
VERTEX
  8
LC_OH_2021_05_O7
  10
364571.005
  20
4515458.500
  0
VERTEX
  8
LC_OH_2021_05_O7
  10
364587.505
  20
4515450.500
  0
VERTEX
  8
LC_OH_2021_05_O7
  10
364588.005
  20
4515449.000
  0
VERTEX
  8
LC_OH_2021_05_O7
  10
364712.505
  20
4511126.000
  0
VERTEX
  8
LC_OH_2021_05_O7
  10
363871.505
  20
4510798.000
  0
VERTEX
  8
LC_OH_2021_05_O7
  10
361846.505
  20
4511075.000
  0
VERTEX
  8
LC_OH_2021_05_O7
  10
361908.005
  20
4515836.000
  0
VERTEX
  8
LC_OH_2021_05_O7
  10
363081.005
  20
4516157.500
  0
VERTEX
  8
LC_OH_2021_05_O7
  10
363630.005
  20
4515899.500
  0
VERTEX
  8
LC_OH_2021_05_O7
  10
363631.505
  20
4515899.000
  0
SEQEND
  8
LC_OH_2021_05_O7
  0
INSERT
  8
FeatureAttribs
  2
FEATURE
  41
1
  42
1
  43
1
  50
0
  10
346929.215
  20
4513388.249
 66
1
  0
ATTRIB
  8
FeatureAttribs
 70
0
  1
PNOA-H_AMS_1956-57_33k_ES_PAN_21mic_H50_0506_fot_60C-47054_W.tif
  2
NAME
  10
346929.215
  20
4513388.249
 40
34.27431
  0
SEQEND
  0
POLYLINE
  8
LC_OH_2021_05_O7
  70
1
  66
1
  0
VERTEX
  8
LC_OH_2021_05_O7
  10
347247.504
  20
4515628.500
  0
VERTEX
  8
LC_OH_2021_05_O7
  10
347969.504
  20
4515400.000
  0
VERTEX
  8
LC_OH_2021_05_O7
  10
347912.004
  20
4511064.500
  0
VERTEX
  8
LC_OH_2021_05_O7
  10
347495.004
  20
4510881.000
  0
VERTEX
  8
LC_OH_2021_05_O7
  10
345997.004
  20
4511013.500
  0
VERTEX
  8
LC_OH_2021_05_O7
  10
345837.004
  20
4515680.500
  0
VERTEX
  8
LC_OH_2021_05_O7
  10
346407.004
  20
4515895.500
  0
VERTEX
  8
LC_OH_2021_05_O7
  10
347246.004
  20
4515629.000
  0
VERTEX
  8
LC_OH_2021_05_O7
  10
347247.504
  20
4515628.500
  0
SEQEND
  8
LC_OH_2021_05_O7
  0
INSERT
  8
FeatureAttribs
  2
FEATURE
  41
1
  42
1
  43
1
  50
0
  10
354917.586
  20
4513584.750
 66
1
  0
ATTRIB
  8
FeatureAttribs
 70
0
  1
PNOA-H_AMS_1956-57_33k_ES_PAN_21mic_H50_0506_fot_60C-47051_W.tif
  2
NAME
  10
354917.586
  20
4513584.750
 40
34.27431
  0
SEQEND
  0
POLYLINE
  8
LC_OH_2021_05_O7
  70
1
  66
1
  0
VERTEX
  8
LC_OH_2021_05_O7
  10
355439.504
  20
4516051.500
  0
VERTEX
  8
LC_OH_2021_05_O7
  10
356323.504
  20
4515685.500
  0
VERTEX
  8
LC_OH_2021_05_O7
  10
356296.504
  20
4511067.000
  0
VERTEX
  8
LC_OH_2021_05_O7
  10
355645.004
  20
4510789.500
  0
VERTEX
  8
LC_OH_2021_05_O7
  10
353484.504
  20
4511063.500
  0
VERTEX
  8
LC_OH_2021_05_O7
  10
353563.504
  20
4516116.000
  0
VERTEX
  8
LC_OH_2021_05_O7
  10
354317.504
  20
4516380.000
  0
VERTEX
  8
LC_OH_2021_05_O7
  10
354885.004
  20
4516282.000
  0
VERTEX
  8
LC_OH_2021_05_O7
  10
355438.504
  20
4516052.000
  0
VERTEX
  8
LC_OH_2021_05_O7
  10
355439.504
  20
4516051.500
  0
SEQEND
  8
LC_OH_2021_05_O7
  0
INSERT
  8
FeatureAttribs
  2
FEATURE
  41
1
  42
1
  43
1
  50
0
  10
349337.332
  20
4513348.749
 66
1
  0
ATTRIB
  8
FeatureAttribs
 70
0
  1
PNOA-H_AMS_1956-57_33k_ES_PAN_21mic_H50_0506_fot_60C-47053_W.tif
  2
NAME
  10
349337.332
  20
4513348.749
 40
34.27431
  0
SEQEND
  0
POLYLINE
  8
LC_OH_2021_05_O7
  70
1
  66
1
  0
VERTEX
  8
LC_OH_2021_05_O7
  10
349366.004
  20
4515874.500
  0
VERTEX
  8
LC_OH_2021_05_O7
  10
350734.004
  20
4515396.500
  0
VERTEX
  8
LC_OH_2021_05_O7
  10
350730.504
  20
4511044.500
  0
VERTEX
  8
LC_OH_2021_05_O7
  10
350242.504
  20
4510823.000
  0
VERTEX
  8
LC_OH_2021_05_O7
  10
347912.004
  20
4511064.500
  0
VERTEX
  8
LC_OH_2021_05_O7
  10
347969.504
  20
4515400.000
  0
VERTEX
  8
LC_OH_2021_05_O7
  10
349364.504
  20
4515874.000
  0
VERTEX
  8
LC_OH_2021_05_O7
  10
349366.004
  20
4515874.500
  0
SEQEND
  8
LC_OH_2021_05_O7
  0
INSERT
  8
FeatureAttribs
  2
FEATURE
  41
1
  42
1
  43
1
  50
0
  10
357703.943
  20
4513415.000
 66
1
  0
ATTRIB
  8
FeatureAttribs
 70
0
  1
PNOA-H_AMS_1956-57_33k_ES_PAN_21mic_H50_0506_fot_60C-47050_W.tif
  2
NAME
  10
357703.943
  20
4513415.000
 40
34.27431
  0
SEQEND
  0
POLYLINE
  8
LC_OH_2021_05_O7
  70
1
  66
1
  0
VERTEX
  8
LC_OH_2021_05_O7
  10
358506.505
  20
4516043.500
  0
VERTEX
  8
LC_OH_2021_05_O7
  10
358512.005
  20
4516043.500
  0
VERTEX
  8
LC_OH_2021_05_O7
  10
359065.005
  20
4515932.500
  0
VERTEX
  8
LC_OH_2021_05_O7
  10
359128.005
  20
4511073.000
  0
VERTEX
  8
LC_OH_2021_05_O7
  10
358455.005
  20
4510786.500
  0
VERTEX
  8
LC_OH_2021_05_O7
  10
356296.504
  20
4511067.500
  0
VERTEX
  8
LC_OH_2021_05_O7
  10
356323.504
  20
4515685.000
  0
VERTEX
  8
LC_OH_2021_05_O7
  10
358503.005
  20
4516043.000
  0
VERTEX
  8
LC_OH_2021_05_O7
  10
358506.505
  20
4516043.500
  0
SEQEND
  8
LC_OH_2021_05_O7
  0
INSERT
  8
FeatureAttribs
  2
FEATURE
  41
1
  42
1
  43
1
  50
0
  10
352127.550
  20
4513500.498
 66
1
  0
ATTRIB
  8
FeatureAttribs
 70
0
  1
PNOA-H_AMS_1956-57_33k_ES_PAN_21mic_H50_0506_fot_60C-47052_W.tif
  2
NAME
  10
352127.550
  20
4513500.498
 40
34.27431
  0
SEQEND
  0
POLYLINE
  8
LC_OH_2021_05_O7
  70
1
  66
1
  0
VERTEX
  8
LC_OH_2021_05_O7
  10
351342.004
  20
4515582.000
  0
VERTEX
  8
LC_OH_2021_05_O7
  10
353246.004
  20
4516163.000
  0
VERTEX
  8
LC_OH_2021_05_O7
  10
353563.504
  20
4516116.000
  0
VERTEX
  8
LC_OH_2021_05_O7
  10
353484.504
  20
4511063.500
  0
VERTEX
  8
LC_OH_2021_05_O7
  10
352949.504
  20
4510838.000
  0
VERTEX
  8
LC_OH_2021_05_O7
  10
350730.504
  20
4511045.000
  0
VERTEX
  8
LC_OH_2021_05_O7
  10
350734.004
  20
4515396.500
  0
VERTEX
  8
LC_OH_2021_05_O7
  10
351340.004
  20
4515581.500
  0
VERTEX
  8
LC_OH_2021_05_O7
  10
351342.004
  20
4515582.000
  0
SEQEND
  8
LC_OH_2021_05_O7
  0
INSERT
  8
FeatureAttribs
  2
FEATURE
  41
1
  42
1
  43
1
  50
0
  10
360487.182
  20
4513549.999
 66
1
  0
ATTRIB
  8
FeatureAttribs
 70
0
  1
PNOA-H_AMS_1956-57_33k_ES_PAN_21mic_H50_0506_fot_60C-47049_W.tif
  2
NAME
  10
360487.182
  20
4513549.999
 40
34.27431
  0
SEQEND
  0
POLYLINE
  8
LC_OH_2021_05_O7
  70
1
  66
1
  0
VERTEX
  8
LC_OH_2021_05_O7
  10
359534.005
  20
4516084.000
  0
VERTEX
  8
LC_OH_2021_05_O7
  10
360183.005
  20
4516293.500
  0
VERTEX
  8
LC_OH_2021_05_O7
  10
361908.005
  20
4515836.000
  0
VERTEX
  8
LC_OH_2021_05_O7
  10
361846.505
  20
4511075.000
  0
VERTEX
  8
LC_OH_2021_05_O7
  10
361200.505
  20
4510806.500
  0
VERTEX
  8
LC_OH_2021_05_O7
  10
359128.005
  20
4511073.000
  0
VERTEX
  8
LC_OH_2021_05_O7
  10
359065.005
  20
4515932.500
  0
VERTEX
  8
LC_OH_2021_05_O7
  10
359532.505
  20
4516083.500
  0
VERTEX
  8
LC_OH_2021_05_O7
  10
359534.005
  20
4516084.000
  0
SEQEND
  8
LC_OH_2021_05_O7
  0
INSERT
  8
FeatureAttribs
  2
FEATURE
  41
1
  42
1
  43
1
  50
0
  10
345226.152
  20
4513242.999
 66
1
  0
ATTRIB
  8
FeatureAttribs
 70
0
  1
PNOA-H_AMS_1956-57_33k_ES_PAN_21mic_H50_0506_fot_60B-04460_W.tif
  2
NAME
  10
345226.152
  20
4513242.999
 40
34.27431
  0
SEQEND
  0
POLYLINE
  8
LC_OH_2021_05_O7
  70
1
  66
1
  0
VERTEX
  8
LC_OH_2021_05_O7
  10
344579.003
  20
4515587.000
  0
VERTEX
  8
LC_OH_2021_05_O7
  10
345829.504
  20
4515680.000
  0
VERTEX
  8
LC_OH_2021_05_O7
  10
345836.504
  20
4515680.500
  0
VERTEX
  8
LC_OH_2021_05_O7
  10
345997.004
  20
4511013.500
  0
VERTEX
  8
LC_OH_2021_05_O7
  10
344740.503
  20
4510805.500
  0
VERTEX
  8
LC_OH_2021_05_O7
  10
344485.003
  20
4510904.000
  0
SEQEND
  8
LC_OH_2021_05_O7
  0
INSERT
  8
FeatureAttribs
  2
FEATURE
  41
1
  42
1
  43
1
  50
0
  10
343837.057
  20
4504956.607
 66
1
  0
ATTRIB
  8
FeatureAttribs
 70
0
  1
PNOA-H_AMS_1956-57_33k_ES_PAN_21mic_H50_0505_fot_62C-05367_E.tif
  2
NAME
  10
343837.057
  20
4504956.607
 40
34.27431
  0
SEQEND
  0
POLYLINE
  8
LC_OH_2021_05_O7
  70
1
  66
1
  0
VERTEX
  8
LC_OH_2021_05_O7
  10
344263.461
  20
4503387.209
  0
VERTEX
  8
LC_OH_2021_05_O7
  10
343274.610
  20
4503407.836
  0
VERTEX
  8
LC_OH_2021_05_O7
  10
343323.410
  20
4505720.588
  0
VERTEX
  8
LC_OH_2021_05_O7
  10
343340.411
  20
4506526.005
  0
VERTEX
  8
LC_OH_2021_05_O7
  10
344399.503
  20
4506405.500
  0
SEQEND
  8
LC_OH_2021_05_O7
  0
INSERT
  8
FeatureAttribs
  2
FEATURE
  41
1
  42
1
  43
1
  50
0
  10
345728.355
  20
4504607.499
 66
1
  0
ATTRIB
  8
FeatureAttribs
 70
0
  1
PNOA-H_AMS_1956-57_33k_ES_PAN_21mic_H50_0506_fot_62C-05368_E.tif
  2
NAME
  10
345728.355
  20
4504607.499
 40
34.27431
  0
SEQEND
  0
POLYLINE
  8
LC_OH_2021_05_O7
  70
1
  66
1
  0
VERTEX
  8
LC_OH_2021_05_O7
  10
347079.866
  20
4503328.597
  0
VERTEX
  8
LC_OH_2021_05_O7
  10
346796.710
  20
4503334.369
  0
VERTEX
  8
LC_OH_2021_05_O7
  10
344263.461
  20
4503387.209
  0
VERTEX
  8
LC_OH_2021_05_O7
  10
344399.503
  20
4506405.500
  0
VERTEX
  8
LC_OH_2021_05_O7
  10
344692.503
  20
4506584.500
  0
VERTEX
  8
LC_OH_2021_05_O7
  10
345198.503
  20
4506538.500
  0
VERTEX
  8
LC_OH_2021_05_O7
  10
345199.503
  20
4506538.500
  0
VERTEX
  8
LC_OH_2021_05_O7
  10
347218.004
  20
4506355.000
  0
SEQEND
  8
LC_OH_2021_05_O7
  0
INSERT
  8
FeatureAttribs
  2
FEATURE
  41
1
  42
1
  43
1
  50
0
  10
351240.905
  20
4504430.249
 66
1
  0
ATTRIB
  8
FeatureAttribs
 70
0
  1
PNOA-H_AMS_1956-57_33k_ES_PAN_21mic_H50_0506_fot_62C-05370_E.tif
  2
NAME
  10
351240.905
  20
4504430.249
 40
34.27431
  0
SEQEND
  0
POLYLINE
  8
LC_OH_2021_05_O7
  70
1
  66
1
  0
VERTEX
  8
LC_OH_2021_05_O7
  10
352581.567
  20
4503217.522
  0
VERTEX
  8
LC_OH_2021_05_O7
  10
350318.798
  20
4503262.574
  0
VERTEX
  8
LC_OH_2021_05_O7
  10
349827.977
  20
4503272.579
  0
VERTEX
  8
LC_OH_2021_05_O7
  10
349963.004
  20
4506293.500
  0
VERTEX
  8
LC_OH_2021_05_O7
  10
350221.504
  20
4506445.000
  0
VERTEX
  8
LC_OH_2021_05_O7
  10
351339.504
  20
4506331.000
  0
VERTEX
  8
LC_OH_2021_05_O7
  10
351343.504
  20
4506331.000
  0
VERTEX
  8
LC_OH_2021_05_O7
  10
352632.004
  20
4506200.000
  0
SEQEND
  8
LC_OH_2021_05_O7
  0
INSERT
  8
FeatureAttribs
  2
FEATURE
  41
1
  42
1
  43
1
  50
0
  10
353962.144
  20
4504381.749
 66
1
  0
ATTRIB
  8
FeatureAttribs
 70
0
  1
PNOA-H_AMS_1956-57_33k_ES_PAN_21mic_H50_0506_fot_62C-05371_E.tif
  2
NAME
  10
353962.144
  20
4504381.749
 40
34.27431
  0
SEQEND
  0
POLYLINE
  8
LC_OH_2021_05_O7
  70
1
  66
1
  0
VERTEX
  8
LC_OH_2021_05_O7
  10
355294.256
  20
4503164.202
  0
VERTEX
  8
LC_OH_2021_05_O7
  10
353840.874
  20
4503192.449
  0
VERTEX
  8
LC_OH_2021_05_O7
  10
352581.407
  20
4503217.525
  0
VERTEX
  8
LC_OH_2021_05_O7
  10
352632.004
  20
4506200.000
  0
VERTEX
  8
LC_OH_2021_05_O7
  10
352975.004
  20
4506390.000
  0
VERTEX
  8
LC_OH_2021_05_O7
  10
353384.504
  20
4506359.500
  0
VERTEX
  8
LC_OH_2021_05_O7
  10
353391.504
  20
4506359.000
  0
VERTEX
  8
LC_OH_2021_05_O7
  10
355366.504
  20
4506213.000
  0
SEQEND
  8
LC_OH_2021_05_O7
  0
INSERT
  8
FeatureAttribs
  2
FEATURE
  41
1
  42
1
  43
1
  50
0
  10
348507.729
  20
4504495.250
 66
1
  0
ATTRIB
  8
FeatureAttribs
 70
0
  1
PNOA-H_AMS_1956-57_33k_ES_PAN_21mic_H50_0506_fot_62C-05369_E.tif
  2
NAME
  10
348507.729
  20
4504495.250
 40
34.27431
  0
SEQEND
  0
POLYLINE
  8
LC_OH_2021_05_O7
  70
1
  66
1
  0
VERTEX
  8
LC_OH_2021_05_O7
  10
349827.982
  20
4503272.579
  0
VERTEX
  8
LC_OH_2021_05_O7
  10
347079.571
  20
4503328.603
  0
VERTEX
  8
LC_OH_2021_05_O7
  10
347217.504
  20
4506350.500
  0
VERTEX
  8
LC_OH_2021_05_O7
  10
347218.504
  20
4506355.500
  0
VERTEX
  8
LC_OH_2021_05_O7
  10
347246.504
  20
4506371.500
  0
VERTEX
  8
LC_OH_2021_05_O7
  10
347247.004
  20
4506372.500
  0
VERTEX
  8
LC_OH_2021_05_O7
  10
347417.004
  20
4506473.500
  0
VERTEX
  8
LC_OH_2021_05_O7
  10
347425.004
  20
4506478.000
  0
VERTEX
  8
LC_OH_2021_05_O7
  10
347427.004
  20
4506478.000
  0
VERTEX
  8
LC_OH_2021_05_O7
  10
349963.004
  20
4506293.000
  0
SEQEND
  8
LC_OH_2021_05_O7
  0
INSERT
  8
FeatureAttribs
  2
FEATURE
  41
1
  42
1
  43
1
  50
0
  10
359378.161
  20
4504195.750
 66
1
  0
ATTRIB
  8
FeatureAttribs
 70
0
  1
PNOA-H_AMS_1956-57_33k_ES_PAN_21mic_H50_0506_fot_62C-05373_E.tif
  2
NAME
  10
359378.161
  20
4504195.750
 40
34.27431
  0
SEQEND
  0
POLYLINE
  8
LC_OH_2021_05_O7
  70
1
  66
1
  0
VERTEX
  8
LC_OH_2021_05_O7
  10
360701.735
  20
4503060.688
  0
VERTEX
  8
LC_OH_2021_05_O7
  10
358015.552
  20
4503111.621
  0
VERTEX
  8
LC_OH_2021_05_O7
  10
358048.505
  20
4506175.000
  0
VERTEX
  8
LC_OH_2021_05_O7
  10
358049.005
  20
4506179.500
  0
VERTEX
  8
LC_OH_2021_05_O7
  10
358051.505
  20
4506181.000
  0
VERTEX
  8
LC_OH_2021_05_O7
  10
358439.505
  20
4506390.500
  0
VERTEX
  8
LC_OH_2021_05_O7
  10
360776.005
  20
4506141.500
  0
SEQEND
  8
LC_OH_2021_05_O7
  0
INSERT
  8
FeatureAttribs
  2
FEATURE
  41
1
  42
1
  43
1
  50
0
  10
356674.507
  20
4504278.749
 66
1
  0
ATTRIB
  8
FeatureAttribs
 70
0
  1
PNOA-H_AMS_1956-57_33k_ES_PAN_21mic_H50_0506_fot_62C-05372_E.tif
  2
NAME
  10
356674.507
  20
4504278.749
 40
34.27431
  0
SEQEND
  0
POLYLINE
  8
LC_OH_2021_05_O7
  70
1
  66
1
  0
VERTEX
  8
LC_OH_2021_05_O7
  10
358015.646
  20
4503111.620
  0
VERTEX
  8
LC_OH_2021_05_O7
  10
357362.938
  20
4503123.996
  0
VERTEX
  8
LC_OH_2021_05_O7
  10
355294.256
  20
4503164.202
  0
VERTEX
  8
LC_OH_2021_05_O7
  10
355366.504
  20
4506213.000
  0
VERTEX
  8
LC_OH_2021_05_O7
  10
355437.504
  20
4506253.000
  0
VERTEX
  8
LC_OH_2021_05_O7
  10
355438.504
  20
4506253.500
  0
VERTEX
  8
LC_OH_2021_05_O7
  10
355677.504
  20
4506388.500
  0
VERTEX
  8
LC_OH_2021_05_O7
  10
355680.504
  20
4506390.000
  0
VERTEX
  8
LC_OH_2021_05_O7
  10
355685.004
  20
4506390.000
  0
VERTEX
  8
LC_OH_2021_05_O7
  10
358049.005
  20
4506179.000
  0
SEQEND
  8
LC_OH_2021_05_O7
  0
INSERT
  8
FeatureAttribs
  2
FEATURE
  41
1
  42
1
  43
1
  50
0
  10
362083.535
  20
4504113.999
 66
1
  0
ATTRIB
  8
FeatureAttribs
 70
0
  1
PNOA-H_AMS_1956-57_33k_ES_PAN_21mic_H50_0506_fot_62C-05374_E.tif
  2
NAME
  10
362083.535
  20
4504113.999
 40
34.27431
  0
SEQEND
  0
POLYLINE
  8
LC_OH_2021_05_O7
  70
1
  66
1
  0
VERTEX
  8
LC_OH_2021_05_O7
  10
363405.662
  20
4503010.613
  0
VERTEX
  8
LC_OH_2021_05_O7
  10
360884.990
  20
4503057.213
  0
VERTEX
  8
LC_OH_2021_05_O7
  10
360701.542
  20
4503060.691
  0
VERTEX
  8
LC_OH_2021_05_O7
  10
360776.005
  20
4506141.500
  0
VERTEX
  8
LC_OH_2021_05_O7
  10
361217.505
  20
4506367.500
  0
VERTEX
  8
LC_OH_2021_05_O7
  10
361218.505
  20
4506368.000
  0
VERTEX
  8
LC_OH_2021_05_O7
  10
363502.005
  20
4506102.500
  0
SEQEND
  8
LC_OH_2021_05_O7
  0
INSERT
  8
FeatureAttribs
  2
FEATURE
  41
1
  42
1
  43
1
  50
0
  10
367513.007
  20
4503975.499
 66
1
  0
ATTRIB
  8
FeatureAttribs
 70
0
  1
PNOA-H_AMS_1956-57_33k_ES_PAN_21mic_H50_0506_fot_62C-05376_E.tif
  2
NAME
  10
367513.007
  20
4503975.499
 40
34.27431
  0
SEQEND
  0
POLYLINE
  8
LC_OH_2021_05_O7
  70
1
  66
1
  0
VERTEX
  8
LC_OH_2021_05_O7
  10
368854.330
  20
4502912.432
  0
VERTEX
  8
LC_OH_2021_05_O7
  10
367929.062
  20
4502928.659
  0
VERTEX
  8
LC_OH_2021_05_O7
  10
366148.451
  20
4502960.733
  0
VERTEX
  8
LC_OH_2021_05_O7
  10
366185.005
  20
4506102.500
  0
VERTEX
  8
LC_OH_2021_05_O7
  10
366591.005
  20
4506310.500
  0
VERTEX
  8
LC_OH_2021_05_O7
  10
368888.506
  20
4506094.500
  0
SEQEND
  8
LC_OH_2021_05_O7
  0
INSERT
  8
FeatureAttribs
  2
FEATURE
  41
1
  42
1
  43
1
  50
0
  10
370246.608
  20
4503948.000
 66
1
  0
ATTRIB
  8
FeatureAttribs
 70
0
  1
PNOA-H_AMS_1956-57_33k_ES_PAN_21mic_H50_0506_fot_62C-05377_E.tif
  2
NAME
  10
370246.608
  20
4503948.000
 40
34.27431
  0
SEQEND
  0
POLYLINE
  8
LC_OH_2021_05_O7
  70
1
  66
1
  0
VERTEX
  8
LC_OH_2021_05_O7
  10
371506.049
  20
4506042.874
  0
VERTEX
  8
LC_OH_2021_05_O7
  10
371491.103
  20
4505179.580
  0
VERTEX
  8
LC_OH_2021_05_O7
  10
371451.082
  20
4502866.888
  0
VERTEX
  8
LC_OH_2021_05_O7
  10
368854.350
  20
4502912.431
  0
VERTEX
  8
LC_OH_2021_05_O7
  10
368888.506
  20
4506094.500
  0
VERTEX
  8
LC_OH_2021_05_O7
  10
369382.006
  20
4506339.500
  0
SEQEND
  8
LC_OH_2021_05_O7
  0
INSERT
  8
FeatureAttribs
  2
FEATURE
  41
1
  42
1
  43
1
  50
0
  10
364798.807
  20
4504013.248
 66
1
  0
ATTRIB
  8
FeatureAttribs
 70
0
  1
PNOA-H_AMS_1956-57_33k_ES_PAN_21mic_H50_0506_fot_62C-05375_E.tif
  2
NAME
  10
364798.807
  20
4504013.248
 40
34.27431
  0
SEQEND
  0
POLYLINE
  8
LC_OH_2021_05_O7
  70
1
  66
1
  0
VERTEX
  8
LC_OH_2021_05_O7
  10
366148.426
  20
4502960.734
  0
VERTEX
  8
LC_OH_2021_05_O7
  10
364407.032
  20
4502992.101
  0
VERTEX
  8
LC_OH_2021_05_O7
  10
363405.674
  20
4503010.613
  0
VERTEX
  8
LC_OH_2021_05_O7
  10
363502.005
  20
4506102.500
  0
VERTEX
  8
LC_OH_2021_05_O7
  10
363913.505
  20
4506307.500
  0
VERTEX
  8
LC_OH_2021_05_O7
  10
366185.005
  20
4506102.500
  0
SEQEND
  8
LC_OH_2021_05_O7
  0
INSERT
  8
FeatureAttribs
  2
FEATURE
  41
1
  42
1
  43
1
  50
0
  10
351065.286
  20
4516953.000
 66
1
  0
ATTRIB
  8
FeatureAttribs
 70
0
  1
PNOA-H_AMS_1956-57_33k_ES_PAN_21mic_H50_0506_fot_59B-29247_W.tif
  2
NAME
  10
351065.286
  20
4516953.000
 40
34.27431
  0
SEQEND
  0
POLYLINE
  8
LC_OH_2021_05_O7
  70
1
  66
1
  0
VERTEX
  8
LC_OH_2021_05_O7
  10
350655.504
  20
4518509.500
  0
VERTEX
  8
LC_OH_2021_05_O7
  10
352284.504
  20
4517752.500
  0
VERTEX
  8
LC_OH_2021_05_O7
  10
353247.004
  20
4516163.000
  0
VERTEX
  8
LC_OH_2021_05_O7
  10
350735.504
  20
4515396.500
  0
VERTEX
  8
LC_OH_2021_05_O7
  10
350732.504
  20
4515396.500
  0
VERTEX
  8
LC_OH_2021_05_O7
  10
350716.504
  20
4515402.000
  0
VERTEX
  8
LC_OH_2021_05_O7
  10
349366.504
  20
4515874.000
  0
VERTEX
  8
LC_OH_2021_05_O7
  10
349358.504
  20
4517758.500
  0
VERTEX
  8
LC_OH_2021_05_O7
  10
350654.504
  20
4518509.000
  0
VERTEX
  8
LC_OH_2021_05_O7
  10
350655.504
  20
4518509.500
  0
SEQEND
  8
LC_OH_2021_05_O7
  0
INSERT
  8
FeatureAttribs
  2
FEATURE
  41
1
  42
1
  43
1
  50
0
  10
347888.824
  20
4517252.999
 66
1
  0
ATTRIB
  8
FeatureAttribs
 70
0
  1
PNOA-H_AMS_1956-57_33k_ES_PAN_21mic_H50_0506_fot_59B-29248_W.tif
  2
NAME
  10
347888.824
  20
4517252.999
 40
34.27431
  0
SEQEND
  0
POLYLINE
  8
LC_OH_2021_05_O7
  70
1
  66
1
  0
VERTEX
  8
LC_OH_2021_05_O7
  10
349295.504
  20
4517865.500
  0
VERTEX
  8
LC_OH_2021_05_O7
  10
349358.504
  20
4517759.000
  0
VERTEX
  8
LC_OH_2021_05_O7
  10
349366.004
  20
4515874.000
  0
VERTEX
  8
LC_OH_2021_05_O7
  10
347975.504
  20
4515401.500
  0
VERTEX
  8
LC_OH_2021_05_O7
  10
347968.504
  20
4515400.000
  0
VERTEX
  8
LC_OH_2021_05_O7
  10
346406.504
  20
4515895.500
  0
VERTEX
  8
LC_OH_2021_05_O7
  10
346419.504
  20
4517556.000
  0
VERTEX
  8
LC_OH_2021_05_O7
  10
348569.504
  20
4519106.000
  0
VERTEX
  8
LC_OH_2021_05_O7
  10
349295.504
  20
4517866.500
  0
VERTEX
  8
LC_OH_2021_05_O7
  10
349295.504
  20
4517865.500
  0
SEQEND
  8
LC_OH_2021_05_O7
  0
INSERT
  8
FeatureAttribs
  2
FEATURE
  41
1
  42
1
  43
1
  50
0
  10
343637.366
  20
4520497.010
 66
1
  0
ATTRIB
  8
FeatureAttribs
 70
0
  1
PNOA-H_AMS_1956-57_33k_ES_PAN_21mic_H50_0505_fot_59B-29250_W.tif
  2
NAME
  10
343637.366
  20
4520497.010
 40
34.27431
  0
SEQEND
  0
POLYLINE
  8
LC_OH_2021_05_O7
  70
1
  66
1
  0
VERTEX
  8
LC_OH_2021_05_O7
  10
343637.638
  20
4520589.227
  0
VERTEX
  8
LC_OH_2021_05_O7
  10
343641.003
  20
4520589.500
  0
VERTEX
  8
LC_OH_2021_05_O7
  10
343633.730
  20
4520404.520
  0
SEQEND
  8
LC_OH_2021_05_O7
  0
INSERT
  8
FeatureAttribs
  2
FEATURE
  41
1
  42
1
  43
1
  50
0
  10
344830.042
  20
4518127.249
 66
1
  0
ATTRIB
  8
FeatureAttribs
 70
0
  1
PNOA-H_AMS_1956-57_33k_ES_PAN_21mic_H50_0506_fot_59B-29249_W.tif
  2
NAME
  10
344830.042
  20
4518127.249
 40
34.27431
  0
SEQEND
  0
POLYLINE
  8
LC_OH_2021_05_O7
  70
1
  66
1
  0
VERTEX
  8
LC_OH_2021_05_O7
  10
343633.715
  20
4520403.834
  0
VERTEX
  8
LC_OH_2021_05_O7
  10
343641.003
  20
4520589.500
  0
VERTEX
  8
LC_OH_2021_05_O7
  10
344187.503
  20
4520628.500
  0
VERTEX
  8
LC_OH_2021_05_O7
  10
344191.503
  20
4520628.500
  0
VERTEX
  8
LC_OH_2021_05_O7
  10
344202.503
  20
4520625.500
  0
VERTEX
  8
LC_OH_2021_05_O7
  10
344624.503
  20
4520667.500
  0
VERTEX
  8
LC_OH_2021_05_O7
  10
344635.003
  20
4520667.000
  0
VERTEX
  8
LC_OH_2021_05_O7
  10
344784.503
  20
4520633.000
  0
VERTEX
  8
LC_OH_2021_05_O7
  10
346419.504
  20
4517555.500
  0
VERTEX
  8
LC_OH_2021_05_O7
  10
346411.504
  20
4516580.500
  0
VERTEX
  8
LC_OH_2021_05_O7
  10
346411.504
  20
4516542.500
  0
VERTEX
  8
LC_OH_2021_05_O7
  10
346406.504
  20
4515895.500
  0
VERTEX
  8
LC_OH_2021_05_O7
  10
345836.504
  20
4515680.000
  0
VERTEX
  8
LC_OH_2021_05_O7
  10
344577.503
  20
4515587.000
  0
VERTEX
  8
LC_OH_2021_05_O7
  10
343537.761
  20
4515867.573
  0
VERTEX
  8
LC_OH_2021_05_O7
  10
343567.721
  20
4517284.461
  0
VERTEX
  8
LC_OH_2021_05_O7
  10
343616.646
  20
4519597.259
  0
SEQEND
  8
LC_OH_2021_05_O7
  0
INSERT
  8
FeatureAttribs
  2
FEATURE
  41
1
  42
1
  43
1
  50
0
  10
349671.582
  20
4519528.750
 66
1
  0
ATTRIB
  8
FeatureAttribs
 70
0
  1
PNOA-H_AMS_1956-57_33k_ES_PAN_21mic_H50_0506_fot_000-42208_R.tif
  2
NAME
  10
349671.582
  20
4519528.750
 40
34.27431
  0
SEQEND
  0
POLYLINE
  8
LC_OH_2021_05_O7
  70
1
  66
1
  0
VERTEX
  8
LC_OH_2021_05_O7
  10
350237.004
  20
4521298.500
  0
VERTEX
  8
LC_OH_2021_05_O7
  10
350238.504
  20
4521299.000
  0
VERTEX
  8
LC_OH_2021_05_O7
  10
350254.004
  20
4521294.000
  0
VERTEX
  8
LC_OH_2021_05_O7
  10
350994.004
  20
4521015.500
  0
VERTEX
  8
LC_OH_2021_05_O7
  10
350656.004
  20
4518511.000
  0
VERTEX
  8
LC_OH_2021_05_O7
  10
350655.504
  20
4518509.000
  0
VERTEX
  8
LC_OH_2021_05_O7
  10
350649.504
  20
4518505.500
  0
VERTEX
  8
LC_OH_2021_05_O7
  10
349359.504
  20
4517758.500
  0
VERTEX
  8
LC_OH_2021_05_O7
  10
349358.004
  20
4517759.000
  0
VERTEX
  8
LC_OH_2021_05_O7
  10
349355.504
  20
4517763.000
  0
VERTEX
  8
LC_OH_2021_05_O7
  10
348569.504
  20
4519106.500
  0
VERTEX
  8
LC_OH_2021_05_O7
  10
348491.004
  20
4520789.500
  0
SEQEND
  8
LC_OH_2021_05_O7
  0
INSERT
  8
FeatureAttribs
  2
FEATURE
  41
1
  42
1
  43
1
  50
0
  10
347003.150
  20
4519381.251
 66
1
  0
ATTRIB
  8
FeatureAttribs
 70
0
  1
PNOA-H_AMS_1956-57_33k_ES_PAN_21mic_H50_0506_fot_000-42207_R.tif
  2
NAME
  10
347003.150
  20
4519381.251
 40
34.27431
  0
SEQEND
  0
POLYLINE
  8
LC_OH_2021_05_O7
  70
1
  66
1
  0
VERTEX
  8
LC_OH_2021_05_O7
  10
344791.003
  20
4520634.500
  0
VERTEX
  8
LC_OH_2021_05_O7
  10
345196.503
  20
4520719.500
  0
VERTEX
  8
LC_OH_2021_05_O7
  10
345199.003
  20
4520720.000
  0
VERTEX
  8
LC_OH_2021_05_O7
  10
347521.504
  20
4521207.000
  0
VERTEX
  8
LC_OH_2021_05_O7
  10
347524.004
  20
4521207.000
  0
VERTEX
  8
LC_OH_2021_05_O7
  10
347545.004
  20
4521198.000
  0
VERTEX
  8
LC_OH_2021_05_O7
  10
348491.004
  20
4520789.500
  0
VERTEX
  8
LC_OH_2021_05_O7
  10
348570.004
  20
4519106.000
  0
VERTEX
  8
LC_OH_2021_05_O7
  10
346419.504
  20
4517555.500
  0
VERTEX
  8
LC_OH_2021_05_O7
  10
344784.503
  20
4520632.000
  0
VERTEX
  8
LC_OH_2021_05_O7
  10
344784.503
  20
4520633.000
  0
SEQEND
  8
LC_OH_2021_05_O7
  0
INSERT
  8
FeatureAttribs
  2
FEATURE
  41
1
  42
1
  43
1
  50
0
  10
353287.727
  20
4518708.500
 66
1
  0
ATTRIB
  8
FeatureAttribs
 70
0
  1
PNOA-H_AMS_1956-57_33k_ES_PAN_21mic_H50_0506_fot_000-42209_R.tif
  2
NAME
  10
353287.727
  20
4518708.500
 40
34.27431
  0
SEQEND
  0
POLYLINE
  8
LC_OH_2021_05_O7
  70
1
  66
1
  0
VERTEX
  8
LC_OH_2021_05_O7
  10
352971.504
  20
4521300.500
  0
VERTEX
  8
LC_OH_2021_05_O7
  10
352973.004
  20
4521301.000
  0
VERTEX
  8
LC_OH_2021_05_O7
  10
354471.504
  20
4520761.500
  0
VERTEX
  8
LC_OH_2021_05_O7
  10
354317.504
  20
4516380.000
  0
VERTEX
  8
LC_OH_2021_05_O7
  10
353568.504
  20
4516117.500
  0
VERTEX
  8
LC_OH_2021_05_O7
  10
353562.004
  20
4516116.000
  0
VERTEX
  8
LC_OH_2021_05_O7
  10
353247.004
  20
4516163.000
  0
VERTEX
  8
LC_OH_2021_05_O7
  10
352284.504
  20
4517752.500
  0
VERTEX
  8
LC_OH_2021_05_O7
  10
351921.504
  20
4520954.500
  0
SEQEND
  8
LC_OH_2021_05_O7
  0
INSERT
  8
FeatureAttribs
  2
FEATURE
  41
1
  42
1
  43
1
  50
0
  10
367805.965
  20
4518760.001
 66
1
  0
ATTRIB
  8
FeatureAttribs
 70
0
  1
PNOA-H_AMS_1956-57_33k_ES_PAN_21mic_H50_0506_fot_000-42214_R.tif
  2
NAME
  10
367805.965
  20
4518760.001
 40
34.27431
  0
SEQEND
  0
POLYLINE
  8
LC_OH_2021_05_O7
  70
1
  66
1
  0
VERTEX
  8
LC_OH_2021_05_O7
  10
366366.505
  20
4519118.500
  0
VERTEX
  8
LC_OH_2021_05_O7
  10
366468.005
  20
4520268.500
  0
VERTEX
  8
LC_OH_2021_05_O7
  10
366875.505
  20
4520462.500
  0
VERTEX
  8
LC_OH_2021_05_O7
  10
366876.505
  20
4520463.000
  0
VERTEX
  8
LC_OH_2021_05_O7
  10
369310.506
  20
4520092.000
  0
VERTEX
  8
LC_OH_2021_05_O7
  10
369315.506
  20
4520091.000
  0
VERTEX
  8
LC_OH_2021_05_O7
  10
369315.506
  20
4520086.000
  0
VERTEX
  8
LC_OH_2021_05_O7
  10
369192.006
  20
4518682.500
  0
VERTEX
  8
LC_OH_2021_05_O7
  10
366639.505
  20
4517057.000
  0
VERTEX
  8
LC_OH_2021_05_O7
  10
366638.505
  20
4517057.500
  0
VERTEX
  8
LC_OH_2021_05_O7
  10
366636.005
  20
4517076.000
  0
VERTEX
  8
LC_OH_2021_05_O7
  10
366366.505
  20
4519112.000
  0
VERTEX
  8
LC_OH_2021_05_O7
  10
366366.505
  20
4519118.500
  0
SEQEND
  8
LC_OH_2021_05_O7
  0
INSERT
  8
FeatureAttribs
  2
FEATURE
  41
1
  42
1
  43
1
  50
0
  10
361811.549
  20
4518367.500
 66
1
  0
ATTRIB
  8
FeatureAttribs
 70
0
  1
PNOA-H_AMS_1956-57_33k_ES_PAN_21mic_H50_0506_fot_000-42212_R.tif
  2
NAME
  10
361811.549
  20
4518367.500
 40
34.27431
  0
SEQEND
  0
POLYLINE
  8
LC_OH_2021_05_O7
  70
1
  66
1
  0
VERTEX
  8
LC_OH_2021_05_O7
  10
360413.005
  20
4520519.500
  0
VERTEX
  8
LC_OH_2021_05_O7
  10
361266.005
  20
4520898.500
  0
VERTEX
  8
LC_OH_2021_05_O7
  10
361267.505
  20
4520899.000
  0
VERTEX
  8
LC_OH_2021_05_O7
  10
363502.505
  20
4520397.000
  0
VERTEX
  8
LC_OH_2021_05_O7
  10
363166.505
  20
4516506.500
  0
VERTEX
  8
LC_OH_2021_05_O7
  10
363081.005
  20
4516157.000
  0
VERTEX
  8
LC_OH_2021_05_O7
  10
361919.005
  20
4515838.500
  0
VERTEX
  8
LC_OH_2021_05_O7
  10
361906.505
  20
4515836.000
  0
VERTEX
  8
LC_OH_2021_05_O7
  10
360183.005
  20
4516293.000
  0
VERTEX
  8
LC_OH_2021_05_O7
  10
360413.005
  20
4520519.500
  0
SEQEND
  8
LC_OH_2021_05_O7
  0
INSERT
  8
FeatureAttribs
  2
FEATURE
  41
1
  42
1
  43
1
  50
0
  10
359075.737
  20
4518500.751
 66
1
  0
ATTRIB
  8
FeatureAttribs
 70
0
  1
PNOA-H_AMS_1956-57_33k_ES_PAN_21mic_H50_0506_fot_000-42211_R.tif
  2
NAME
  10
359075.737
  20
4518500.751
 40
34.27431
  0
SEQEND
  0
POLYLINE
  8
LC_OH_2021_05_O7
  70
1
  66
1
  0
VERTEX
  8
LC_OH_2021_05_O7
  10
357430.504
  20
4520661.000
  0
VERTEX
  8
LC_OH_2021_05_O7
  10
358490.005
  20
4521069.000
  0
VERTEX
  8
LC_OH_2021_05_O7
  10
360413.005
  20
4520519.500
  0
VERTEX
  8
LC_OH_2021_05_O7
  10
360308.005
  20
4518595.500
  0
VERTEX
  8
LC_OH_2021_05_O7
  10
360308.005
  20
4518590.500
  0
VERTEX
  8
LC_OH_2021_05_O7
  10
360183.005
  20
4516293.500
  0
VERTEX
  8
LC_OH_2021_05_O7
  10
359066.505
  20
4515932.500
  0
VERTEX
  8
LC_OH_2021_05_O7
  10
358509.505
  20
4516043.500
  0
VERTEX
  8
LC_OH_2021_05_O7
  10
357400.004
  20
4520167.000
  0
SEQEND
  8
LC_OH_2021_05_O7
  0
INSERT
  8
FeatureAttribs
  2
FEATURE
  41
1
  42
1
  43
1
  50
0
  10
364538.158
  20
4518595.501
 66
1
  0
ATTRIB
  8
FeatureAttribs
 70
0
  1
PNOA-H_AMS_1956-57_33k_ES_PAN_21mic_H50_0506_fot_000-42213_R.tif
  2
NAME
  10
364538.158
  20
4518595.501
 40
34.27431
  0
SEQEND
  0
POLYLINE
  8
LC_OH_2021_05_O7
  70
1
  66
1
  0
VERTEX
  8
LC_OH_2021_05_O7
  10
363167.005
  20
4516518.000
  0
VERTEX
  8
LC_OH_2021_05_O7
  10
363502.505
  20
4520397.500
  0
VERTEX
  8
LC_OH_2021_05_O7
  10
364117.505
  20
4520684.000
  0
VERTEX
  8
LC_OH_2021_05_O7
  10
365677.505
  20
4520408.000
  0
VERTEX
  8
LC_OH_2021_05_O7
  10
365679.505
  20
4520408.000
  0
VERTEX
  8
LC_OH_2021_05_O7
  10
366468.005
  20
4520268.500
  0
VERTEX
  8
LC_OH_2021_05_O7
  10
366366.505
  20
4519114.500
  0
VERTEX
  8
LC_OH_2021_05_O7
  10
363167.005
  20
4516507.000
  0
VERTEX
  8
LC_OH_2021_05_O7
  10
363167.005
  20
4516518.000
  0
SEQEND
  8
LC_OH_2021_05_O7
  0
INSERT
  8
FeatureAttribs
  2
FEATURE
  41
1
  42
1
  43
1
  50
0
  10
355439.975
  20
4518745.501
 66
1
  0
ATTRIB
  8
FeatureAttribs
 70
0
  1
PNOA-H_AMS_1956-57_33k_ES_PAN_21mic_H50_0506_fot_000-42210_R.tif
  2
NAME
  10
355439.975
  20
4518745.501
 40
34.27431
  0
SEQEND
  0
POLYLINE
  8
LC_OH_2021_05_O7
  70
1
  66
1
  0
VERTEX
  8
LC_OH_2021_05_O7
  10
354471.504
  20
4520761.000
  0
VERTEX
  8
LC_OH_2021_05_O7
  10
355726.004
  20
4521209.000
  0
VERTEX
  8
LC_OH_2021_05_O7
  10
357430.504
  20
4520660.500
  0
VERTEX
  8
LC_OH_2021_05_O7
  10
357400.504
  20
4520169.000
  0
VERTEX
  8
LC_OH_2021_05_O7
  10
357399.004
  20
4520165.000
  0
VERTEX
  8
LC_OH_2021_05_O7
  10
356379.504
  20
4518591.500
  0
VERTEX
  8
LC_OH_2021_05_O7
  10
356379.004
  20
4518590.500
  0
VERTEX
  8
LC_OH_2021_05_O7
  10
354885.004
  20
4516282.500
  0
VERTEX
  8
LC_OH_2021_05_O7
  10
354882.504
  20
4516282.000
  0
VERTEX
  8
LC_OH_2021_05_O7
  10
354317.504
  20
4516379.500
  0
SEQEND
  8
LC_OH_2021_05_O7
  0
INSERT
  8
FeatureAttribs
  2
FEATURE
  41
1
  42
1
  43
1
  50
0
  10
370220.754
  20
4518286.251
 66
1
  0
ATTRIB
  8
FeatureAttribs
 70
0
  1
PNOA-H_AMS_1956-57_33k_ES_PAN_21mic_H50_0506_fot_000-42215_R.tif
  2
NAME
  10
370220.754
  20
4518286.251
 40
34.27431
  0
SEQEND
  0
POLYLINE
  8
LC_OH_2021_05_O7
  70
1
  66
1
  0
VERTEX
  8
LC_OH_2021_05_O7
  10
371746.724
  20
4519927.916
  0
VERTEX
  8
LC_OH_2021_05_O7
  10
371731.589
  20
4519055.895
  0
VERTEX
  8
LC_OH_2021_05_O7
  10
371727.911
  20
4518843.913
  0
VERTEX
  8
LC_OH_2021_05_O7
  10
369614.506
  20
4516543.000
  0
VERTEX
  8
LC_OH_2021_05_O7
  10
369613.506
  20
4516542.500
  0
VERTEX
  8
LC_OH_2021_05_O7
  10
369400.006
  20
4516309.500
  0
VERTEX
  8
LC_OH_2021_05_O7
  10
369396.006
  20
4516305.500
  0
VERTEX
  8
LC_OH_2021_05_O7
  10
369395.006
  20
4516306.000
  0
VERTEX
  8
LC_OH_2021_05_O7
  10
369192.506
  20
4518676.000
  0
VERTEX
  8
LC_OH_2021_05_O7
  10
369192.006
  20
4518683.500
  0
VERTEX
  8
LC_OH_2021_05_O7
  10
369315.506
  20
4520091.000
  0
VERTEX
  8
LC_OH_2021_05_O7
  10
369701.506
  20
4520265.000
  0
VERTEX
  8
LC_OH_2021_05_O7
  10
369706.006
  20
4520267.000
  0
VERTEX
  8
LC_OH_2021_05_O7
  10
369710.506
  20
4520267.000
  0
SEQEND
  8
LC_OH_2021_05_O7
  0
ENDSEC
  0
EOF
