  0
SECTION
  2
HEADER
  9
$ACADVER
  1
AC1009
  9
$LUNITS
  70
2
  9
$LIMMIN
  10
315097.329
  20
4503407.836
  9
$LIMMAX
  10
343665.591
  20
4522558.532
  9
$EXTMIN
  10
315097.329
  20
4503407.836
  9
$EXTMAX
  10
343665.591
  20
4522558.532
  999
Created by Global Mapper
  999
Projection: UTM
  999
Datum: ETRS89
  999
Ground Units: meters
  999
ZONE: 30
  0
ENDSEC
  0
SECTION
  2
TABLES
  0
ENDSEC
  0
SECTION
  2
BLOCKS
  0
BLOCK
  8
FeatureAttribs
  70
0
  2
FEATURE
  3
FEATURE
  10
0.00000000
  20
0.00000000
  0
ATTDEF
  8
FeatureAttribs
  70
0
  1
 
  2
NAME
  3
NAME
  10
0.00000000
  20
0.00000000
  40
1.00000000
  0
ENDBLK
  0
ENDSEC
  0
SECTION
  2
ENTITIES
  0
INSERT
  8
FeatureAttribs
  2
FEATURE
  41
1
  42
1
  43
1
  50
0
  10
343426.726
  20
4521347.500
 66
1
  0
ATTRIB
  8
FeatureAttribs
 70
0
  1
PNOA-H_AMS_1956-57_33k_ES_PAN_21mic_H50_0480_fot_58C-35962_W.tif
  2
NAME
  10
343426.726
  20
4521347.500
 40
34.39324
  0
SEQEND
  0
POLYLINE
  8
LC_OH_2021_05_O7
  70
1
  66
1
  0
VERTEX
  8
LC_OH_2021_05_O7
  10
343637.638
  20
4520589.227
  0
VERTEX
  8
LC_OH_2021_05_O7
  10
342844.003
  20
4520525.000
  0
VERTEX
  8
LC_OH_2021_05_O7
  10
342068.503
  20
4520721.000
  0
VERTEX
  8
LC_OH_2021_05_O7
  10
342085.217
  20
4521943.892
  0
VERTEX
  8
LC_OH_2021_05_O7
  10
343665.591
  20
4521910.063
  0
SEQEND
  8
LC_OH_2021_05_O7
  0
INSERT
  8
FeatureAttribs
  2
FEATURE
  41
1
  42
1
  43
1
  50
0
  10
340690.761
  20
4521279.000
 66
1
  0
ATTRIB
  8
FeatureAttribs
 70
0
  1
PNOA-H_AMS_1956-57_33k_ES_PAN_21mic_H50_0480_fot_58C-35963_W.tif
  2
NAME
  10
340690.761
  20
4521279.000
 40
34.39324
  0
SEQEND
  0
POLYLINE
  8
LC_OH_2021_05_O7
  70
1
  66
1
  0
VERTEX
  8
LC_OH_2021_05_O7
  10
342085.113
  20
4521943.894
  0
VERTEX
  8
LC_OH_2021_05_O7
  10
342068.503
  20
4520721.000
  0
VERTEX
  8
LC_OH_2021_05_O7
  10
340760.503
  20
4520388.000
  0
VERTEX
  8
LC_OH_2021_05_O7
  10
339292.003
  20
4520846.500
  0
VERTEX
  8
LC_OH_2021_05_O7
  10
339327.911
  20
4522003.305
  0
VERTEX
  8
LC_OH_2021_05_O7
  10
340152.272
  20
4521985.267
  0
SEQEND
  8
LC_OH_2021_05_O7
  0
INSERT
  8
FeatureAttribs
  2
FEATURE
  41
1
  42
1
  43
1
  50
0
  10
337963.382
  20
4521430.000
 66
1
  0
ATTRIB
  8
FeatureAttribs
 70
0
  1
PNOA-H_AMS_1956-57_33k_ES_PAN_21mic_H50_0480_fot_58C-35964_W.tif
  2
NAME
  10
337963.382
  20
4521430.000
 40
34.39324
  0
SEQEND
  0
POLYLINE
  8
LC_OH_2021_05_O7
  70
1
  66
1
  0
VERTEX
  8
LC_OH_2021_05_O7
  10
339328.276
  20
4522003.297
  0
VERTEX
  8
LC_OH_2021_05_O7
  10
339292.503
  20
4520847.000
  0
VERTEX
  8
LC_OH_2021_05_O7
  10
337833.003
  20
4520530.000
  0
VERTEX
  8
LC_OH_2021_05_O7
  10
336609.503
  20
4520964.000
  0
VERTEX
  8
LC_OH_2021_05_O7
  10
336625.373
  20
4522062.446
  0
VERTEX
  8
LC_OH_2021_05_O7
  10
336638.941
  20
4522062.143
  0
SEQEND
  8
LC_OH_2021_05_O7
  0
INSERT
  8
FeatureAttribs
  2
FEATURE
  41
1
  42
1
  43
1
  50
0
  10
343370.709
  20
4508732.250
 66
1
  0
ATTRIB
  8
FeatureAttribs
 70
0
  1
PNOA-H_AMS_1956-57_33k_ES_PAN_21mic_H50_0505_fot_61C-39598_W.tif
  2
NAME
  10
343370.709
  20
4508732.250
 40
34.39324
  0
SEQEND
  0
POLYLINE
  8
LC_OH_2021_05_O7
  70
1
  66
1
  0
VERTEX
  8
LC_OH_2021_05_O7
  10
343434.982
  20
4511004.502
  0
VERTEX
  8
LC_OH_2021_05_O7
  10
343421.072
  20
4510346.115
  0
VERTEX
  8
LC_OH_2021_05_O7
  10
343372.230
  20
4508033.347
  0
VERTEX
  8
LC_OH_2021_05_O7
  10
343340.408
  20
4506525.833
  0
VERTEX
  8
LC_OH_2021_05_O7
  10
342000.503
  20
4506678.000
  0
VERTEX
  8
LC_OH_2021_05_O7
  10
342050.503
  20
4510916.000
  0
VERTEX
  8
LC_OH_2021_05_O7
  10
342863.503
  20
4511059.000
  0
VERTEX
  8
LC_OH_2021_05_O7
  10
343148.503
  20
4511031.500
  0
VERTEX
  8
LC_OH_2021_05_O7
  10
343151.503
  20
4511031.500
  0
SEQEND
  8
LC_OH_2021_05_O7
  0
INSERT
  8
FeatureAttribs
  2
FEATURE
  41
1
  42
1
  43
1
  50
0
  10
340711.240
  20
4508772.000
 66
1
  0
ATTRIB
  8
FeatureAttribs
 70
0
  1
PNOA-H_AMS_1956-57_33k_ES_PAN_21mic_H50_0505_fot_61C-39599_W.tif
  2
NAME
  10
340711.240
  20
4508772.000
 40
34.39324
  0
SEQEND
  0
POLYLINE
  8
LC_OH_2021_05_O7
  70
1
  66
1
  0
VERTEX
  8
LC_OH_2021_05_O7
  10
341103.503
  20
4511038.000
  0
VERTEX
  8
LC_OH_2021_05_O7
  10
341857.003
  20
4510979.500
  0
VERTEX
  8
LC_OH_2021_05_O7
  10
342050.503
  20
4510916.500
  0
VERTEX
  8
LC_OH_2021_05_O7
  10
342001.003
  20
4506681.500
  0
VERTEX
  8
LC_OH_2021_05_O7
  10
342000.503
  20
4506678.000
  0
VERTEX
  8
LC_OH_2021_05_O7
  10
341996.003
  20
4506675.000
  0
VERTEX
  8
LC_OH_2021_05_O7
  10
341556.003
  20
4506428.500
  0
VERTEX
  8
LC_OH_2021_05_O7
  10
339364.003
  20
4506810.000
  0
VERTEX
  8
LC_OH_2021_05_O7
  10
339434.003
  20
4510966.500
  0
VERTEX
  8
LC_OH_2021_05_O7
  10
340116.003
  20
4511115.500
  0
VERTEX
  8
LC_OH_2021_05_O7
  10
341102.503
  20
4511038.000
  0
VERTEX
  8
LC_OH_2021_05_O7
  10
341103.503
  20
4511038.000
  0
SEQEND
  8
LC_OH_2021_05_O7
  0
INSERT
  8
FeatureAttribs
  2
FEATURE
  41
1
  42
1
  43
1
  50
0
  10
332327.222
  20
4509176.250
 66
1
  0
ATTRIB
  8
FeatureAttribs
 70
0
  1
PNOA-H_AMS_1956-57_33k_ES_PAN_21mic_H50_0505_fot_61C-39602_W.tif
  2
NAME
  10
332327.222
  20
4509176.250
 40
34.39324
  0
SEQEND
  0
POLYLINE
  8
LC_OH_2021_05_O7
  70
1
  66
1
  0
VERTEX
  8
LC_OH_2021_05_O7
  10
333677.003
  20
4508350.500
  0
VERTEX
  8
LC_OH_2021_05_O7
  10
333592.003
  20
4507131.500
  0
VERTEX
  8
LC_OH_2021_05_O7
  10
333581.003
  20
4507124.500
  0
VERTEX
  8
LC_OH_2021_05_O7
  10
332982.003
  20
4506806.500
  0
VERTEX
  8
LC_OH_2021_05_O7
  10
330795.003
  20
4507298.000
  0
VERTEX
  8
LC_OH_2021_05_O7
  10
331071.503
  20
4511453.500
  0
VERTEX
  8
LC_OH_2021_05_O7
  10
331072.003
  20
4511457.500
  0
VERTEX
  8
LC_OH_2021_05_O7
  10
331073.003
  20
4511458.000
  0
VERTEX
  8
LC_OH_2021_05_O7
  10
331410.003
  20
4511546.000
  0
VERTEX
  8
LC_OH_2021_05_O7
  10
333879.003
  20
4511241.500
  0
VERTEX
  8
LC_OH_2021_05_O7
  10
333677.003
  20
4508355.500
  0
VERTEX
  8
LC_OH_2021_05_O7
  10
333677.003
  20
4508350.500
  0
SEQEND
  8
LC_OH_2021_05_O7
  0
INSERT
  8
FeatureAttribs
  2
FEATURE
  41
1
  42
1
  43
1
  50
0
  10
335170.767
  20
4508996.000
 66
1
  0
ATTRIB
  8
FeatureAttribs
 70
0
  1
PNOA-H_AMS_1956-57_33k_ES_PAN_21mic_H50_0505_fot_61C-39601_W.tif
  2
NAME
  10
335170.767
  20
4508996.000
 40
34.39324
  0
SEQEND
  0
POLYLINE
  8
LC_OH_2021_05_O7
  70
1
  66
1
  0
VERTEX
  8
LC_OH_2021_05_O7
  10
334959.503
  20
4511292.000
  0
VERTEX
  8
LC_OH_2021_05_O7
  10
336258.503
  20
4511168.500
  0
VERTEX
  8
LC_OH_2021_05_O7
  10
336733.503
  20
4511025.500
  0
VERTEX
  8
LC_OH_2021_05_O7
  10
336506.003
  20
4506973.500
  0
VERTEX
  8
LC_OH_2021_05_O7
  10
335876.003
  20
4506632.500
  0
VERTEX
  8
LC_OH_2021_05_O7
  10
333591.503
  20
4507130.500
  0
VERTEX
  8
LC_OH_2021_05_O7
  10
333879.003
  20
4511241.500
  0
VERTEX
  8
LC_OH_2021_05_O7
  10
334017.503
  20
4511301.500
  0
VERTEX
  8
LC_OH_2021_05_O7
  10
334247.503
  20
4511359.500
  0
VERTEX
  8
LC_OH_2021_05_O7
  10
334957.003
  20
4511292.000
  0
VERTEX
  8
LC_OH_2021_05_O7
  10
334959.503
  20
4511292.000
  0
SEQEND
  8
LC_OH_2021_05_O7
  0
INSERT
  8
FeatureAttribs
  2
FEATURE
  41
1
  42
1
  43
1
  50
0
  10
326762.502
  20
4509582.500
 66
1
  0
ATTRIB
  8
FeatureAttribs
 70
0
  1
PNOA-H_AMS_1956-57_33k_ES_PAN_21mic_H50_0505_fot_61C-39604_W.tif
  2
NAME
  10
326762.502
  20
4509582.500
 40
34.39324
  0
SEQEND
  0
POLYLINE
  8
LC_OH_2021_05_O7
  70
1
  66
1
  0
VERTEX
  8
LC_OH_2021_05_O7
  10
326767.502
  20
4511971.000
  0
VERTEX
  8
LC_OH_2021_05_O7
  10
328288.002
  20
4511595.500
  0
VERTEX
  8
LC_OH_2021_05_O7
  10
328010.502
  20
4507479.000
  0
VERTEX
  8
LC_OH_2021_05_O7
  10
327245.502
  20
4507118.500
  0
VERTEX
  8
LC_OH_2021_05_O7
  10
325276.502
  20
4507609.500
  0
VERTEX
  8
LC_OH_2021_05_O7
  10
325220.502
  20
4507624.000
  0
VERTEX
  8
LC_OH_2021_05_O7
  10
325541.502
  20
4511754.500
  0
VERTEX
  8
LC_OH_2021_05_O7
  10
326461.002
  20
4512046.500
  0
VERTEX
  8
LC_OH_2021_05_O7
  10
326484.502
  20
4512041.500
  0
VERTEX
  8
LC_OH_2021_05_O7
  10
326765.502
  20
4511971.500
  0
VERTEX
  8
LC_OH_2021_05_O7
  10
326767.502
  20
4511971.000
  0
SEQEND
  8
LC_OH_2021_05_O7
  0
INSERT
  8
FeatureAttribs
  2
FEATURE
  41
1
  42
1
  43
1
  50
0
  10
318511.738
  20
4509989.500
 66
1
  0
ATTRIB
  8
FeatureAttribs
 70
0
  1
PNOA-H_AMS_1956-57_33k_ES_PAN_21mic_H50_0505_fot_61C-39607_W.tif
  2
NAME
  10
318511.738
  20
4509989.500
 40
34.39324
  0
SEQEND
  0
POLYLINE
  8
LC_OH_2021_05_O7
  70
1
  66
1
  0
VERTEX
  8
LC_OH_2021_05_O7
  10
319756.002
  20
4508350.500
  0
VERTEX
  8
LC_OH_2021_05_O7
  10
319722.502
  20
4507888.500
  0
VERTEX
  8
LC_OH_2021_05_O7
  10
318673.502
  20
4507504.500
  0
VERTEX
  8
LC_OH_2021_05_O7
  10
318642.502
  20
4507513.500
  0
VERTEX
  8
LC_OH_2021_05_O7
  10
316974.502
  20
4508048.500
  0
VERTEX
  8
LC_OH_2021_05_O7
  10
317361.502
  20
4512363.500
  0
VERTEX
  8
LC_OH_2021_05_O7
  10
317362.502
  20
4512365.500
  0
VERTEX
  8
LC_OH_2021_05_O7
  10
317369.502
  20
4512369.000
  0
VERTEX
  8
LC_OH_2021_05_O7
  10
317585.502
  20
4512474.500
  0
VERTEX
  8
LC_OH_2021_05_O7
  10
320029.502
  20
4512118.000
  0
VERTEX
  8
LC_OH_2021_05_O7
  10
319756.002
  20
4508352.500
  0
VERTEX
  8
LC_OH_2021_05_O7
  10
319756.002
  20
4508350.500
  0
SEQEND
  8
LC_OH_2021_05_O7
  0
INSERT
  8
FeatureAttribs
  2
FEATURE
  41
1
  42
1
  43
1
  50
0
  10
338004.130
  20
4508826.750
 66
1
  0
ATTRIB
  8
FeatureAttribs
 70
0
  1
PNOA-H_AMS_1956-57_33k_ES_PAN_21mic_H50_0505_fot_61C-39600_W.tif
  2
NAME
  10
338004.130
  20
4508826.750
 40
34.39324
  0
SEQEND
  0
POLYLINE
  8
LC_OH_2021_05_O7
  70
1
  66
1
  0
VERTEX
  8
LC_OH_2021_05_O7
  10
337006.503
  20
4511097.500
  0
VERTEX
  8
LC_OH_2021_05_O7
  10
337365.503
  20
4511192.000
  0
VERTEX
  8
LC_OH_2021_05_O7
  10
337376.503
  20
4511193.500
  0
VERTEX
  8
LC_OH_2021_05_O7
  10
338990.503
  20
4511095.000
  0
VERTEX
  8
LC_OH_2021_05_O7
  10
339434.003
  20
4510966.500
  0
VERTEX
  8
LC_OH_2021_05_O7
  10
339364.503
  20
4506811.500
  0
VERTEX
  8
LC_OH_2021_05_O7
  10
339364.003
  20
4506809.500
  0
VERTEX
  8
LC_OH_2021_05_O7
  10
338703.503
  20
4506460.000
  0
VERTEX
  8
LC_OH_2021_05_O7
  10
336506.003
  20
4506973.500
  0
VERTEX
  8
LC_OH_2021_05_O7
  10
336733.503
  20
4511025.500
  0
VERTEX
  8
LC_OH_2021_05_O7
  10
337004.503
  20
4511097.000
  0
VERTEX
  8
LC_OH_2021_05_O7
  10
337006.503
  20
4511097.500
  0
SEQEND
  8
LC_OH_2021_05_O7
  0
INSERT
  8
FeatureAttribs
  2
FEATURE
  41
1
  42
1
  43
1
  50
0
  10
329539.463
  20
4509429.500
 66
1
  0
ATTRIB
  8
FeatureAttribs
 70
0
  1
PNOA-H_AMS_1956-57_33k_ES_PAN_21mic_H50_0505_fot_61C-39603_W.tif
  2
NAME
  10
329539.463
  20
4509429.500
 40
34.39324
  0
SEQEND
  0
POLYLINE
  8
LC_OH_2021_05_O7
  70
1
  66
1
  0
VERTEX
  8
LC_OH_2021_05_O7
  10
328814.002
  20
4511750.000
  0
VERTEX
  8
LC_OH_2021_05_O7
  10
329345.003
  20
4511906.000
  0
VERTEX
  8
LC_OH_2021_05_O7
  10
331072.003
  20
4511457.500
  0
VERTEX
  8
LC_OH_2021_05_O7
  10
330795.003
  20
4507298.000
  0
VERTEX
  8
LC_OH_2021_05_O7
  10
330097.003
  20
4506953.000
  0
VERTEX
  8
LC_OH_2021_05_O7
  10
328010.502
  20
4507479.500
  0
VERTEX
  8
LC_OH_2021_05_O7
  10
328288.002
  20
4511595.000
  0
VERTEX
  8
LC_OH_2021_05_O7
  10
328812.002
  20
4511749.500
  0
VERTEX
  8
LC_OH_2021_05_O7
  10
328814.002
  20
4511750.000
  0
SEQEND
  8
LC_OH_2021_05_O7
  0
INSERT
  8
FeatureAttribs
  2
FEATURE
  41
1
  42
1
  43
1
  50
0
  10
323998.934
  20
4509725.251
 66
1
  0
ATTRIB
  8
FeatureAttribs
 70
0
  1
PNOA-H_AMS_1956-57_33k_ES_PAN_21mic_H50_0505_fot_61C-39605_W.tif
  2
NAME
  10
323998.934
  20
4509725.251
 40
34.39324
  0
SEQEND
  0
POLYLINE
  8
LC_OH_2021_05_O7
  70
1
  66
1
  0
VERTEX
  8
LC_OH_2021_05_O7
  10
322671.002
  20
4510432.500
  0
VERTEX
  8
LC_OH_2021_05_O7
  10
322791.502
  20
4511911.000
  0
VERTEX
  8
LC_OH_2021_05_O7
  10
322792.502
  20
4511919.000
  0
VERTEX
  8
LC_OH_2021_05_O7
  10
322794.502
  20
4511920.000
  0
VERTEX
  8
LC_OH_2021_05_O7
  10
323552.002
  20
4512189.500
  0
VERTEX
  8
LC_OH_2021_05_O7
  10
325541.502
  20
4511754.000
  0
VERTEX
  8
LC_OH_2021_05_O7
  10
325222.002
  20
4507636.500
  0
VERTEX
  8
LC_OH_2021_05_O7
  10
325221.002
  20
4507624.000
  0
VERTEX
  8
LC_OH_2021_05_O7
  10
325216.502
  20
4507621.500
  0
VERTEX
  8
LC_OH_2021_05_O7
  10
324400.002
  20
4507263.500
  0
VERTEX
  8
LC_OH_2021_05_O7
  10
324392.002
  20
4507261.000
  0
VERTEX
  8
LC_OH_2021_05_O7
  10
322455.002
  20
4507779.500
  0
VERTEX
  8
LC_OH_2021_05_O7
  10
322671.002
  20
4510426.500
  0
VERTEX
  8
LC_OH_2021_05_O7
  10
322671.002
  20
4510432.500
  0
SEQEND
  8
LC_OH_2021_05_O7
  0
INSERT
  8
FeatureAttribs
  2
FEATURE
  41
1
  42
1
  43
1
  50
0
  10
321246.722
  20
4509881.750
 66
1
  0
ATTRIB
  8
FeatureAttribs
 70
0
  1
PNOA-H_AMS_1956-57_33k_ES_PAN_21mic_H50_0505_fot_61C-39606_W.tif
  2
NAME
  10
321246.722
  20
4509881.750
 40
34.39324
  0
SEQEND
  0
POLYLINE
  8
LC_OH_2021_05_O7
  70
1
  66
1
  0
VERTEX
  8
LC_OH_2021_05_O7
  10
322671.502
  20
4511943.500
  0
VERTEX
  8
LC_OH_2021_05_O7
  10
322791.002
  20
4511919.500
  0
VERTEX
  8
LC_OH_2021_05_O7
  10
322792.502
  20
4511919.000
  0
VERTEX
  8
LC_OH_2021_05_O7
  10
322792.502
  20
4511917.000
  0
VERTEX
  8
LC_OH_2021_05_O7
  10
322455.002
  20
4507779.500
  0
VERTEX
  8
LC_OH_2021_05_O7
  10
321542.002
  20
4507405.500
  0
VERTEX
  8
LC_OH_2021_05_O7
  10
319722.502
  20
4507889.000
  0
VERTEX
  8
LC_OH_2021_05_O7
  10
320029.002
  20
4512117.000
  0
VERTEX
  8
LC_OH_2021_05_O7
  10
320032.502
  20
4512119.500
  0
VERTEX
  8
LC_OH_2021_05_O7
  10
320062.002
  20
4512131.500
  0
VERTEX
  8
LC_OH_2021_05_O7
  10
320619.002
  20
4512358.000
  0
VERTEX
  8
LC_OH_2021_05_O7
  10
320621.502
  20
4512358.000
  0
VERTEX
  8
LC_OH_2021_05_O7
  10
322669.502
  20
4511943.500
  0
VERTEX
  8
LC_OH_2021_05_O7
  10
322671.502
  20
4511943.500
  0
SEQEND
  8
LC_OH_2021_05_O7
  0
INSERT
  8
FeatureAttribs
  2
FEATURE
  41
1
  42
1
  43
1
  50
0
  10
315835.569
  20
4510103.250
 66
1
  0
ATTRIB
  8
FeatureAttribs
 70
0
  1
PNOA-H_AMS_1956-57_33k_ES_PAN_21mic_H50_0505_fot_61C-39608_W.tif
  2
NAME
  10
315835.569
  20
4510103.250
 40
34.39324
  0
SEQEND
  0
POLYLINE
  8
LC_OH_2021_05_O7
  70
1
  66
1
  0
VERTEX
  8
LC_OH_2021_05_O7
  10
315308.110
  20
4512516.964
  0
VERTEX
  8
LC_OH_2021_05_O7
  10
317362.002
  20
4512365.000
  0
VERTEX
  8
LC_OH_2021_05_O7
  10
316974.502
  20
4508048.000
  0
VERTEX
  8
LC_OH_2021_05_O7
  10
315747.502
  20
4507683.500
  0
VERTEX
  8
LC_OH_2021_05_O7
  10
315737.502
  20
4507681.500
  0
VERTEX
  8
LC_OH_2021_05_O7
  10
315192.023
  20
4507858.525
  0
VERTEX
  8
LC_OH_2021_05_O7
  10
315212.519
  20
4508681.393
  0
VERTEX
  8
LC_OH_2021_05_O7
  10
315270.150
  20
4510994.231
  0
SEQEND
  8
LC_OH_2021_05_O7
  0
INSERT
  8
FeatureAttribs
  2
FEATURE
  41
1
  42
1
  43
1
  50
0
  10
338248.099
  20
4513588.999
 66
1
  0
ATTRIB
  8
FeatureAttribs
 70
0
  1
PNOA-H_AMS_1956-57_33k_ES_PAN_21mic_H50_0505_fot_000-47057_R.tif
  2
NAME
  10
338248.099
  20
4513588.999
 40
34.39324
  0
SEQEND
  0
POLYLINE
  8
LC_OH_2021_05_O7
  70
1
  66
1
  0
VERTEX
  8
LC_OH_2021_05_O7
  10
338986.003
  20
4512446.500
  0
VERTEX
  8
LC_OH_2021_05_O7
  10
338993.003
  20
4511094.500
  0
VERTEX
  8
LC_OH_2021_05_O7
  10
337372.503
  20
4511193.500
  0
VERTEX
  8
LC_OH_2021_05_O7
  10
337665.003
  20
4516083.500
  0
VERTEX
  8
LC_OH_2021_05_O7
  10
338968.503
  20
4515857.500
  0
VERTEX
  8
LC_OH_2021_05_O7
  10
338986.003
  20
4512516.000
  0
VERTEX
  8
LC_OH_2021_05_O7
  10
338986.003
  20
4512446.500
  0
SEQEND
  8
LC_OH_2021_05_O7
  0
INSERT
  8
FeatureAttribs
  2
FEATURE
  41
1
  42
1
  43
1
  50
0
  10
341051.498
  20
4513483.499
 66
1
  0
ATTRIB
  8
FeatureAttribs
 70
0
  1
PNOA-H_AMS_1956-57_33k_ES_PAN_21mic_H50_0505_fot_60C-47056_W.tif
  2
NAME
  10
341051.498
  20
4513483.499
 40
34.39324
  0
SEQEND
  0
POLYLINE
  8
LC_OH_2021_05_O7
  70
1
  66
1
  0
VERTEX
  8
LC_OH_2021_05_O7
  10
341103.503
  20
4515861.000
  0
VERTEX
  8
LC_OH_2021_05_O7
  10
341694.003
  20
4515724.000
  0
VERTEX
  8
LC_OH_2021_05_O7
  10
341859.503
  20
4510979.000
  0
VERTEX
  8
LC_OH_2021_05_O7
  10
340116.503
  20
4511115.500
  0
VERTEX
  8
LC_OH_2021_05_O7
  10
340557.503
  20
4515988.000
  0
VERTEX
  8
LC_OH_2021_05_O7
  10
341102.003
  20
4515861.000
  0
VERTEX
  8
LC_OH_2021_05_O7
  10
341103.503
  20
4515861.000
  0
SEQEND
  8
LC_OH_2021_05_O7
  0
INSERT
  8
FeatureAttribs
  2
FEATURE
  41
1
  42
1
  43
1
  50
0
  10
335397.407
  20
4513652.750
 66
1
  0
ATTRIB
  8
FeatureAttribs
 70
0
  1
PNOA-H_AMS_1956-57_33k_ES_PAN_21mic_H50_0505_fot_000-47058_R.tif
  2
NAME
  10
335397.407
  20
4513652.750
 40
34.39324
  0
SEQEND
  0
POLYLINE
  8
LC_OH_2021_05_O7
  70
1
  66
1
  0
VERTEX
  8
LC_OH_2021_05_O7
  10
335068.003
  20
4516137.000
  0
VERTEX
  8
LC_OH_2021_05_O7
  10
336044.503
  20
4516011.500
  0
VERTEX
  8
LC_OH_2021_05_O7
  10
336050.503
  20
4516010.500
  0
VERTEX
  8
LC_OH_2021_05_O7
  10
336051.003
  20
4516009.000
  0
VERTEX
  8
LC_OH_2021_05_O7
  10
336258.503
  20
4511180.000
  0
VERTEX
  8
LC_OH_2021_05_O7
  10
336258.503
  20
4511168.500
  0
VERTEX
  8
LC_OH_2021_05_O7
  10
336253.003
  20
4511168.500
  0
VERTEX
  8
LC_OH_2021_05_O7
  10
334249.503
  20
4511359.500
  0
VERTEX
  8
LC_OH_2021_05_O7
  10
335068.003
  20
4516135.000
  0
VERTEX
  8
LC_OH_2021_05_O7
  10
335068.003
  20
4516137.000
  0
SEQEND
  8
LC_OH_2021_05_O7
  0
INSERT
  8
FeatureAttribs
  2
FEATURE
  41
1
  42
1
  43
1
  50
0
  10
332611.751
  20
4513739.249
 66
1
  0
ATTRIB
  8
FeatureAttribs
 70
0
  1
PNOA-H_AMS_1956-57_33k_ES_PAN_21mic_H50_0505_fot_000-47059_R.tif
  2
NAME
  10
332611.751
  20
4513739.249
 40
34.39324
  0
SEQEND
  0
POLYLINE
  8
LC_OH_2021_05_O7
  70
1
  66
1
  0
VERTEX
  8
LC_OH_2021_05_O7
  10
332911.503
  20
4515675.000
  0
VERTEX
  8
LC_OH_2021_05_O7
  10
334017.003
  20
4511301.000
  0
VERTEX
  8
LC_OH_2021_05_O7
  10
333879.503
  20
4511241.500
  0
VERTEX
  8
LC_OH_2021_05_O7
  10
333877.503
  20
4511241.500
  0
VERTEX
  8
LC_OH_2021_05_O7
  10
331408.503
  20
4511546.000
  0
VERTEX
  8
LC_OH_2021_05_O7
  10
332294.503
  20
4516237.000
  0
VERTEX
  8
LC_OH_2021_05_O7
  10
332780.003
  20
4516196.500
  0
VERTEX
  8
LC_OH_2021_05_O7
  10
332911.503
  20
4515677.000
  0
VERTEX
  8
LC_OH_2021_05_O7
  10
332911.503
  20
4515675.000
  0
SEQEND
  8
LC_OH_2021_05_O7
  0
INSERT
  8
FeatureAttribs
  2
FEATURE
  41
1
  42
1
  43
1
  50
0
  10
343200.881
  20
4513447.039
 66
1
  0
ATTRIB
  8
FeatureAttribs
 70
0
  1
PNOA-H_AMS_1956-57_33k_ES_PAN_21mic_H50_0506_fot_60C-47055_W.tif
  2
NAME
  10
343200.881
  20
4513447.039
 40
34.39324
  0
SEQEND
  0
POLYLINE
  8
LC_OH_2021_05_O7
  70
1
  66
1
  0
VERTEX
  8
LC_OH_2021_05_O7
  10
343537.759
  20
4515867.477
  0
VERTEX
  8
LC_OH_2021_05_O7
  10
343518.817
  20
4514971.672
  0
VERTEX
  8
LC_OH_2021_05_O7
  10
343469.934
  20
4512658.889
  0
VERTEX
  8
LC_OH_2021_05_O7
  10
343434.983
  20
4511004.579
  0
VERTEX
  8
LC_OH_2021_05_O7
  10
342864.003
  20
4511059.000
  0
VERTEX
  8
LC_OH_2021_05_O7
  10
343329.003
  20
4515837.000
  0
VERTEX
  8
LC_OH_2021_05_O7
  10
343329.503
  20
4515840.500
  0
VERTEX
  8
LC_OH_2021_05_O7
  10
343330.503
  20
4515841.000
  0
VERTEX
  8
LC_OH_2021_05_O7
  10
343454.503
  20
4515889.000
  0
VERTEX
  8
LC_OH_2021_05_O7
  10
343456.003
  20
4515889.500
  0
SEQEND
  8
LC_OH_2021_05_O7
  0
INSERT
  8
FeatureAttribs
  2
FEATURE
  41
1
  42
1
  43
1
  50
0
  10
334024.334
  20
4513852.749
 66
1
  0
ATTRIB
  8
FeatureAttribs
 70
0
  1
PNOA-H_AMS_1956-57_33k_ES_PAN_21mic_H50_0505_fot_60A-04456_E.tif
  2
NAME
  10
334024.334
  20
4513852.749
 40
34.39324
  0
SEQEND
  0
POLYLINE
  8
LC_OH_2021_05_O7
  70
1
  66
1
  0
VERTEX
  8
LC_OH_2021_05_O7
  10
334786.503
  20
4514494.500
  0
VERTEX
  8
LC_OH_2021_05_O7
  10
334249.503
  20
4511359.500
  0
VERTEX
  8
LC_OH_2021_05_O7
  10
334017.003
  20
4511301.000
  0
VERTEX
  8
LC_OH_2021_05_O7
  10
332780.003
  20
4516195.500
  0
VERTEX
  8
LC_OH_2021_05_O7
  10
332781.003
  20
4516197.000
  0
VERTEX
  8
LC_OH_2021_05_O7
  10
334610.003
  20
4516404.500
  0
VERTEX
  8
LC_OH_2021_05_O7
  10
335068.003
  20
4516137.500
  0
VERTEX
  8
LC_OH_2021_05_O7
  10
334786.503
  20
4514495.500
  0
VERTEX
  8
LC_OH_2021_05_O7
  10
334786.503
  20
4514494.500
  0
SEQEND
  8
LC_OH_2021_05_O7
  0
INSERT
  8
FeatureAttribs
  2
FEATURE
  41
1
  42
1
  43
1
  50
0
  10
315418.165
  20
4505949.522
 66
1
  0
ATTRIB
  8
FeatureAttribs
 70
0
  1
PNOA-H_AMS_1956-57_33k_ES_PAN_21mic_H50_0504_fot_62C-05357_E.tif
  2
NAME
  10
315418.165
  20
4505949.522
 40
34.39324
  0
SEQEND
  0
POLYLINE
  8
LC_OH_2021_05_O7
  70
1
  66
1
  0
VERTEX
  8
LC_OH_2021_05_O7
  10
315729.868
  20
4504040.142
  0
VERTEX
  8
LC_OH_2021_05_O7
  10
315097.329
  20
4504055.737
  0
VERTEX
  8
LC_OH_2021_05_O7
  10
315154.912
  20
4506368.561
  0
VERTEX
  8
LC_OH_2021_05_O7
  10
315192.032
  20
4507858.901
  0
VERTEX
  8
LC_OH_2021_05_O7
  10
315739.002
  20
4507681.500
  0
SEQEND
  8
LC_OH_2021_05_O7
  0
INSERT
  8
FeatureAttribs
  2
FEATURE
  41
1
  42
1
  43
1
  50
0
  10
316143.278
  20
4514667.999
 66
1
  0
ATTRIB
  8
FeatureAttribs
 70
0
  1
PNOA-H_AMS_1956-57_33k_ES_PAN_21mic_H50_0505_fot_60A-04450_E.tif
  2
NAME
  10
316143.278
  20
4514667.999
 40
34.39324
  0
SEQEND
  0
POLYLINE
  8
LC_OH_2021_05_O7
  70
1
  66
1
  0
VERTEX
  8
LC_OH_2021_05_O7
  10
315418.912
  20
4516959.599
  0
VERTEX
  8
LC_OH_2021_05_O7
  10
317629.502
  20
4516921.000
  0
VERTEX
  8
LC_OH_2021_05_O7
  10
317750.502
  20
4516837.500
  0
VERTEX
  8
LC_OH_2021_05_O7
  10
317586.502
  20
4512474.500
  0
VERTEX
  8
LC_OH_2021_05_O7
  10
317371.002
  20
4512369.000
  0
VERTEX
  8
LC_OH_2021_05_O7
  10
317362.502
  20
4512365.000
  0
VERTEX
  8
LC_OH_2021_05_O7
  10
317357.002
  20
4512365.000
  0
VERTEX
  8
LC_OH_2021_05_O7
  10
315308.110
  20
4512516.946
  0
VERTEX
  8
LC_OH_2021_05_O7
  10
315327.807
  20
4513307.077
  0
VERTEX
  8
LC_OH_2021_05_O7
  10
315385.487
  20
4515619.930
  0
SEQEND
  8
LC_OH_2021_05_O7
  0
INSERT
  8
FeatureAttribs
  2
FEATURE
  41
1
  42
1
  43
1
  50
0
  10
325075.456
  20
4514258.999
 66
1
  0
ATTRIB
  8
FeatureAttribs
 70
0
  1
PNOA-H_AMS_1956-57_33k_ES_PAN_21mic_H50_0505_fot_60A-04453_E.tif
  2
NAME
  10
325075.456
  20
4514258.999
 40
34.39324
  0
SEQEND
  0
POLYLINE
  8
LC_OH_2021_05_O7
  70
1
  66
1
  0
VERTEX
  8
LC_OH_2021_05_O7
  10
324714.002
  20
4516682.500
  0
VERTEX
  8
LC_OH_2021_05_O7
  10
326091.002
  20
4516764.000
  0
VERTEX
  8
LC_OH_2021_05_O7
  10
326587.002
  20
4516475.500
  0
VERTEX
  8
LC_OH_2021_05_O7
  10
326462.502
  20
4512046.500
  0
VERTEX
  8
LC_OH_2021_05_O7
  10
325541.502
  20
4511754.000
  0
VERTEX
  8
LC_OH_2021_05_O7
  10
323551.502
  20
4512189.500
  0
VERTEX
  8
LC_OH_2021_05_O7
  10
323711.502
  20
4516622.500
  0
VERTEX
  8
LC_OH_2021_05_O7
  10
324705.502
  20
4516682.000
  0
VERTEX
  8
LC_OH_2021_05_O7
  10
324714.002
  20
4516682.500
  0
SEQEND
  8
LC_OH_2021_05_O7
  0
INSERT
  8
FeatureAttribs
  2
FEATURE
  41
1
  42
1
  43
1
  50
0
  10
322160.500
  20
4514386.999
 66
1
  0
ATTRIB
  8
FeatureAttribs
 70
0
  1
PNOA-H_AMS_1956-57_33k_ES_PAN_21mic_H50_0505_fot_60A-04452_E.tif
  2
NAME
  10
322160.500
  20
4514386.999
 40
34.39324
  0
SEQEND
  0
POLYLINE
  8
LC_OH_2021_05_O7
  70
1
  66
1
  0
VERTEX
  8
LC_OH_2021_05_O7
  10
322661.502
  20
4516825.000
  0
VERTEX
  8
LC_OH_2021_05_O7
  10
323323.502
  20
4516855.000
  0
VERTEX
  8
LC_OH_2021_05_O7
  10
323711.502
  20
4516622.500
  0
VERTEX
  8
LC_OH_2021_05_O7
  10
323551.502
  20
4512189.500
  0
VERTEX
  8
LC_OH_2021_05_O7
  10
322793.502
  20
4511919.000
  0
VERTEX
  8
LC_OH_2021_05_O7
  10
320620.002
  20
4512358.000
  0
VERTEX
  8
LC_OH_2021_05_O7
  10
320771.502
  20
4516738.000
  0
VERTEX
  8
LC_OH_2021_05_O7
  10
322650.502
  20
4516824.500
  0
VERTEX
  8
LC_OH_2021_05_O7
  10
322661.502
  20
4516825.000
  0
SEQEND
  8
LC_OH_2021_05_O7
  0
INSERT
  8
FeatureAttribs
  2
FEATURE
  41
1
  42
1
  43
1
  50
0
  10
336835.341
  20
4513597.499
 66
1
  0
ATTRIB
  8
FeatureAttribs
 70
0
  1
PNOA-H_AMS_1956-57_33k_ES_PAN_21mic_H50_0505_fot_60A-04457_E.tif
  2
NAME
  10
336835.341
  20
4513597.499
 40
34.39324
  0
SEQEND
  0
POLYLINE
  8
LC_OH_2021_05_O7
  70
1
  66
1
  0
VERTEX
  8
LC_OH_2021_05_O7
  10
337513.503
  20
4516169.500
  0
VERTEX
  8
LC_OH_2021_05_O7
  10
337518.003
  20
4516169.500
  0
VERTEX
  8
LC_OH_2021_05_O7
  10
337521.003
  20
4516168.000
  0
VERTEX
  8
LC_OH_2021_05_O7
  10
337665.003
  20
4516084.000
  0
VERTEX
  8
LC_OH_2021_05_O7
  10
337665.003
  20
4516076.500
  0
VERTEX
  8
LC_OH_2021_05_O7
  10
337372.503
  20
4511193.500
  0
VERTEX
  8
LC_OH_2021_05_O7
  10
336734.503
  20
4511025.500
  0
VERTEX
  8
LC_OH_2021_05_O7
  10
336258.503
  20
4511168.500
  0
VERTEX
  8
LC_OH_2021_05_O7
  10
336050.503
  20
4516010.500
  0
VERTEX
  8
LC_OH_2021_05_O7
  10
337509.003
  20
4516169.000
  0
VERTEX
  8
LC_OH_2021_05_O7
  10
337513.503
  20
4516169.500
  0
SEQEND
  8
LC_OH_2021_05_O7
  0
INSERT
  8
FeatureAttribs
  2
FEATURE
  41
1
  42
1
  43
1
  50
0
  10
339656.295
  20
4513491.750
 66
1
  0
ATTRIB
  8
FeatureAttribs
 70
0
  1
PNOA-H_AMS_1956-57_33k_ES_PAN_21mic_H50_0505_fot_60A-04458_E.tif
  2
NAME
  10
339656.295
  20
4513491.750
 40
34.39324
  0
SEQEND
  0
POLYLINE
  8
LC_OH_2021_05_O7
  70
1
  66
1
  0
VERTEX
  8
LC_OH_2021_05_O7
  10
340504.503
  20
4516017.000
  0
VERTEX
  8
LC_OH_2021_05_O7
  10
340510.503
  20
4516017.000
  0
VERTEX
  8
LC_OH_2021_05_O7
  10
340522.003
  20
4516010.000
  0
VERTEX
  8
LC_OH_2021_05_O7
  10
340557.003
  20
4515988.500
  0
VERTEX
  8
LC_OH_2021_05_O7
  10
340557.503
  20
4515984.500
  0
VERTEX
  8
LC_OH_2021_05_O7
  10
340117.003
  20
4511117.000
  0
VERTEX
  8
LC_OH_2021_05_O7
  10
340116.003
  20
4511115.000
  0
VERTEX
  8
LC_OH_2021_05_O7
  10
340105.003
  20
4511112.500
  0
VERTEX
  8
LC_OH_2021_05_O7
  10
339435.503
  20
4510966.500
  0
VERTEX
  8
LC_OH_2021_05_O7
  10
339432.503
  20
4510966.500
  0
VERTEX
  8
LC_OH_2021_05_O7
  10
338993.003
  20
4511094.500
  0
VERTEX
  8
LC_OH_2021_05_O7
  10
338968.503
  20
4515857.500
  0
VERTEX
  8
LC_OH_2021_05_O7
  10
340500.003
  20
4516016.500
  0
VERTEX
  8
LC_OH_2021_05_O7
  10
340504.503
  20
4516017.000
  0
SEQEND
  8
LC_OH_2021_05_O7
  0
INSERT
  8
FeatureAttribs
  2
FEATURE
  41
1
  42
1
  43
1
  50
0
  10
330646.183
  20
4514017.250
 66
1
  0
ATTRIB
  8
FeatureAttribs
 70
0
  1
PNOA-H_AMS_1956-57_33k_ES_PAN_21mic_H50_0505_fot_60A-04455_E.tif
  2
NAME
  10
330646.183
  20
4514017.250
 40
34.39324
  0
SEQEND
  0
POLYLINE
  8
LC_OH_2021_05_O7
  70
1
  66
1
  0
VERTEX
  8
LC_OH_2021_05_O7
  10
331697.503
  20
4516577.000
  0
VERTEX
  8
LC_OH_2021_05_O7
  10
331703.003
  20
4516577.000
  0
VERTEX
  8
LC_OH_2021_05_O7
  10
331708.503
  20
4516574.000
  0
VERTEX
  8
LC_OH_2021_05_O7
  10
332294.003
  20
4516237.500
  0
VERTEX
  8
LC_OH_2021_05_O7
  10
332294.503
  20
4516235.500
  0
VERTEX
  8
LC_OH_2021_05_O7
  10
331409.003
  20
4511547.000
  0
VERTEX
  8
LC_OH_2021_05_O7
  10
331408.003
  20
4511545.500
  0
VERTEX
  8
LC_OH_2021_05_O7
  10
331400.503
  20
4511543.500
  0
VERTEX
  8
LC_OH_2021_05_O7
  10
331073.003
  20
4511457.500
  0
VERTEX
  8
LC_OH_2021_05_O7
  10
329344.503
  20
4511906.000
  0
VERTEX
  8
LC_OH_2021_05_O7
  10
329495.503
  20
4516315.000
  0
VERTEX
  8
LC_OH_2021_05_O7
  10
331693.503
  20
4516576.500
  0
VERTEX
  8
LC_OH_2021_05_O7
  10
331697.503
  20
4516577.000
  0
SEQEND
  8
LC_OH_2021_05_O7
  0
INSERT
  8
FeatureAttribs
  2
FEATURE
  41
1
  42
1
  43
1
  50
0
  10
342432.769
  20
4513378.249
 66
1
  0
ATTRIB
  8
FeatureAttribs
 70
0
  1
PNOA-H_AMS_1956-57_33k_ES_PAN_21mic_H50_0505_fot_60B-04459_W.tif
  2
NAME
  10
342432.769
  20
4513378.249
 40
34.39324
  0
SEQEND
  0
POLYLINE
  8
LC_OH_2021_05_O7
  70
1
  66
1
  0
VERTEX
  8
LC_OH_2021_05_O7
  10
343329.503
  20
4515840.500
  0
VERTEX
  8
LC_OH_2021_05_O7
  10
342999.503
  20
4512452.000
  0
VERTEX
  8
LC_OH_2021_05_O7
  10
342999.003
  20
4512446.500
  0
VERTEX
  8
LC_OH_2021_05_O7
  10
342864.003
  20
4511059.000
  0
VERTEX
  8
LC_OH_2021_05_O7
  10
342051.503
  20
4510916.000
  0
VERTEX
  8
LC_OH_2021_05_O7
  10
341859.503
  20
4510979.000
  0
VERTEX
  8
LC_OH_2021_05_O7
  10
341694.003
  20
4515723.500
  0
SEQEND
  8
LC_OH_2021_05_O7
  0
INSERT
  8
FeatureAttribs
  2
FEATURE
  41
1
  42
1
  43
1
  50
0
  10
319178.627
  20
4514509.750
 66
1
  0
ATTRIB
  8
FeatureAttribs
 70
0
  1
PNOA-H_AMS_1956-57_33k_ES_PAN_21mic_H50_0505_fot_60A-04451_E.tif
  2
NAME
  10
319178.627
  20
4514509.750
 40
34.39324
  0
SEQEND
  0
POLYLINE
  8
LC_OH_2021_05_O7
  70
1
  66
1
  0
VERTEX
  8
LC_OH_2021_05_O7
  10
320496.502
  20
4516901.500
  0
VERTEX
  8
LC_OH_2021_05_O7
  10
320515.502
  20
4516901.000
  0
VERTEX
  8
LC_OH_2021_05_O7
  10
320771.502
  20
4516738.500
  0
VERTEX
  8
LC_OH_2021_05_O7
  10
320620.002
  20
4512358.000
  0
VERTEX
  8
LC_OH_2021_05_O7
  10
320030.502
  20
4512118.000
  0
VERTEX
  8
LC_OH_2021_05_O7
  10
317586.502
  20
4512474.500
  0
VERTEX
  8
LC_OH_2021_05_O7
  10
317750.002
  20
4516834.000
  0
VERTEX
  8
LC_OH_2021_05_O7
  10
317750.502
  20
4516837.500
  0
VERTEX
  8
LC_OH_2021_05_O7
  10
317756.502
  20
4516838.000
  0
VERTEX
  8
LC_OH_2021_05_O7
  10
320474.502
  20
4516901.000
  0
VERTEX
  8
LC_OH_2021_05_O7
  10
320496.502
  20
4516901.500
  0
SEQEND
  8
LC_OH_2021_05_O7
  0
INSERT
  8
FeatureAttribs
  2
FEATURE
  41
1
  42
1
  43
1
  50
0
  10
320074.475
  20
4505737.751
 66
1
  0
ATTRIB
  8
FeatureAttribs
 70
0
  1
PNOA-H_AMS_1956-57_33k_ES_PAN_21mic_H50_0505_fot_62C-05359_E.tif
  2
NAME
  10
320074.475
  20
4505737.751
 40
34.39324
  0
SEQEND
  0
POLYLINE
  8
LC_OH_2021_05_O7
  70
1
  66
1
  0
VERTEX
  8
LC_OH_2021_05_O7
  10
321500.800
  20
4503899.230
  0
VERTEX
  8
LC_OH_2021_05_O7
  10
318619.538
  20
4503968.898
  0
VERTEX
  8
LC_OH_2021_05_O7
  10
318581.595
  20
4503969.834
  0
VERTEX
  8
LC_OH_2021_05_O7
  10
318672.002
  20
4507504.500
  0
VERTEX
  8
LC_OH_2021_05_O7
  10
319722.502
  20
4507889.000
  0
VERTEX
  8
LC_OH_2021_05_O7
  10
320622.502
  20
4507649.500
  0
VERTEX
  8
LC_OH_2021_05_O7
  10
320623.502
  20
4507649.500
  0
VERTEX
  8
LC_OH_2021_05_O7
  10
321541.502
  20
4507405.500
  0
SEQEND
  8
LC_OH_2021_05_O7
  0
INSERT
  8
FeatureAttribs
  2
FEATURE
  41
1
  42
1
  43
1
  50
0
  10
322936.650
  20
4505632.250
 66
1
  0
ATTRIB
  8
FeatureAttribs
 70
0
  1
PNOA-H_AMS_1956-57_33k_ES_PAN_21mic_H50_0505_fot_62C-05360_E.tif
  2
NAME
  10
322936.650
  20
4505632.250
 40
34.39324
  0
SEQEND
  0
POLYLINE
  8
LC_OH_2021_05_O7
  70
1
  66
1
  0
VERTEX
  8
LC_OH_2021_05_O7
  10
324308.040
  20
4503832.379
  0
VERTEX
  8
LC_OH_2021_05_O7
  10
322141.733
  20
4503883.732
  0
VERTEX
  8
LC_OH_2021_05_O7
  10
321500.310
  20
4503899.241
  0
VERTEX
  8
LC_OH_2021_05_O7
  10
321541.502
  20
4507405.500
  0
VERTEX
  8
LC_OH_2021_05_O7
  10
322454.002
  20
4507779.500
  0
VERTEX
  8
LC_OH_2021_05_O7
  10
322669.502
  20
4507722.000
  0
VERTEX
  8
LC_OH_2021_05_O7
  10
322671.502
  20
4507721.500
  0
VERTEX
  8
LC_OH_2021_05_O7
  10
324393.002
  20
4507261.000
  0
SEQEND
  8
LC_OH_2021_05_O7
  0
INSERT
  8
FeatureAttribs
  2
FEATURE
  41
1
  42
1
  43
1
  50
0
  10
327971.087
  20
4514133.000
 66
1
  0
ATTRIB
  8
FeatureAttribs
 70
0
  1
PNOA-H_AMS_1956-57_33k_ES_PAN_21mic_H50_0505_fot_60A-04454_E.tif
  2
NAME
  10
327971.087
  20
4514133.000
 40
34.39324
  0
SEQEND
  0
POLYLINE
  8
LC_OH_2021_05_O7
  70
1
  66
1
  0
VERTEX
  8
LC_OH_2021_05_O7
  10
328815.502
  20
4516667.000
  0
VERTEX
  8
LC_OH_2021_05_O7
  10
328857.002
  20
4516671.000
  0
VERTEX
  8
LC_OH_2021_05_O7
  10
328860.502
  20
4516670.500
  0
VERTEX
  8
LC_OH_2021_05_O7
  10
329495.503
  20
4516315.000
  0
VERTEX
  8
LC_OH_2021_05_O7
  10
329345.003
  20
4511908.000
  0
VERTEX
  8
LC_OH_2021_05_O7
  10
329344.503
  20
4511905.500
  0
VERTEX
  8
LC_OH_2021_05_O7
  10
328288.502
  20
4511595.000
  0
VERTEX
  8
LC_OH_2021_05_O7
  10
326462.502
  20
4512046.500
  0
VERTEX
  8
LC_OH_2021_05_O7
  10
326587.002
  20
4516475.000
  0
VERTEX
  8
LC_OH_2021_05_O7
  10
328811.002
  20
4516667.000
  0
VERTEX
  8
LC_OH_2021_05_O7
  10
328815.502
  20
4516667.000
  0
SEQEND
  8
LC_OH_2021_05_O7
  0
INSERT
  8
FeatureAttribs
  2
FEATURE
  41
1
  42
1
  43
1
  50
0
  10
328598.394
  20
4505374.250
 66
1
  0
ATTRIB
  8
FeatureAttribs
 70
0
  1
PNOA-H_AMS_1956-57_33k_ES_PAN_21mic_H50_0505_fot_62C-05362_E.tif
  2
NAME
  10
328598.394
  20
4505374.250
 40
34.39324
  0
SEQEND
  0
POLYLINE
  8
LC_OH_2021_05_O7
  70
1
  66
1
  0
VERTEX
  8
LC_OH_2021_05_O7
  10
329945.219
  20
4503701.139
  0
VERTEX
  8
LC_OH_2021_05_O7
  10
329186.079
  20
4503718.414
  0
VERTEX
  8
LC_OH_2021_05_O7
  10
327106.680
  20
4503766.720
  0
VERTEX
  8
LC_OH_2021_05_O7
  10
327246.502
  20
4507118.500
  0
VERTEX
  8
LC_OH_2021_05_O7
  10
328010.502
  20
4507479.500
  0
VERTEX
  8
LC_OH_2021_05_O7
  10
328813.502
  20
4507276.500
  0
VERTEX
  8
LC_OH_2021_05_O7
  10
328815.502
  20
4507276.000
  0
VERTEX
  8
LC_OH_2021_05_O7
  10
330096.503
  20
4506953.000
  0
SEQEND
  8
LC_OH_2021_05_O7
  0
INSERT
  8
FeatureAttribs
  2
FEATURE
  41
1
  42
1
  43
1
  50
0
  10
337207.207
  20
4504952.249
 66
1
  0
ATTRIB
  8
FeatureAttribs
 70
0
  1
PNOA-H_AMS_1956-57_33k_ES_PAN_21mic_H50_0505_fot_62C-05365_E.tif
  2
NAME
  10
337207.207
  20
4504952.249
 40
34.39324
  0
SEQEND
  0
POLYLINE
  8
LC_OH_2021_05_O7
  70
1
  66
1
  0
VERTEX
  8
LC_OH_2021_05_O7
  10
338587.011
  20
4503508.390
  0
VERTEX
  8
LC_OH_2021_05_O7
  10
336230.371
  20
4503559.782
  0
VERTEX
  8
LC_OH_2021_05_O7
  10
335684.244
  20
4503571.951
  0
VERTEX
  8
LC_OH_2021_05_O7
  10
335875.003
  20
4506627.000
  0
VERTEX
  8
LC_OH_2021_05_O7
  10
335875.503
  20
4506632.500
  0
VERTEX
  8
LC_OH_2021_05_O7
  10
335878.503
  20
4506634.500
  0
VERTEX
  8
LC_OH_2021_05_O7
  10
336505.503
  20
4506973.500
  0
VERTEX
  8
LC_OH_2021_05_O7
  10
337005.503
  20
4506856.500
  0
VERTEX
  8
LC_OH_2021_05_O7
  10
337007.503
  20
4506856.000
  0
VERTEX
  8
LC_OH_2021_05_O7
  10
338703.503
  20
4506460.000
  0
SEQEND
  8
LC_OH_2021_05_O7
  0
INSERT
  8
FeatureAttribs
  2
FEATURE
  41
1
  42
1
  43
1
  50
0
  10
342902.711
  20
4504745.750
 66
1
  0
ATTRIB
  8
FeatureAttribs
 70
0
  1
PNOA-H_AMS_1956-57_33k_ES_PAN_21mic_H50_0505_fot_62C-05367_E.tif
  2
NAME
  10
342902.711
  20
4504745.750
 40
34.39324
  0
SEQEND
  0
POLYLINE
  8
LC_OH_2021_05_O7
  70
1
  66
1
  0
VERTEX
  8
LC_OH_2021_05_O7
  10
343340.411
  20
4506526.005
  0
VERTEX
  8
LC_OH_2021_05_O7
  10
343323.410
  20
4505720.588
  0
VERTEX
  8
LC_OH_2021_05_O7
  10
343274.610
  20
4503407.836
  0
VERTEX
  8
LC_OH_2021_05_O7
  10
341423.007
  20
4503447.336
  0
VERTEX
  8
LC_OH_2021_05_O7
  10
341555.503
  20
4506428.500
  0
VERTEX
  8
LC_OH_2021_05_O7
  10
342000.003
  20
4506678.000
  0
VERTEX
  8
LC_OH_2021_05_O7
  10
343147.503
  20
4506547.500
  0
VERTEX
  8
LC_OH_2021_05_O7
  10
343151.503
  20
4506547.500
  0
SEQEND
  8
LC_OH_2021_05_O7
  0
INSERT
  8
FeatureAttribs
  2
FEATURE
  41
1
  42
1
  43
1
  50
0
  10
331457.370
  20
4505220.001
 66
1
  0
ATTRIB
  8
FeatureAttribs
 70
0
  1
PNOA-H_AMS_1956-57_33k_ES_PAN_21mic_H50_0505_fot_62C-05363_E.tif
  2
NAME
  10
331457.370
  20
4505220.001
 40
34.39324
  0
SEQEND
  0
POLYLINE
  8
LC_OH_2021_05_O7
  70
1
  66
1
  0
VERTEX
  8
LC_OH_2021_05_O7
  10
332815.828
  20
4503635.865
  0
VERTEX
  8
LC_OH_2021_05_O7
  10
332708.232
  20
4503638.262
  0
VERTEX
  8
LC_OH_2021_05_O7
  10
329945.219
  20
4503701.139
  0
VERTEX
  8
LC_OH_2021_05_O7
  10
330096.503
  20
4506953.000
  0
VERTEX
  8
LC_OH_2021_05_O7
  10
330793.003
  20
4507297.500
  0
VERTEX
  8
LC_OH_2021_05_O7
  10
330794.003
  20
4507298.000
  0
VERTEX
  8
LC_OH_2021_05_O7
  10
332982.003
  20
4506806.500
  0
SEQEND
  8
LC_OH_2021_05_O7
  0
INSERT
  8
FeatureAttribs
  2
FEATURE
  41
1
  42
1
  43
1
  50
0
  10
317182.807
  20
4505905.000
 66
1
  0
ATTRIB
  8
FeatureAttribs
 70
0
  1
PNOA-H_AMS_1956-57_33k_ES_PAN_21mic_H50_0505_fot_62C-05358_E.tif
  2
NAME
  10
317182.807
  20
4505905.000
 40
34.39324
  0
SEQEND
  0
POLYLINE
  8
LC_OH_2021_05_O7
  70
1
  66
1
  0
VERTEX
  8
LC_OH_2021_05_O7
  10
318581.595
  20
4503969.834
  0
VERTEX
  8
LC_OH_2021_05_O7
  10
315729.868
  20
4504040.142
  0
VERTEX
  8
LC_OH_2021_05_O7
  10
315739.002
  20
4507681.500
  0
VERTEX
  8
LC_OH_2021_05_O7
  10
316525.002
  20
4507915.000
  0
VERTEX
  8
LC_OH_2021_05_O7
  10
316526.502
  20
4507915.500
  0
VERTEX
  8
LC_OH_2021_05_O7
  10
316975.002
  20
4508048.500
  0
VERTEX
  8
LC_OH_2021_05_O7
  10
318672.002
  20
4507504.500
  0
SEQEND
  8
LC_OH_2021_05_O7
  0
INSERT
  8
FeatureAttribs
  2
FEATURE
  41
1
  42
1
  43
1
  50
0
  10
340062.144
  20
4504843.000
 66
1
  0
ATTRIB
  8
FeatureAttribs
 70
0
  1
PNOA-H_AMS_1956-57_33k_ES_PAN_21mic_H50_0505_fot_62C-05366_E.tif
  2
NAME
  10
340062.144
  20
4504843.000
 40
34.39324
  0
SEQEND
  0
POLYLINE
  8
LC_OH_2021_05_O7
  70
1
  66
1
  0
VERTEX
  8
LC_OH_2021_05_O7
  10
341422.987
  20
4503447.336
  0
VERTEX
  8
LC_OH_2021_05_O7
  10
339752.497
  20
4503482.973
  0
VERTEX
  8
LC_OH_2021_05_O7
  10
338586.590
  20
4503508.399
  0
VERTEX
  8
LC_OH_2021_05_O7
  10
338703.003
  20
4506458.000
  0
VERTEX
  8
LC_OH_2021_05_O7
  10
338703.503
  20
4506460.500
  0
VERTEX
  8
LC_OH_2021_05_O7
  10
338706.003
  20
4506462.000
  0
VERTEX
  8
LC_OH_2021_05_O7
  10
339054.003
  20
4506646.000
  0
VERTEX
  8
LC_OH_2021_05_O7
  10
339055.003
  20
4506646.500
  0
VERTEX
  8
LC_OH_2021_05_O7
  10
339355.003
  20
4506805.500
  0
VERTEX
  8
LC_OH_2021_05_O7
  10
339365.503
  20
4506810.000
  0
VERTEX
  8
LC_OH_2021_05_O7
  10
341555.503
  20
4506428.500
  0
SEQEND
  8
LC_OH_2021_05_O7
  0
INSERT
  8
FeatureAttribs
  2
FEATURE
  41
1
  42
1
  43
1
  50
0
  10
325764.491
  20
4505506.250
 66
1
  0
ATTRIB
  8
FeatureAttribs
 70
0
  1
PNOA-H_AMS_1956-57_33k_ES_PAN_21mic_H50_0505_fot_62C-05361_E.tif
  2
NAME
  10
325764.491
  20
4505506.250
 40
34.39324
  0
SEQEND
  0
POLYLINE
  8
LC_OH_2021_05_O7
  70
1
  66
1
  0
VERTEX
  8
LC_OH_2021_05_O7
  10
327107.174
  20
4503766.709
  0
VERTEX
  8
LC_OH_2021_05_O7
  10
325663.913
  20
4503800.237
  0
VERTEX
  8
LC_OH_2021_05_O7
  10
324308.040
  20
4503832.379
  0
VERTEX
  8
LC_OH_2021_05_O7
  10
324393.002
  20
4507261.000
  0
VERTEX
  8
LC_OH_2021_05_O7
  10
324718.002
  20
4507403.500
  0
VERTEX
  8
LC_OH_2021_05_O7
  10
324719.002
  20
4507404.000
  0
VERTEX
  8
LC_OH_2021_05_O7
  10
325219.502
  20
4507623.500
  0
VERTEX
  8
LC_OH_2021_05_O7
  10
325222.502
  20
4507623.500
  0
VERTEX
  8
LC_OH_2021_05_O7
  10
327246.502
  20
4507118.500
  0
SEQEND
  8
LC_OH_2021_05_O7
  0
INSERT
  8
FeatureAttribs
  2
FEATURE
  41
1
  42
1
  43
1
  50
0
  10
334334.883
  20
4505078.249
 66
1
  0
ATTRIB
  8
FeatureAttribs
 70
0
  1
PNOA-H_AMS_1956-57_33k_ES_PAN_21mic_H50_0505_fot_62C-05364_E.tif
  2
NAME
  10
334334.883
  20
4505078.249
 40
34.39324
  0
SEQEND
  0
POLYLINE
  8
LC_OH_2021_05_O7
  70
1
  66
1
  0
VERTEX
  8
LC_OH_2021_05_O7
  10
335684.249
  20
4503571.951
  0
VERTEX
  8
LC_OH_2021_05_O7
  10
332815.368
  20
4503635.875
  0
VERTEX
  8
LC_OH_2021_05_O7
  10
332911.003
  20
4505450.500
  0
VERTEX
  8
LC_OH_2021_05_O7
  10
332911.003
  20
4505460.000
  0
VERTEX
  8
LC_OH_2021_05_O7
  10
332982.003
  20
4506807.000
  0
VERTEX
  8
LC_OH_2021_05_O7
  10
333591.003
  20
4507130.500
  0
VERTEX
  8
LC_OH_2021_05_O7
  10
335875.503
  20
4506632.500
  0
SEQEND
  8
LC_OH_2021_05_O7
  0
INSERT
  8
FeatureAttribs
  2
FEATURE
  41
1
  42
1
  43
1
  50
0
  10
333286.837
  20
4518613.999
 66
1
  0
ATTRIB
  8
FeatureAttribs
 70
0
  1
PNOA-H_AMS_1956-57_33k_ES_PAN_21mic_H50_0505_fot_59B-29253_W.tif
  2
NAME
  10
333286.837
  20
4518613.999
 40
34.39324
  0
SEQEND
  0
POLYLINE
  8
LC_OH_2021_05_O7
  70
1
  66
1
  0
VERTEX
  8
LC_OH_2021_05_O7
  10
331948.503
  20
4520758.000
  0
VERTEX
  8
LC_OH_2021_05_O7
  10
332907.003
  20
4520887.000
  0
VERTEX
  8
LC_OH_2021_05_O7
  10
332911.003
  20
4520887.500
  0
VERTEX
  8
LC_OH_2021_05_O7
  10
333987.003
  20
4521031.500
  0
VERTEX
  8
LC_OH_2021_05_O7
  10
334883.003
  20
4520662.000
  0
VERTEX
  8
LC_OH_2021_05_O7
  10
334610.003
  20
4516408.500
  0
VERTEX
  8
LC_OH_2021_05_O7
  10
334609.503
  20
4516404.500
  0
VERTEX
  8
LC_OH_2021_05_O7
  10
334607.003
  20
4516404.000
  0
VERTEX
  8
LC_OH_2021_05_O7
  10
332778.003
  20
4516196.500
  0
VERTEX
  8
LC_OH_2021_05_O7
  10
332294.003
  20
4516237.000
  0
VERTEX
  8
LC_OH_2021_05_O7
  10
331702.003
  20
4516577.000
  0
VERTEX
  8
LC_OH_2021_05_O7
  10
331948.503
  20
4520758.000
  0
SEQEND
  8
LC_OH_2021_05_O7
  0
INSERT
  8
FeatureAttribs
  2
FEATURE
  41
1
  42
1
  43
1
  50
0
  10
339159.664
  20
4518351.999
 66
1
  0
ATTRIB
  8
FeatureAttribs
 70
0
  1
PNOA-H_AMS_1956-57_33k_ES_PAN_21mic_H50_0505_fot_59B-29251_W.tif
  2
NAME
  10
339159.664
  20
4518351.999
 40
34.39324
  0
SEQEND
  0
POLYLINE
  8
LC_OH_2021_05_O7
  70
1
  66
1
  0
VERTEX
  8
LC_OH_2021_05_O7
  10
337833.003
  20
4520529.000
  0
VERTEX
  8
LC_OH_2021_05_O7
  10
337834.003
  20
4520530.500
  0
VERTEX
  8
LC_OH_2021_05_O7
  10
337838.503
  20
4520531.500
  0
VERTEX
  8
LC_OH_2021_05_O7
  10
339051.003
  20
4520794.500
  0
VERTEX
  8
LC_OH_2021_05_O7
  10
339053.503
  20
4520795.000
  0
VERTEX
  8
LC_OH_2021_05_O7
  10
339293.003
  20
4520846.500
  0
VERTEX
  8
LC_OH_2021_05_O7
  10
340761.003
  20
4520388.000
  0
VERTEX
  8
LC_OH_2021_05_O7
  10
340509.503
  20
4516017.000
  0
VERTEX
  8
LC_OH_2021_05_O7
  10
338967.503
  20
4515857.500
  0
VERTEX
  8
LC_OH_2021_05_O7
  10
337666.503
  20
4516083.000
  0
VERTEX
  8
LC_OH_2021_05_O7
  10
337517.503
  20
4516169.500
  0
VERTEX
  8
LC_OH_2021_05_O7
  10
337833.003
  20
4520529.000
  0
SEQEND
  8
LC_OH_2021_05_O7
  0
INSERT
  8
FeatureAttribs
  2
FEATURE
  41
1
  42
1
  43
1
  50
0
  10
330404.375
  20
4518730.749
 66
1
  0
ATTRIB
  8
FeatureAttribs
 70
0
  1
PNOA-H_AMS_1956-57_33k_ES_PAN_21mic_H50_0505_fot_59B-29254_W.tif
  2
NAME
  10
330404.375
  20
4518730.749
 40
34.39324
  0
SEQEND
  0
POLYLINE
  8
LC_OH_2021_05_O7
  70
1
  66
1
  0
VERTEX
  8
LC_OH_2021_05_O7
  10
329106.002
  20
4520883.500
  0
VERTEX
  8
LC_OH_2021_05_O7
  10
330856.003
  20
4521110.000
  0
VERTEX
  8
LC_OH_2021_05_O7
  10
330860.003
  20
4521110.500
  0
VERTEX
  8
LC_OH_2021_05_O7
  10
331141.003
  20
4521146.500
  0
VERTEX
  8
LC_OH_2021_05_O7
  10
331948.503
  20
4520758.500
  0
VERTEX
  8
LC_OH_2021_05_O7
  10
331702.003
  20
4516577.000
  0
VERTEX
  8
LC_OH_2021_05_O7
  10
329495.003
  20
4516315.000
  0
VERTEX
  8
LC_OH_2021_05_O7
  10
328859.002
  20
4516671.000
  0
VERTEX
  8
LC_OH_2021_05_O7
  10
329106.002
  20
4520883.500
  0
SEQEND
  8
LC_OH_2021_05_O7
  0
INSERT
  8
FeatureAttribs
  2
FEATURE
  41
1
  42
1
  43
1
  50
0
  10
336214.398
  20
4518487.250
 66
1
  0
ATTRIB
  8
FeatureAttribs
 70
0
  1
PNOA-H_AMS_1956-57_33k_ES_PAN_21mic_H50_0505_fot_59B-29252_W.tif
  2
NAME
  10
336214.398
  20
4518487.250
 40
34.39324
  0
SEQEND
  0
POLYLINE
  8
LC_OH_2021_05_O7
  70
1
  66
1
  0
VERTEX
  8
LC_OH_2021_05_O7
  10
334883.003
  20
4520662.000
  0
VERTEX
  8
LC_OH_2021_05_O7
  10
336608.503
  20
4520964.000
  0
VERTEX
  8
LC_OH_2021_05_O7
  10
337006.503
  20
4520823.000
  0
VERTEX
  8
LC_OH_2021_05_O7
  10
337007.503
  20
4520823.000
  0
VERTEX
  8
LC_OH_2021_05_O7
  10
337833.503
  20
4520530.000
  0
VERTEX
  8
LC_OH_2021_05_O7
  10
337517.503
  20
4516169.500
  0
VERTEX
  8
LC_OH_2021_05_O7
  10
336053.503
  20
4516010.500
  0
VERTEX
  8
LC_OH_2021_05_O7
  10
335068.003
  20
4516137.000
  0
VERTEX
  8
LC_OH_2021_05_O7
  10
334609.503
  20
4516404.500
  0
VERTEX
  8
LC_OH_2021_05_O7
  10
334883.003
  20
4520662.000
  0
SEQEND
  8
LC_OH_2021_05_O7
  0
INSERT
  8
FeatureAttribs
  2
FEATURE
  41
1
  42
1
  43
1
  50
0
  10
324804.909
  20
4518968.999
 66
1
  0
ATTRIB
  8
FeatureAttribs
 70
0
  1
PNOA-H_AMS_1956-57_33k_ES_PAN_21mic_H50_0505_fot_59B-29256_W.tif
  2
NAME
  10
324804.909
  20
4518968.999
 40
34.39324
  0
SEQEND
  0
POLYLINE
  8
LC_OH_2021_05_O7
  70
1
  66
1
  0
VERTEX
  8
LC_OH_2021_05_O7
  10
323467.502
  20
4520916.000
  0
VERTEX
  8
LC_OH_2021_05_O7
  10
325549.002
  20
4521315.000
  0
VERTEX
  8
LC_OH_2021_05_O7
  10
325552.002
  20
4521315.500
  0
VERTEX
  8
LC_OH_2021_05_O7
  10
325558.002
  20
4521314.500
  0
VERTEX
  8
LC_OH_2021_05_O7
  10
326320.002
  20
4520944.000
  0
VERTEX
  8
LC_OH_2021_05_O7
  10
326090.502
  20
4516764.000
  0
VERTEX
  8
LC_OH_2021_05_O7
  10
323711.002
  20
4516622.500
  0
VERTEX
  8
LC_OH_2021_05_O7
  10
323323.002
  20
4516855.000
  0
VERTEX
  8
LC_OH_2021_05_O7
  10
323467.502
  20
4520916.000
  0
SEQEND
  8
LC_OH_2021_05_O7
  0
INSERT
  8
FeatureAttribs
  2
FEATURE
  41
1
  42
1
  43
1
  50
0
  10
319100.988
  20
4519100.749
 66
1
  0
ATTRIB
  8
FeatureAttribs
 70
0
  1
PNOA-H_AMS_1956-57_33k_ES_PAN_21mic_H50_0505_fot_59B-29258_W.tif
  2
NAME
  10
319100.988
  20
4519100.749
 40
34.39324
  0
SEQEND
  0
POLYLINE
  8
LC_OH_2021_05_O7
  70
1
  66
1
  0
VERTEX
  8
LC_OH_2021_05_O7
  10
317680.502
  20
4520915.000
  0
VERTEX
  8
LC_OH_2021_05_O7
  10
319752.002
  20
4521363.500
  0
VERTEX
  8
LC_OH_2021_05_O7
  10
319754.002
  20
4521364.000
  0
VERTEX
  8
LC_OH_2021_05_O7
  10
320570.502
  20
4520958.000
  0
VERTEX
  8
LC_OH_2021_05_O7
  10
320514.002
  20
4516901.500
  0
VERTEX
  8
LC_OH_2021_05_O7
  10
317750.002
  20
4516837.500
  0
VERTEX
  8
LC_OH_2021_05_O7
  10
317629.502
  20
4516920.500
  0
VERTEX
  8
LC_OH_2021_05_O7
  10
317680.502
  20
4520915.000
  0
SEQEND
  8
LC_OH_2021_05_O7
  0
INSERT
  8
FeatureAttribs
  2
FEATURE
  41
1
  42
1
  43
1
  50
0
  10
316230.780
  20
4519146.750
 66
1
  0
ATTRIB
  8
FeatureAttribs
 70
0
  1
PNOA-H_AMS_1956-57_33k_ES_PAN_21mic_H50_0505_fot_59B-29259_W.tif
  2
NAME
  10
316230.780
  20
4519146.750
 40
34.39324
  0
SEQEND
  0
POLYLINE
  8
LC_OH_2021_05_O7
  70
1
  66
1
  0
VERTEX
  8
LC_OH_2021_05_O7
  10
315522.013
  20
4521090.286
  0
VERTEX
  8
LC_OH_2021_05_O7
  10
316749.502
  20
4521372.000
  0
VERTEX
  8
LC_OH_2021_05_O7
  10
316752.002
  20
4521372.500
  0
VERTEX
  8
LC_OH_2021_05_O7
  10
316754.502
  20
4521372.500
  0
VERTEX
  8
LC_OH_2021_05_O7
  10
317680.502
  20
4520915.000
  0
VERTEX
  8
LC_OH_2021_05_O7
  10
317629.502
  20
4516921.000
  0
VERTEX
  8
LC_OH_2021_05_O7
  10
315418.912
  20
4516959.599
  0
VERTEX
  8
LC_OH_2021_05_O7
  10
315443.193
  20
4517932.790
  0
VERTEX
  8
LC_OH_2021_05_O7
  10
315500.922
  20
4520245.658
  0
SEQEND
  8
LC_OH_2021_05_O7
  0
INSERT
  8
FeatureAttribs
  2
FEATURE
  41
1
  42
1
  43
1
  50
0
  10
321972.255
  20
4519038.999
 66
1
  0
ATTRIB
  8
FeatureAttribs
 70
0
  1
PNOA-H_AMS_1956-57_33k_ES_PAN_21mic_H50_0505_fot_59B-29257_W.tif
  2
NAME
  10
321972.255
  20
4519038.999
 40
34.39324
  0
SEQEND
  0
POLYLINE
  8
LC_OH_2021_05_O7
  70
1
  66
1
  0
VERTEX
  8
LC_OH_2021_05_O7
  10
320570.002
  20
4520956.500
  0
VERTEX
  8
LC_OH_2021_05_O7
  10
320570.502
  20
4520958.500
  0
VERTEX
  8
LC_OH_2021_05_O7
  10
320620.502
  20
4520968.000
  0
VERTEX
  8
LC_OH_2021_05_O7
  10
320623.002
  20
4520968.500
  0
VERTEX
  8
LC_OH_2021_05_O7
  10
322577.002
  20
4521340.000
  0
VERTEX
  8
LC_OH_2021_05_O7
  10
323468.002
  20
4520916.500
  0
VERTEX
  8
LC_OH_2021_05_O7
  10
323323.002
  20
4516855.000
  0
VERTEX
  8
LC_OH_2021_05_O7
  10
320771.502
  20
4516738.000
  0
VERTEX
  8
LC_OH_2021_05_O7
  10
320514.002
  20
4516901.500
  0
VERTEX
  8
LC_OH_2021_05_O7
  10
320570.002
  20
4520956.500
  0
SEQEND
  8
LC_OH_2021_05_O7
  0
INSERT
  8
FeatureAttribs
  2
FEATURE
  41
1
  42
1
  43
1
  50
0
  10
327596.080
  20
4518851.249
 66
1
  0
ATTRIB
  8
FeatureAttribs
 70
0
  1
PNOA-H_AMS_1956-57_33k_ES_PAN_21mic_H50_0505_fot_59B-29255_W.tif
  2
NAME
  10
327596.080
  20
4518851.249
 40
34.39324
  0
SEQEND
  0
POLYLINE
  8
LC_OH_2021_05_O7
  70
1
  66
1
  0
VERTEX
  8
LC_OH_2021_05_O7
  10
326320.002
  20
4520944.000
  0
VERTEX
  8
LC_OH_2021_05_O7
  10
328362.002
  20
4521227.000
  0
VERTEX
  8
LC_OH_2021_05_O7
  10
328365.502
  20
4521227.500
  0
VERTEX
  8
LC_OH_2021_05_O7
  10
328368.002
  20
4521227.500
  0
VERTEX
  8
LC_OH_2021_05_O7
  10
329106.002
  20
4520883.500
  0
VERTEX
  8
LC_OH_2021_05_O7
  10
328859.502
  20
4516672.500
  0
VERTEX
  8
LC_OH_2021_05_O7
  10
328859.002
  20
4516671.000
  0
VERTEX
  8
LC_OH_2021_05_O7
  10
328857.002
  20
4516670.500
  0
VERTEX
  8
LC_OH_2021_05_O7
  10
326587.002
  20
4516475.000
  0
VERTEX
  8
LC_OH_2021_05_O7
  10
326090.502
  20
4516764.000
  0
VERTEX
  8
LC_OH_2021_05_O7
  10
326320.002
  20
4520944.000
  0
SEQEND
  8
LC_OH_2021_05_O7
  0
INSERT
  8
FeatureAttribs
  2
FEATURE
  41
1
  42
1
  43
1
  50
0
  10
342092.155
  20
4518222.248
 66
1
  0
ATTRIB
  8
FeatureAttribs
 70
0
  1
PNOA-H_AMS_1956-57_33k_ES_PAN_21mic_H50_0505_fot_59B-29250_W.tif
  2
NAME
  10
342092.155
  20
4518222.248
 40
34.39324
  0
SEQEND
  0
POLYLINE
  8
LC_OH_2021_05_O7
  70
1
  66
1
  0
VERTEX
  8
LC_OH_2021_05_O7
  10
343637.638
  20
4520589.227
  0
VERTEX
  8
LC_OH_2021_05_O7
  10
343633.730
  20
4520404.520
  0
VERTEX
  8
LC_OH_2021_05_O7
  10
343482.003
  20
4516546.000
  0
VERTEX
  8
LC_OH_2021_05_O7
  10
343482.003
  20
4516542.500
  0
VERTEX
  8
LC_OH_2021_05_O7
  10
343456.503
  20
4515889.500
  0
VERTEX
  8
LC_OH_2021_05_O7
  10
343328.503
  20
4515840.000
  0
VERTEX
  8
LC_OH_2021_05_O7
  10
341694.003
  20
4515723.500
  0
VERTEX
  8
LC_OH_2021_05_O7
  10
340562.003
  20
4515986.500
  0
VERTEX
  8
LC_OH_2021_05_O7
  10
340555.003
  20
4515989.000
  0
VERTEX
  8
LC_OH_2021_05_O7
  10
340509.503
  20
4516017.000
  0
VERTEX
  8
LC_OH_2021_05_O7
  10
340761.003
  20
4520388.000
  0
VERTEX
  8
LC_OH_2021_05_O7
  10
342067.503
  20
4520721.000
  0
VERTEX
  8
LC_OH_2021_05_O7
  10
342844.003
  20
4520525.000
  0
SEQEND
  8
LC_OH_2021_05_O7
  0
INSERT
  8
FeatureAttribs
  2
FEATURE
  41
1
  42
1
  43
1
  50
0
  10
343545.109
  20
4518135.703
 66
1
  0
ATTRIB
  8
FeatureAttribs
 70
0
  1
PNOA-H_AMS_1956-57_33k_ES_PAN_21mic_H50_0506_fot_59B-29249_W.tif
  2
NAME
  10
343545.109
  20
4518135.703
 40
34.39324
  0
SEQEND
  0
POLYLINE
  8
LC_OH_2021_05_O7
  70
1
  66
1
  0
VERTEX
  8
LC_OH_2021_05_O7
  10
343537.761
  20
4515867.573
  0
VERTEX
  8
LC_OH_2021_05_O7
  10
343456.503
  20
4515889.500
  0
VERTEX
  8
LC_OH_2021_05_O7
  10
343633.715
  20
4520403.834
  0
VERTEX
  8
LC_OH_2021_05_O7
  10
343616.646
  20
4519597.259
  0
VERTEX
  8
LC_OH_2021_05_O7
  10
343567.721
  20
4517284.461
  0
SEQEND
  8
LC_OH_2021_05_O7
  0
INSERT
  8
FeatureAttribs
  2
FEATURE
  41
1
  42
1
  43
1
  50
0
  10
335299.096
  20
4521496.000
 66
1
  0
ATTRIB
  8
FeatureAttribs
 70
0
  1
PNOA-H_AMS_1956-57_33k_ES_PAN_21mic_H50_0480_fot_58C-35965_W.tif
  2
NAME
  10
335299.096
  20
4521496.000
 40
34.39324
  0
SEQEND
  0
POLYLINE
  8
LC_OH_2021_05_O7
  70
1
  66
1
  0
VERTEX
  8
LC_OH_2021_05_O7
  10
336625.286
  20
4522062.448
  0
VERTEX
  8
LC_OH_2021_05_O7
  10
336609.503
  20
4520964.000
  0
VERTEX
  8
LC_OH_2021_05_O7
  10
334885.003
  20
4520662.000
  0
VERTEX
  8
LC_OH_2021_05_O7
  10
334876.003
  20
4520664.500
  0
VERTEX
  8
LC_OH_2021_05_O7
  10
333986.003
  20
4521031.500
  0
VERTEX
  8
LC_OH_2021_05_O7
  10
333974.369
  20
4522121.716
  0
SEQEND
  8
LC_OH_2021_05_O7
  0
INSERT
  8
FeatureAttribs
  2
FEATURE
  41
1
  42
1
  43
1
  50
0
  10
332564.248
  20
4521544.000
 66
1
  0
ATTRIB
  8
FeatureAttribs
 70
0
  1
PNOA-H_AMS_1956-57_33k_ES_PAN_21mic_H50_0480_fot_58C-35966_W.tif
  2
NAME
  10
332564.248
  20
4521544.000
 40
34.39324
  0
SEQEND
  0
POLYLINE
  8
LC_OH_2021_05_O7
  70
1
  66
1
  0
VERTEX
  8
LC_OH_2021_05_O7
  10
333974.369
  20
4522121.716
  0
VERTEX
  8
LC_OH_2021_05_O7
  10
333986.003
  20
4521031.500
  0
VERTEX
  8
LC_OH_2021_05_O7
  10
331948.503
  20
4520758.000
  0
VERTEX
  8
LC_OH_2021_05_O7
  10
331140.503
  20
4521146.500
  0
VERTEX
  8
LC_OH_2021_05_O7
  10
331159.969
  20
4522185.574
  0
VERTEX
  8
LC_OH_2021_05_O7
  10
333125.597
  20
4522140.692
  0
SEQEND
  8
LC_OH_2021_05_O7
  0
INSERT
  8
FeatureAttribs
  2
FEATURE
  41
1
  42
1
  43
1
  50
0
  10
329757.520
  20
4521686.750
 66
1
  0
ATTRIB
  8
FeatureAttribs
 70
0
  1
PNOA-H_AMS_1956-57_33k_ES_PAN_21mic_H50_0480_fot_58C-35967_W.tif
  2
NAME
  10
329757.520
  20
4521686.750
 40
34.39324
  0
SEQEND
  0
POLYLINE
  8
LC_OH_2021_05_O7
  70
1
  66
1
  0
VERTEX
  8
LC_OH_2021_05_O7
  10
331159.969
  20
4522185.574
  0
VERTEX
  8
LC_OH_2021_05_O7
  10
331140.503
  20
4521146.500
  0
VERTEX
  8
LC_OH_2021_05_O7
  10
329105.002
  20
4520883.500
  0
VERTEX
  8
LC_OH_2021_05_O7
  10
328367.502
  20
4521227.500
  0
VERTEX
  8
LC_OH_2021_05_O7
  10
328360.627
  20
4522250.088
  0
VERTEX
  8
LC_OH_2021_05_O7
  10
329612.240
  20
4522220.914
  0
SEQEND
  8
LC_OH_2021_05_O7
  0
INSERT
  8
FeatureAttribs
  2
FEATURE
  41
1
  42
1
  43
1
  50
0
  10
326951.419
  20
4521717.000
 66
1
  0
ATTRIB
  8
FeatureAttribs
 70
0
  1
PNOA-H_AMS_1956-57_33k_ES_PAN_21mic_H50_0480_fot_58C-35968_W.tif
  2
NAME
  10
326951.419
  20
4521717.000
 40
34.39324
  0
SEQEND
  0
POLYLINE
  8
LC_OH_2021_05_O7
  70
1
  66
1
  0
VERTEX
  8
LC_OH_2021_05_O7
  10
328360.627
  20
4522250.088
  0
VERTEX
  8
LC_OH_2021_05_O7
  10
328367.502
  20
4521227.500
  0
VERTEX
  8
LC_OH_2021_05_O7
  10
326319.502
  20
4520944.000
  0
VERTEX
  8
LC_OH_2021_05_O7
  10
325554.502
  20
4521315.500
  0
VERTEX
  8
LC_OH_2021_05_O7
  10
325514.927
  20
4522316.698
  0
VERTEX
  8
LC_OH_2021_05_O7
  10
326098.869
  20
4522302.809
  0
SEQEND
  8
LC_OH_2021_05_O7
  0
INSERT
  8
FeatureAttribs
  2
FEATURE
  41
1
  42
1
  43
1
  50
0
  10
321159.854
  20
4521809.000
 66
1
  0
ATTRIB
  8
FeatureAttribs
 70
0
  1
PNOA-H_AMS_1956-57_33k_ES_PAN_21mic_H50_0480_fot_58C-35970_W.tif
  2
NAME
  10
321159.854
  20
4521809.000
 40
34.39324
  0
SEQEND
  0
POLYLINE
  8
LC_OH_2021_05_O7
  70
1
  66
1
  0
VERTEX
  8
LC_OH_2021_05_O7
  10
322580.926
  20
4522386.487
  0
VERTEX
  8
LC_OH_2021_05_O7
  10
322576.502
  20
4521340.000
  0
VERTEX
  8
LC_OH_2021_05_O7
  10
320570.502
  20
4520958.000
  0
VERTEX
  8
LC_OH_2021_05_O7
  10
319754.502
  20
4521363.500
  0
VERTEX
  8
LC_OH_2021_05_O7
  10
319721.888
  20
4522455.852
  0
SEQEND
  8
LC_OH_2021_05_O7
  0
INSERT
  8
FeatureAttribs
  2
FEATURE
  41
1
  42
1
  43
1
  50
0
  10
318247.267
  20
4521787.500
 66
1
  0
ATTRIB
  8
FeatureAttribs
 70
0
  1
PNOA-H_AMS_1956-57_33k_ES_PAN_21mic_H50_0480_fot_58C-35971_W.tif
  2
NAME
  10
318247.267
  20
4521787.500
 40
34.39324
  0
SEQEND
  0
POLYLINE
  8
LC_OH_2021_05_O7
  70
1
  66
1
  0
VERTEX
  8
LC_OH_2021_05_O7
  10
319721.899
  20
4522455.852
  0
VERTEX
  8
LC_OH_2021_05_O7
  10
319754.502
  20
4521364.000
  0
VERTEX
  8
LC_OH_2021_05_O7
  10
317682.002
  20
4520915.000
  0
VERTEX
  8
LC_OH_2021_05_O7
  10
317680.002
  20
4520915.000
  0
VERTEX
  8
LC_OH_2021_05_O7
  10
317665.502
  20
4520922.000
  0
VERTEX
  8
LC_OH_2021_05_O7
  10
316753.502
  20
4521372.500
  0
VERTEX
  8
LC_OH_2021_05_O7
  10
316751.171
  20
4522529.032
  0
VERTEX
  8
LC_OH_2021_05_O7
  10
319072.088
  20
4522471.618
  0
SEQEND
  8
LC_OH_2021_05_O7
  0
INSERT
  8
FeatureAttribs
  2
FEATURE
  41
1
  42
1
  43
1
  50
0
  10
324057.110
  20
4521788.249
 66
1
  0
ATTRIB
  8
FeatureAttribs
 70
0
  1
PNOA-H_AMS_1956-57_33k_ES_PAN_21mic_H50_0480_fot_58C-35969_W.tif
  2
NAME
  10
324057.110
  20
4521788.249
 40
34.39324
  0
SEQEND
  0
POLYLINE
  8
LC_OH_2021_05_O7
  70
1
  66
1
  0
VERTEX
  8
LC_OH_2021_05_O7
  10
325514.922
  20
4522316.698
  0
VERTEX
  8
LC_OH_2021_05_O7
  10
325554.502
  20
4521315.500
  0
VERTEX
  8
LC_OH_2021_05_O7
  10
323467.002
  20
4520916.500
  0
VERTEX
  8
LC_OH_2021_05_O7
  10
322576.502
  20
4521340.000
  0
VERTEX
  8
LC_OH_2021_05_O7
  10
322580.926
  20
4522386.487
  0
VERTEX
  8
LC_OH_2021_05_O7
  10
322585.486
  20
4522386.376
  0
SEQEND
  8
LC_OH_2021_05_O7
  0
INSERT
  8
FeatureAttribs
  2
FEATURE
  41
1
  42
1
  43
1
  50
0
  10
316137.756
  20
4521824.334
 66
1
  0
ATTRIB
  8
FeatureAttribs
 70
0
  1
PNOA-H_AMS_1956-57_33k_ES_PAN_21mic_H50_0480_fot_58C-35972_W.tif
  2
NAME
  10
316137.756
  20
4521824.334
 40
34.39324
  0
SEQEND
  0
POLYLINE
  8
LC_OH_2021_05_O7
  70
1
  66
1
  0
VERTEX
  8
LC_OH_2021_05_O7
  10
316751.208
  20
4522529.031
  0
VERTEX
  8
LC_OH_2021_05_O7
  10
316753.502
  20
4521372.500
  0
VERTEX
  8
LC_OH_2021_05_O7
  10
315522.010
  20
4521090.136
  0
VERTEX
  8
LC_OH_2021_05_O7
  10
315558.677
  20
4522558.532
  0
SEQEND
  8
LC_OH_2021_05_O7
  0
ENDSEC
  0
EOF
