  0
SECTION
  2
HEADER
  9
$ACADVER
  1
AC1009
  9
$LUNITS
  70
2
  9
$LIMMIN
  10
286919.095
  20
4504055.737
  9
$LIMMAX
  10
315558.677
  20
4523314.102
  9
$EXTMIN
  10
286919.095
  20
4504055.737
  9
$EXTMAX
  10
315558.677
  20
4523314.102
  999
Created by Global Mapper
  999
Projection: UTM
  999
Datum: ETRS89
  999
Ground Units: meters
  999
ZONE: 30
  0
ENDSEC
  0
SECTION
  2
TABLES
  0
ENDSEC
  0
SECTION
  2
BLOCKS
  0
BLOCK
  8
FeatureAttribs
  70
0
  2
FEATURE
  3
FEATURE
  10
0.00000000
  20
0.00000000
  0
ATTDEF
  8
FeatureAttribs
  70
0
  1
 
  2
NAME
  3
NAME
  10
0.00000000
  20
0.00000000
  40
1.00000000
  0
ENDBLK
  0
ENDSEC
  0
SECTION
  2
ENTITIES
  0
INSERT
  8
FeatureAttribs
  2
FEATURE
  41
1
  42
1
  43
1
  50
0
  10
313277.720
  20
4522233.000
 66
1
  0
ATTRIB
  8
FeatureAttribs
 70
0
  1
PNOA-H_AMS_1956-57_33k_ES_PAN_21mic_H50_0479_fot_58B-40132_W.tif
  2
NAME
  10
313277.720
  20
4522233.000
 40
34.51247
  0
SEQEND
  0
POLYLINE
  8
LC_OH_2021_05_O7
  70
1
  66
1
  0
VERTEX
  8
LC_OH_2021_05_O7
  10
314062.291
  20
4522596.262
  0
VERTEX
  8
LC_OH_2021_05_O7
  10
313366.502
  20
4521626.000
  0
VERTEX
  8
LC_OH_2021_05_O7
  10
312750.002
  20
4521731.500
  0
VERTEX
  8
LC_OH_2021_05_O7
  10
312756.523
  20
4522629.186
  0
SEQEND
  8
LC_OH_2021_05_O7
  0
INSERT
  8
FeatureAttribs
  2
FEATURE
  41
1
  42
1
  43
1
  50
0
  10
289020.526
  20
4522535.000
 66
1
  0
ATTRIB
  8
FeatureAttribs
 70
0
  1
PNOA-H_AMS_1956-57_33k_ES_PAN_21mic_H50_0479_fot_58B-40141_W.tif
  2
NAME
  10
289020.526
  20
4522535.000
 40
34.51247
  0
SEQEND
  0
POLYLINE
  8
LC_OH_2021_05_O7
  70
1
  66
1
  0
VERTEX
  8
LC_OH_2021_05_O7
  10
289916.786
  20
4523243.704
  0
VERTEX
  8
LC_OH_2021_05_O7
  10
289888.501
  20
4522691.000
  0
VERTEX
  8
LC_OH_2021_05_O7
  10
289888.501
  20
4522686.500
  0
VERTEX
  8
LC_OH_2021_05_O7
  10
289856.001
  20
4522045.000
  0
VERTEX
  8
LC_OH_2021_05_O7
  10
289855.501
  20
4522041.000
  0
VERTEX
  8
LC_OH_2021_05_O7
  10
289853.501
  20
4522040.000
  0
VERTEX
  8
LC_OH_2021_05_O7
  10
289020.001
  20
4521650.000
  0
VERTEX
  8
LC_OH_2021_05_O7
  10
288164.001
  20
4521873.000
  0
VERTEX
  8
LC_OH_2021_05_O7
  10
288155.891
  20
4523293.974
  0
SEQEND
  8
LC_OH_2021_05_O7
  0
INSERT
  8
FeatureAttribs
  2
FEATURE
  41
1
  42
1
  43
1
  50
0
  10
302757.435
  20
4522314.749
 66
1
  0
ATTRIB
  8
FeatureAttribs
 70
0
  1
PNOA-H_AMS_1956-57_33k_ES_PAN_21mic_H50_0479_fot_58B-40136_W.tif
  2
NAME
  10
302757.435
  20
4522314.749
 40
34.51247
  0
SEQEND
  0
POLYLINE
  8
LC_OH_2021_05_O7
  70
1
  66
1
  0
VERTEX
  8
LC_OH_2021_05_O7
  10
304162.109
  20
4522852.130
  0
VERTEX
  8
LC_OH_2021_05_O7
  10
304185.001
  20
4521757.000
  0
VERTEX
  8
LC_OH_2021_05_O7
  10
303423.501
  20
4521409.500
  0
VERTEX
  8
LC_OH_2021_05_O7
  10
301351.001
  20
4521715.500
  0
VERTEX
  8
LC_OH_2021_05_O7
  10
301331.796
  20
4522927.620
  0
VERTEX
  8
LC_OH_2021_05_O7
  10
301504.885
  20
4522922.926
  0
SEQEND
  8
LC_OH_2021_05_O7
  0
INSERT
  8
FeatureAttribs
  2
FEATURE
  41
1
  42
1
  43
1
  50
0
  10
308496.281
  20
4522221.000
 66
1
  0
ATTRIB
  8
FeatureAttribs
 70
0
  1
PNOA-H_AMS_1956-57_33k_ES_PAN_21mic_H50_0479_fot_58B-40134_W.tif
  2
NAME
  10
308496.281
  20
4522221.000
 40
34.51247
  0
SEQEND
  0
POLYLINE
  8
LC_OH_2021_05_O7
  70
1
  66
1
  0
VERTEX
  8
LC_OH_2021_05_O7
  10
309931.028
  20
4522701.435
  0
VERTEX
  8
LC_OH_2021_05_O7
  10
309934.502
  20
4521748.500
  0
VERTEX
  8
LC_OH_2021_05_O7
  10
309122.002
  20
4521412.500
  0
VERTEX
  8
LC_OH_2021_05_O7
  10
309117.502
  20
4521412.000
  0
VERTEX
  8
LC_OH_2021_05_O7
  10
309109.502
  20
4521413.500
  0
VERTEX
  8
LC_OH_2021_05_O7
  10
307063.002
  20
4521810.000
  0
VERTEX
  8
LC_OH_2021_05_O7
  10
307055.416
  20
4522776.014
  0
VERTEX
  8
LC_OH_2021_05_O7
  10
308531.811
  20
4522737.382
  0
SEQEND
  8
LC_OH_2021_05_O7
  0
INSERT
  8
FeatureAttribs
  2
FEATURE
  41
1
  42
1
  43
1
  50
0
  10
294145.655
  20
4522492.500
 66
1
  0
ATTRIB
  8
FeatureAttribs
 70
0
  1
PNOA-H_AMS_1956-57_33k_ES_PAN_21mic_H50_0479_fot_58B-40139_W.tif
  2
NAME
  10
294145.655
  20
4522492.500
 40
34.51247
  0
SEQEND
  0
POLYLINE
  8
LC_OH_2021_05_O7
  70
1
  66
1
  0
VERTEX
  8
LC_OH_2021_05_O7
  10
295574.747
  20
4523084.898
  0
VERTEX
  8
LC_OH_2021_05_O7
  10
295569.501
  20
4521813.000
  0
VERTEX
  8
LC_OH_2021_05_O7
  10
295092.501
  20
4521565.000
  0
VERTEX
  8
LC_OH_2021_05_O7
  10
292700.501
  20
4521905.000
  0
VERTEX
  8
LC_OH_2021_05_O7
  10
292740.116
  20
4523163.949
  0
VERTEX
  8
LC_OH_2021_05_O7
  10
294477.898
  20
4523115.166
  0
SEQEND
  8
LC_OH_2021_05_O7
  0
INSERT
  8
FeatureAttribs
  2
FEATURE
  41
1
  42
1
  43
1
  50
0
  10
299905.902
  20
4522304.750
 66
1
  0
ATTRIB
  8
FeatureAttribs
 70
0
  1
PNOA-H_AMS_1956-57_33k_ES_PAN_21mic_H50_0479_fot_58B-40137_W.tif
  2
NAME
  10
299905.902
  20
4522304.750
 40
34.51247
  0
SEQEND
  0
POLYLINE
  8
LC_OH_2021_05_O7
  70
1
  66
1
  0
VERTEX
  8
LC_OH_2021_05_O7
  10
301331.796
  20
4522927.620
  0
VERTEX
  8
LC_OH_2021_05_O7
  10
301351.001
  20
4521715.500
  0
VERTEX
  8
LC_OH_2021_05_O7
  10
300653.501
  20
4521389.500
  0
VERTEX
  8
LC_OH_2021_05_O7
  10
300649.501
  20
4521389.500
  0
VERTEX
  8
LC_OH_2021_05_O7
  10
298477.501
  20
4521722.000
  0
VERTEX
  8
LC_OH_2021_05_O7
  10
298476.501
  20
4521737.000
  0
VERTEX
  8
LC_OH_2021_05_O7
  10
298462.289
  20
4523005.439
  0
SEQEND
  8
LC_OH_2021_05_O7
  0
INSERT
  8
FeatureAttribs
  2
FEATURE
  41
1
  42
1
  43
1
  50
0
  10
305617.401
  20
4522231.500
 66
1
  0
ATTRIB
  8
FeatureAttribs
 70
0
  1
PNOA-H_AMS_1956-57_33k_ES_PAN_21mic_H50_0479_fot_58B-40135_W.tif
  2
NAME
  10
305617.401
  20
4522231.500
 40
34.51247
  0
SEQEND
  0
POLYLINE
  8
LC_OH_2021_05_O7
  70
1
  66
1
  0
VERTEX
  8
LC_OH_2021_05_O7
  10
307055.416
  20
4522776.014
  0
VERTEX
  8
LC_OH_2021_05_O7
  10
307063.002
  20
4521810.000
  0
VERTEX
  8
LC_OH_2021_05_O7
  10
306217.001
  20
4521433.000
  0
VERTEX
  8
LC_OH_2021_05_O7
  10
304185.001
  20
4521757.000
  0
VERTEX
  8
LC_OH_2021_05_O7
  10
304162.109
  20
4522852.130
  0
VERTEX
  8
LC_OH_2021_05_O7
  10
305018.355
  20
4522829.317
  0
SEQEND
  8
LC_OH_2021_05_O7
  0
INSERT
  8
FeatureAttribs
  2
FEATURE
  41
1
  42
1
  43
1
  50
0
  10
311342.985
  20
4522117.249
 66
1
  0
ATTRIB
  8
FeatureAttribs
 70
0
  1
PNOA-H_AMS_1956-57_33k_ES_PAN_21mic_H50_0479_fot_58B-40133_W.tif
  2
NAME
  10
311342.985
  20
4522117.249
 40
34.51247
  0
SEQEND
  0
POLYLINE
  8
LC_OH_2021_05_O7
  70
1
  66
1
  0
VERTEX
  8
LC_OH_2021_05_O7
  10
312756.526
  20
4522629.186
  0
VERTEX
  8
LC_OH_2021_05_O7
  10
312750.002
  20
4521731.000
  0
VERTEX
  8
LC_OH_2021_05_O7
  10
311973.002
  20
4521394.500
  0
VERTEX
  8
LC_OH_2021_05_O7
  10
309934.502
  20
4521748.500
  0
VERTEX
  8
LC_OH_2021_05_O7
  10
309931.028
  20
4522701.435
  0
VERTEX
  8
LC_OH_2021_05_O7
  10
312045.251
  20
4522647.120
  0
SEQEND
  8
LC_OH_2021_05_O7
  0
INSERT
  8
FeatureAttribs
  2
FEATURE
  41
1
  42
1
  43
1
  50
0
  10
291299.598
  20
4522507.250
 66
1
  0
ATTRIB
  8
FeatureAttribs
 70
0
  1
PNOA-H_AMS_1956-57_33k_ES_PAN_21mic_H50_0479_fot_58B-40140_W.tif
  2
NAME
  10
291299.598
  20
4522507.250
 40
34.51247
  0
SEQEND
  0
POLYLINE
  8
LC_OH_2021_05_O7
  70
1
  66
1
  0
VERTEX
  8
LC_OH_2021_05_O7
  10
292740.126
  20
4523163.948
  0
VERTEX
  8
LC_OH_2021_05_O7
  10
292700.501
  20
4521904.500
  0
VERTEX
  8
LC_OH_2021_05_O7
  10
292115.501
  20
4521596.500
  0
VERTEX
  8
LC_OH_2021_05_O7
  10
292111.501
  20
4521594.500
  0
VERTEX
  8
LC_OH_2021_05_O7
  10
292108.001
  20
4521594.500
  0
VERTEX
  8
LC_OH_2021_05_O7
  10
289856.001
  20
4522041.000
  0
VERTEX
  8
LC_OH_2021_05_O7
  10
289903.001
  20
4522965.000
  0
VERTEX
  8
LC_OH_2021_05_O7
  10
289903.001
  20
4522975.000
  0
VERTEX
  8
LC_OH_2021_05_O7
  10
289916.756
  20
4523243.705
  0
VERTEX
  8
LC_OH_2021_05_O7
  10
290964.381
  20
4523213.797
  0
SEQEND
  8
LC_OH_2021_05_O7
  0
INSERT
  8
FeatureAttribs
  2
FEATURE
  41
1
  42
1
  43
1
  50
0
  10
297020.621
  20
4522345.250
 66
1
  0
ATTRIB
  8
FeatureAttribs
 70
0
  1
PNOA-H_AMS_1956-57_33k_ES_PAN_21mic_H50_0479_fot_58B-40138_W.tif
  2
NAME
  10
297020.621
  20
4522345.250
 40
34.51247
  0
SEQEND
  0
POLYLINE
  8
LC_OH_2021_05_O7
  70
1
  66
1
  0
VERTEX
  8
LC_OH_2021_05_O7
  10
298462.177
  20
4523005.442
  0
VERTEX
  8
LC_OH_2021_05_O7
  10
298476.501
  20
4521722.000
  0
VERTEX
  8
LC_OH_2021_05_O7
  10
297968.001
  20
4521470.500
  0
VERTEX
  8
LC_OH_2021_05_O7
  10
295569.501
  20
4521813.000
  0
VERTEX
  8
LC_OH_2021_05_O7
  10
295574.747
  20
4523084.898
  0
VERTEX
  8
LC_OH_2021_05_O7
  10
297991.400
  20
4523018.209
  0
SEQEND
  8
LC_OH_2021_05_O7
  0
INSERT
  8
FeatureAttribs
  2
FEATURE
  41
1
  42
1
  43
1
  50
0
  10
313084.431
  20
4509687.001
 66
1
  0
ATTRIB
  8
FeatureAttribs
 70
0
  1
PNOA-H_AMS_1956-57_33k_ES_PAN_21mic_H50_0504_fot_61C-39609_W.tif
  2
NAME
  10
313084.431
  20
4509687.001
 40
34.51247
  0
SEQEND
  0
POLYLINE
  8
LC_OH_2021_05_O7
  70
1
  66
1
  0
VERTEX
  8
LC_OH_2021_05_O7
  10
312194.002
  20
4511552.000
  0
VERTEX
  8
LC_OH_2021_05_O7
  10
312195.002
  20
4511552.500
  0
VERTEX
  8
LC_OH_2021_05_O7
  10
312201.002
  20
4511547.500
  0
VERTEX
  8
LC_OH_2021_05_O7
  10
312431.002
  20
4511352.000
  0
VERTEX
  8
LC_OH_2021_05_O7
  10
312431.502
  20
4511351.000
  0
VERTEX
  8
LC_OH_2021_05_O7
  10
314393.502
  20
4509684.000
  0
VERTEX
  8
LC_OH_2021_05_O7
  10
314241.502
  20
4508167.000
  0
VERTEX
  8
LC_OH_2021_05_O7
  10
312876.502
  20
4507821.500
  0
VERTEX
  8
LC_OH_2021_05_O7
  10
311475.502
  20
4508324.000
  0
SEQEND
  8
LC_OH_2021_05_O7
  0
INSERT
  8
FeatureAttribs
  2
FEATURE
  41
1
  42
1
  43
1
  50
0
  10
314774.806
  20
4510191.763
 66
1
  0
ATTRIB
  8
FeatureAttribs
 70
0
  1
PNOA-H_AMS_1956-57_33k_ES_PAN_21mic_H50_0505_fot_61C-39608_W.tif
  2
NAME
  10
314774.806
  20
4510191.763
 40
34.51247
  0
SEQEND
  0
POLYLINE
  8
LC_OH_2021_05_O7
  70
1
  66
1
  0
VERTEX
  8
LC_OH_2021_05_O7
  10
315308.110
  20
4512516.964
  0
VERTEX
  8
LC_OH_2021_05_O7
  10
315270.150
  20
4510994.231
  0
VERTEX
  8
LC_OH_2021_05_O7
  10
315212.519
  20
4508681.393
  0
VERTEX
  8
LC_OH_2021_05_O7
  10
315192.023
  20
4507858.525
  0
VERTEX
  8
LC_OH_2021_05_O7
  10
314241.502
  20
4508167.000
  0
VERTEX
  8
LC_OH_2021_05_O7
  10
314393.002
  20
4509683.000
  0
VERTEX
  8
LC_OH_2021_05_O7
  10
314479.002
  20
4509985.000
  0
VERTEX
  8
LC_OH_2021_05_O7
  10
314479.002
  20
4509986.500
  0
VERTEX
  8
LC_OH_2021_05_O7
  10
315199.502
  20
4512525.000
  0
SEQEND
  8
LC_OH_2021_05_O7
  0
INSERT
  8
FeatureAttribs
  2
FEATURE
  41
1
  42
1
  43
1
  50
0
  10
287146.946
  20
4510989.763
 66
1
  0
ATTRIB
  8
FeatureAttribs
 70
0
  1
PNOA-H_AMS_1956-57_33k_ES_PAN_21mic_H50_0503_fot_61B-18255_W.tif
  2
NAME
  10
287146.946
  20
4510989.763
 40
34.51247
  0
SEQEND
  0
POLYLINE
  8
LC_OH_2021_05_O7
  70
1
  66
1
  0
VERTEX
  8
LC_OH_2021_05_O7
  10
287160.082
  20
4513203.930
  0
VERTEX
  8
LC_OH_2021_05_O7
  10
287195.001
  20
4513197.500
  0
VERTEX
  8
LC_OH_2021_05_O7
  10
287261.001
  20
4508836.500
  0
VERTEX
  8
LC_OH_2021_05_O7
  10
287032.892
  20
4508775.596
  0
VERTEX
  8
LC_OH_2021_05_O7
  10
287051.864
  20
4509436.470
  0
VERTEX
  8
LC_OH_2021_05_O7
  10
287118.291
  20
4511749.392
  0
SEQEND
  8
LC_OH_2021_05_O7
  0
INSERT
  8
FeatureAttribs
  2
FEATURE
  41
1
  42
1
  43
1
  50
0
  10
306788.670
  20
4504790.749
 66
1
  0
ATTRIB
  8
FeatureAttribs
 70
0
  1
PNOA-H_AMS_1956-57_33k_ES_PAN_21mic_H50_0504_fot_000-04137_R.tif
  2
NAME
  10
306788.670
  20
4504790.749
 40
34.51247
  0
SEQEND
  0
POLYLINE
  8
LC_OH_2021_05_O7
  70
1
  66
1
  0
VERTEX
  8
LC_OH_2021_05_O7
  10
308143.030
  20
4504232.122
  0
VERTEX
  8
LC_OH_2021_05_O7
  10
308052.865
  20
4504234.430
  0
VERTEX
  8
LC_OH_2021_05_O7
  10
305367.640
  20
4504304.457
  0
VERTEX
  8
LC_OH_2021_05_O7
  10
306959.002
  20
4506348.000
  0
VERTEX
  8
LC_OH_2021_05_O7
  10
306959.502
  20
4506349.000
  0
VERTEX
  8
LC_OH_2021_05_O7
  10
306961.502
  20
4506347.500
  0
VERTEX
  8
LC_OH_2021_05_O7
  10
306997.002
  20
4506284.000
  0
SEQEND
  8
LC_OH_2021_05_O7
  0
INSERT
  8
FeatureAttribs
  2
FEATURE
  41
1
  42
1
  43
1
  50
0
  10
303917.211
  20
4505009.500
 66
1
  0
ATTRIB
  8
FeatureAttribs
 70
0
  1
PNOA-H_AMS_1956-57_33k_ES_PAN_21mic_H50_0504_fot_000-04138_R.tif
  2
NAME
  10
303917.211
  20
4505009.500
 40
34.51247
  0
SEQEND
  0
POLYLINE
  8
LC_OH_2021_05_O7
  70
1
  66
1
  0
VERTEX
  8
LC_OH_2021_05_O7
  10
305206.530
  20
4504308.658
  0
VERTEX
  8
LC_OH_2021_05_O7
  10
304530.611
  20
4504326.285
  0
VERTEX
  8
LC_OH_2021_05_O7
  10
302579.680
  20
4504378.088
  0
VERTEX
  8
LC_OH_2021_05_O7
  10
304026.001
  20
4506664.500
  0
SEQEND
  8
LC_OH_2021_05_O7
  0
INSERT
  8
FeatureAttribs
  2
FEATURE
  41
1
  42
1
  43
1
  50
0
  10
301060.488
  20
4505250.999
 66
1
  0
ATTRIB
  8
FeatureAttribs
 70
0
  1
PNOA-H_AMS_1956-57_33k_ES_PAN_21mic_H50_0504_fot_000-04139_R.tif
  2
NAME
  10
301060.488
  20
4505250.999
 40
34.51247
  0
SEQEND
  0
POLYLINE
  8
LC_OH_2021_05_O7
  70
1
  66
1
  0
VERTEX
  8
LC_OH_2021_05_O7
  10
302298.894
  20
4504385.544
  0
VERTEX
  8
LC_OH_2021_05_O7
  10
301008.340
  20
4504419.812
  0
VERTEX
  8
LC_OH_2021_05_O7
  10
299810.369
  20
4504452.191
  0
VERTEX
  8
LC_OH_2021_05_O7
  10
301106.501
  20
4507007.000
  0
VERTEX
  8
LC_OH_2021_05_O7
  10
302191.501
  20
4504622.000
  0
VERTEX
  8
LC_OH_2021_05_O7
  10
302191.501
  20
4504621.000
  0
SEQEND
  8
LC_OH_2021_05_O7
  0
INSERT
  8
FeatureAttribs
  2
FEATURE
  41
1
  42
1
  43
1
  50
0
  10
295342.781
  20
4505786.749
 66
1
  0
ATTRIB
  8
FeatureAttribs
 70
0
  1
PNOA-H_AMS_1956-57_33k_ES_PAN_21mic_H50_0504_fot_000-04141_R.tif
  2
NAME
  10
295342.781
  20
4505786.749
 40
34.51247
  0
SEQEND
  0
POLYLINE
  8
LC_OH_2021_05_O7
  70
1
  66
1
  0
VERTEX
  8
LC_OH_2021_05_O7
  10
296504.079
  20
4504542.019
  0
VERTEX
  8
LC_OH_2021_05_O7
  10
294307.448
  20
4504602.431
  0
VERTEX
  8
LC_OH_2021_05_O7
  10
295252.501
  20
4507859.000
  0
SEQEND
  8
LC_OH_2021_05_O7
  0
INSERT
  8
FeatureAttribs
  2
FEATURE
  41
1
  42
1
  43
1
  50
0
  10
287284.928
  20
4506813.165
 66
1
  0
ATTRIB
  8
FeatureAttribs
 70
0
  1
PNOA-H_AMS_1956-57_33k_ES_PAN_21mic_H50_0504_fot_62B-04144_W.tif
  2
NAME
  10
287284.928
  20
4506813.165
 40
34.51247
  0
SEQEND
  0
POLYLINE
  8
LC_OH_2021_05_O7
  70
1
  66
1
  0
VERTEX
  8
LC_OH_2021_05_O7
  10
287650.760
  20
4504789.829
  0
VERTEX
  8
LC_OH_2021_05_O7
  10
286919.095
  20
4504810.647
  0
VERTEX
  8
LC_OH_2021_05_O7
  10
286985.465
  20
4507123.555
  0
VERTEX
  8
LC_OH_2021_05_O7
  10
287032.899
  20
4508775.862
  0
VERTEX
  8
LC_OH_2021_05_O7
  10
287258.001
  20
4508836.000
  0
VERTEX
  8
LC_OH_2021_05_O7
  10
287259.501
  20
4508836.500
  0
VERTEX
  8
LC_OH_2021_05_O7
  10
287439.501
  20
4508790.500
  0
VERTEX
  8
LC_OH_2021_05_O7
  10
287441.001
  20
4508787.000
  0
SEQEND
  8
LC_OH_2021_05_O7
  0
INSERT
  8
FeatureAttribs
  2
FEATURE
  41
1
  42
1
  43
1
  50
0
  10
289658.953
  20
4506289.500
 66
1
  0
ATTRIB
  8
FeatureAttribs
 70
0
  1
PNOA-H_AMS_1956-57_33k_ES_PAN_21mic_H50_0504_fot_000-04143_R.tif
  2
NAME
  10
289658.953
  20
4506289.500
 40
34.51247
  0
SEQEND
  0
POLYLINE
  8
LC_OH_2021_05_O7
  70
1
  66
1
  0
VERTEX
  8
LC_OH_2021_05_O7
  10
290663.184
  20
4504704.225
  0
VERTEX
  8
LC_OH_2021_05_O7
  10
290441.431
  20
4504710.429
  0
VERTEX
  8
LC_OH_2021_05_O7
  10
288869.907
  20
4504755.142
  0
VERTEX
  8
LC_OH_2021_05_O7
  10
289200.501
  20
4508560.000
  0
VERTEX
  8
LC_OH_2021_05_O7
  10
289782.001
  20
4508701.500
  0
VERTEX
  8
LC_OH_2021_05_O7
  10
289784.501
  20
4508701.000
  0
VERTEX
  8
LC_OH_2021_05_O7
  10
289788.501
  20
4508683.000
  0
SEQEND
  8
LC_OH_2021_05_O7
  0
INSERT
  8
FeatureAttribs
  2
FEATURE
  41
1
  42
1
  43
1
  50
0
  10
292487.877
  20
4506173.000
 66
1
  0
ATTRIB
  8
FeatureAttribs
 70
0
  1
PNOA-H_AMS_1956-57_33k_ES_PAN_21mic_H50_0504_fot_000-04142_R.tif
  2
NAME
  10
292487.877
  20
4506173.000
 40
34.51247
  0
SEQEND
  0
POLYLINE
  8
LC_OH_2021_05_O7
  70
1
  66
1
  0
VERTEX
  8
LC_OH_2021_05_O7
  10
293591.783
  20
4504622.291
  0
VERTEX
  8
LC_OH_2021_05_O7
  10
291564.201
  20
4504679.017
  0
VERTEX
  8
LC_OH_2021_05_O7
  10
292235.501
  20
4508507.500
  0
VERTEX
  8
LC_OH_2021_05_O7
  10
292238.501
  20
4508509.000
  0
VERTEX
  8
LC_OH_2021_05_O7
  10
292465.001
  20
4508557.500
  0
VERTEX
  8
LC_OH_2021_05_O7
  10
292467.501
  20
4508558.000
  0
VERTEX
  8
LC_OH_2021_05_O7
  10
292469.001
  20
4508558.000
  0
VERTEX
  8
LC_OH_2021_05_O7
  10
292470.001
  20
4508556.000
  0
VERTEX
  8
LC_OH_2021_05_O7
  10
292490.001
  20
4508486.000
  0
SEQEND
  8
LC_OH_2021_05_O7
  0
INSERT
  8
FeatureAttribs
  2
FEATURE
  41
1
  42
1
  43
1
  50
0
  10
298209.535
  20
4505453.999
 66
1
  0
ATTRIB
  8
FeatureAttribs
 70
0
  1
PNOA-H_AMS_1956-57_33k_ES_PAN_21mic_H50_0504_fot_000-04140_R.tif
  2
NAME
  10
298209.535
  20
4505453.999
 40
34.51247
  0
SEQEND
  0
POLYLINE
  8
LC_OH_2021_05_O7
  70
1
  66
1
  0
VERTEX
  8
LC_OH_2021_05_O7
  10
299444.979
  20
4504462.066
  0
VERTEX
  8
LC_OH_2021_05_O7
  10
297486.054
  20
4504515.012
  0
VERTEX
  8
LC_OH_2021_05_O7
  10
297046.676
  20
4504527.096
  0
VERTEX
  8
LC_OH_2021_05_O7
  10
298165.001
  20
4507321.500
  0
VERTEX
  8
LC_OH_2021_05_O7
  10
298165.501
  20
4507323.500
  0
SEQEND
  8
LC_OH_2021_05_O7
  0
INSERT
  8
FeatureAttribs
  2
FEATURE
  41
1
  42
1
  43
1
  50
0
  10
313665.191
  20
4511314.748
 66
1
  0
ATTRIB
  8
FeatureAttribs
 70
0
  1
PNOA-H_AMS_1956-57_33k_ES_PAN_21mic_H50_0504_fot_61B-18245_W.tif
  2
NAME
  10
313665.191
  20
4511314.748
 40
34.51247
  0
SEQEND
  0
POLYLINE
  8
LC_OH_2021_05_O7
  70
1
  66
1
  0
VERTEX
  8
LC_OH_2021_05_O7
  10
312241.002
  20
4512743.000
  0
VERTEX
  8
LC_OH_2021_05_O7
  10
312422.002
  20
4512759.000
  0
VERTEX
  8
LC_OH_2021_05_O7
  10
312428.002
  20
4512759.500
  0
VERTEX
  8
LC_OH_2021_05_O7
  10
314582.002
  20
4512945.500
  0
VERTEX
  8
LC_OH_2021_05_O7
  10
315199.502
  20
4512525.500
  0
VERTEX
  8
LC_OH_2021_05_O7
  10
314393.502
  20
4509684.000
  0
VERTEX
  8
LC_OH_2021_05_O7
  10
312194.502
  20
4511552.500
  0
SEQEND
  8
LC_OH_2021_05_O7
  0
INSERT
  8
FeatureAttribs
  2
FEATURE
  41
1
  42
1
  43
1
  50
0
  10
310760.077
  20
4510647.250
 66
1
  0
ATTRIB
  8
FeatureAttribs
 70
0
  1
PNOA-H_AMS_1956-57_33k_ES_PAN_21mic_H50_0504_fot_61B-18246_W.tif
  2
NAME
  10
310760.077
  20
4510647.250
 40
34.51247
  0
SEQEND
  0
POLYLINE
  8
LC_OH_2021_05_O7
  70
1
  66
1
  0
VERTEX
  8
LC_OH_2021_05_O7
  10
310382.502
  20
4512882.000
  0
VERTEX
  8
LC_OH_2021_05_O7
  10
311576.002
  20
4513120.500
  0
VERTEX
  8
LC_OH_2021_05_O7
  10
312241.002
  20
4512743.000
  0
VERTEX
  8
LC_OH_2021_05_O7
  10
312194.502
  20
4511552.000
  0
VERTEX
  8
LC_OH_2021_05_O7
  10
311475.502
  20
4508324.000
  0
VERTEX
  8
LC_OH_2021_05_O7
  10
309952.002
  20
4508174.000
  0
VERTEX
  8
LC_OH_2021_05_O7
  10
309350.502
  20
4508458.500
  0
VERTEX
  8
LC_OH_2021_05_O7
  10
309696.502
  20
4512744.500
  0
VERTEX
  8
LC_OH_2021_05_O7
  10
310380.002
  20
4512881.500
  0
VERTEX
  8
LC_OH_2021_05_O7
  10
310382.502
  20
4512882.000
  0
SEQEND
  8
LC_OH_2021_05_O7
  0
INSERT
  8
FeatureAttribs
  2
FEATURE
  41
1
  42
1
  43
1
  50
0
  10
302778.245
  20
4510893.751
 66
1
  0
ATTRIB
  8
FeatureAttribs
 70
0
  1
PNOA-H_AMS_1956-57_33k_ES_PAN_21mic_H50_0504_fot_61B-18249_W.tif
  2
NAME
  10
302778.245
  20
4510893.751
 40
34.51247
  0
SEQEND
  0
POLYLINE
  8
LC_OH_2021_05_O7
  70
1
  66
1
  0
VERTEX
  8
LC_OH_2021_05_O7
  10
302700.001
  20
4513353.000
  0
VERTEX
  8
LC_OH_2021_05_O7
  10
304109.501
  20
4512816.500
  0
VERTEX
  8
LC_OH_2021_05_O7
  10
304229.001
  20
4508520.500
  0
VERTEX
  8
LC_OH_2021_05_O7
  10
304056.501
  20
4508434.500
  0
VERTEX
  8
LC_OH_2021_05_O7
  10
304044.001
  20
4508434.500
  0
VERTEX
  8
LC_OH_2021_05_O7
  10
301387.501
  20
4508550.000
  0
VERTEX
  8
LC_OH_2021_05_O7
  10
301398.501
  20
4512824.000
  0
VERTEX
  8
LC_OH_2021_05_O7
  10
302699.001
  20
4513352.500
  0
VERTEX
  8
LC_OH_2021_05_O7
  10
302700.001
  20
4513353.000
  0
SEQEND
  8
LC_OH_2021_05_O7
  0
INSERT
  8
FeatureAttribs
  2
FEATURE
  41
1
  42
1
  43
1
  50
0
  10
308204.021
  20
4510829.250
 66
1
  0
ATTRIB
  8
FeatureAttribs
 70
0
  1
PNOA-H_AMS_1956-57_33k_ES_PAN_21mic_H50_0504_fot_61B-18247_W.tif
  2
NAME
  10
308204.021
  20
4510829.250
 40
34.51247
  0
SEQEND
  0
POLYLINE
  8
LC_OH_2021_05_O7
  70
1
  66
1
  0
VERTEX
  8
LC_OH_2021_05_O7
  10
308616.502
  20
4513280.500
  0
VERTEX
  8
LC_OH_2021_05_O7
  10
308619.002
  20
4513280.500
  0
VERTEX
  8
LC_OH_2021_05_O7
  10
308631.502
  20
4513274.500
  0
VERTEX
  8
LC_OH_2021_05_O7
  10
309696.502
  20
4512744.500
  0
VERTEX
  8
LC_OH_2021_05_O7
  10
309350.502
  20
4508458.500
  0
VERTEX
  8
LC_OH_2021_05_O7
  10
306991.002
  20
4508378.000
  0
VERTEX
  8
LC_OH_2021_05_O7
  10
306758.502
  20
4508496.500
  0
VERTEX
  8
LC_OH_2021_05_O7
  10
306957.502
  20
4512808.500
  0
VERTEX
  8
LC_OH_2021_05_O7
  10
308614.502
  20
4513280.000
  0
VERTEX
  8
LC_OH_2021_05_O7
  10
308616.502
  20
4513280.500
  0
SEQEND
  8
LC_OH_2021_05_O7
  0
INSERT
  8
FeatureAttribs
  2
FEATURE
  41
1
  42
1
  43
1
  50
0
  10
294351.539
  20
4510955.000
 66
1
  0
ATTRIB
  8
FeatureAttribs
 70
0
  1
PNOA-H_AMS_1956-57_33k_ES_PAN_21mic_H50_0504_fot_61B-18252_W.tif
  2
NAME
  10
294351.539
  20
4510955.000
 40
34.51247
  0
SEQEND
  0
POLYLINE
  8
LC_OH_2021_05_O7
  70
1
  66
1
  0
VERTEX
  8
LC_OH_2021_05_O7
  10
293999.501
  20
4513401.500
  0
VERTEX
  8
LC_OH_2021_05_O7
  10
295793.001
  20
4512946.500
  0
VERTEX
  8
LC_OH_2021_05_O7
  10
295769.501
  20
4508688.000
  0
VERTEX
  8
LC_OH_2021_05_O7
  10
295259.001
  20
4508465.500
  0
VERTEX
  8
LC_OH_2021_05_O7
  10
292856.001
  20
4508722.500
  0
VERTEX
  8
LC_OH_2021_05_O7
  10
292981.501
  20
4513028.000
  0
VERTEX
  8
LC_OH_2021_05_O7
  10
293829.501
  20
4513444.500
  0
VERTEX
  8
LC_OH_2021_05_O7
  10
293997.001
  20
4513402.000
  0
VERTEX
  8
LC_OH_2021_05_O7
  10
293999.501
  20
4513401.500
  0
SEQEND
  8
LC_OH_2021_05_O7
  0
INSERT
  8
FeatureAttribs
  2
FEATURE
  41
1
  42
1
  43
1
  50
0
  10
300002.983
  20
4510902.750
 66
1
  0
ATTRIB
  8
FeatureAttribs
 70
0
  1
PNOA-H_AMS_1956-57_33k_ES_PAN_21mic_H50_0504_fot_61B-18250_W.tif
  2
NAME
  10
300002.983
  20
4510902.750
 40
34.51247
  0
SEQEND
  0
POLYLINE
  8
LC_OH_2021_05_O7
  70
1
  66
1
  0
VERTEX
  8
LC_OH_2021_05_O7
  10
300143.501
  20
4513232.500
  0
VERTEX
  8
LC_OH_2021_05_O7
  10
301398.501
  20
4512823.500
  0
VERTEX
  8
LC_OH_2021_05_O7
  10
301387.501
  20
4508550.000
  0
VERTEX
  8
LC_OH_2021_05_O7
  10
301147.501
  20
4508437.500
  0
VERTEX
  8
LC_OH_2021_05_O7
  10
301143.001
  20
4508435.500
  0
VERTEX
  8
LC_OH_2021_05_O7
  10
301138.501
  20
4508435.500
  0
VERTEX
  8
LC_OH_2021_05_O7
  10
298594.001
  20
4508627.000
  0
VERTEX
  8
LC_OH_2021_05_O7
  10
298628.501
  20
4512885.000
  0
VERTEX
  8
LC_OH_2021_05_O7
  10
299722.501
  20
4513370.000
  0
VERTEX
  8
LC_OH_2021_05_O7
  10
300141.501
  20
4513233.000
  0
VERTEX
  8
LC_OH_2021_05_O7
  10
300143.501
  20
4513232.500
  0
SEQEND
  8
LC_OH_2021_05_O7
  0
INSERT
  8
FeatureAttribs
  2
FEATURE
  41
1
  42
1
  43
1
  50
0
  10
291495.962
  20
4511008.250
 66
1
  0
ATTRIB
  8
FeatureAttribs
 70
0
  1
PNOA-H_AMS_1956-57_33k_ES_PAN_21mic_H50_0504_fot_61B-18253_W.tif
  2
NAME
  10
291495.962
  20
4511008.250
 40
34.51247
  0
SEQEND
  0
POLYLINE
  8
LC_OH_2021_05_O7
  70
1
  66
1
  0
VERTEX
  8
LC_OH_2021_05_O7
  10
291951.501
  20
4513264.500
  0
VERTEX
  8
LC_OH_2021_05_O7
  10
292981.501
  20
4513028.500
  0
VERTEX
  8
LC_OH_2021_05_O7
  10
292856.001
  20
4508722.500
  0
VERTEX
  8
LC_OH_2021_05_O7
  10
292469.501
  20
4508558.000
  0
VERTEX
  8
LC_OH_2021_05_O7
  10
292235.001
  20
4508508.000
  0
VERTEX
  8
LC_OH_2021_05_O7
  10
290029.501
  20
4508798.500
  0
VERTEX
  8
LC_OH_2021_05_O7
  10
290027.001
  20
4508799.000
  0
VERTEX
  8
LC_OH_2021_05_O7
  10
290027.001
  20
4508818.000
  0
VERTEX
  8
LC_OH_2021_05_O7
  10
290110.001
  20
4513113.000
  0
VERTEX
  8
LC_OH_2021_05_O7
  10
290887.501
  20
4513508.500
  0
VERTEX
  8
LC_OH_2021_05_O7
  10
291949.001
  20
4513265.000
  0
VERTEX
  8
LC_OH_2021_05_O7
  10
291951.501
  20
4513264.500
  0
SEQEND
  8
LC_OH_2021_05_O7
  0
INSERT
  8
FeatureAttribs
  2
FEATURE
  41
1
  42
1
  43
1
  50
0
  10
305516.603
  20
4510942.000
 66
1
  0
ATTRIB
  8
FeatureAttribs
 70
0
  1
PNOA-H_AMS_1956-57_33k_ES_PAN_21mic_H50_0504_fot_61B-18248_W.tif
  2
NAME
  10
305516.603
  20
4510942.000
 40
34.51247
  0
SEQEND
  0
POLYLINE
  8
LC_OH_2021_05_O7
  70
1
  66
1
  0
VERTEX
  8
LC_OH_2021_05_O7
  10
304238.501
  20
4512864.000
  0
VERTEX
  8
LC_OH_2021_05_O7
  10
305657.001
  20
4513384.000
  0
VERTEX
  8
LC_OH_2021_05_O7
  10
305668.001
  20
4513387.000
  0
VERTEX
  8
LC_OH_2021_05_O7
  10
306957.502
  20
4512808.500
  0
VERTEX
  8
LC_OH_2021_05_O7
  10
306759.002
  20
4508497.000
  0
VERTEX
  8
LC_OH_2021_05_O7
  10
304229.001
  20
4508520.500
  0
VERTEX
  8
LC_OH_2021_05_O7
  10
304109.501
  20
4512816.500
  0
VERTEX
  8
LC_OH_2021_05_O7
  10
304237.001
  20
4512863.500
  0
VERTEX
  8
LC_OH_2021_05_O7
  10
304238.501
  20
4512864.000
  0
SEQEND
  8
LC_OH_2021_05_O7
  0
INSERT
  8
FeatureAttribs
  2
FEATURE
  41
1
  42
1
  43
1
  50
0
  10
297197.326
  20
4510928.251
 66
1
  0
ATTRIB
  8
FeatureAttribs
 70
0
  1
PNOA-H_AMS_1956-57_33k_ES_PAN_21mic_H50_0504_fot_61B-18251_W.tif
  2
NAME
  10
297197.326
  20
4510928.251
 40
34.51247
  0
SEQEND
  0
POLYLINE
  8
LC_OH_2021_05_O7
  70
1
  66
1
  0
VERTEX
  8
LC_OH_2021_05_O7
  10
296046.501
  20
4513067.500
  0
VERTEX
  8
LC_OH_2021_05_O7
  10
296776.001
  20
4513414.500
  0
VERTEX
  8
LC_OH_2021_05_O7
  10
298628.501
  20
4512885.000
  0
VERTEX
  8
LC_OH_2021_05_O7
  10
298594.501
  20
4508647.500
  0
VERTEX
  8
LC_OH_2021_05_O7
  10
298593.501
  20
4508626.500
  0
VERTEX
  8
LC_OH_2021_05_O7
  10
298183.501
  20
4508442.000
  0
VERTEX
  8
LC_OH_2021_05_O7
  10
298178.001
  20
4508442.000
  0
VERTEX
  8
LC_OH_2021_05_O7
  10
295769.501
  20
4508688.500
  0
VERTEX
  8
LC_OH_2021_05_O7
  10
295793.001
  20
4512946.500
  0
VERTEX
  8
LC_OH_2021_05_O7
  10
296045.501
  20
4513067.000
  0
VERTEX
  8
LC_OH_2021_05_O7
  10
296046.501
  20
4513067.500
  0
SEQEND
  8
LC_OH_2021_05_O7
  0
INSERT
  8
FeatureAttribs
  2
FEATURE
  41
1
  42
1
  43
1
  50
0
  10
288648.938
  20
4511068.500
 66
1
  0
ATTRIB
  8
FeatureAttribs
 70
0
  1
PNOA-H_AMS_1956-57_33k_ES_PAN_21mic_H50_0504_fot_61B-18254_W.tif
  2
NAME
  10
288648.938
  20
4511068.500
 40
34.51247
  0
SEQEND
  0
POLYLINE
  8
LC_OH_2021_05_O7
  70
1
  66
1
  0
VERTEX
  8
LC_OH_2021_05_O7
  10
287854.001
  20
4513536.000
  0
VERTEX
  8
LC_OH_2021_05_O7
  10
287855.001
  20
4513536.500
  0
VERTEX
  8
LC_OH_2021_05_O7
  10
287931.001
  20
4513575.500
  0
VERTEX
  8
LC_OH_2021_05_O7
  10
287936.001
  20
4513577.000
  0
VERTEX
  8
LC_OH_2021_05_O7
  10
290110.001
  20
4513113.000
  0
VERTEX
  8
LC_OH_2021_05_O7
  10
290027.001
  20
4508799.000
  0
VERTEX
  8
LC_OH_2021_05_O7
  10
289784.001
  20
4508701.500
  0
VERTEX
  8
LC_OH_2021_05_O7
  10
289216.501
  20
4508563.500
  0
VERTEX
  8
LC_OH_2021_05_O7
  10
289198.001
  20
4508560.000
  0
VERTEX
  8
LC_OH_2021_05_O7
  10
287442.001
  20
4508789.500
  0
VERTEX
  8
LC_OH_2021_05_O7
  10
287261.001
  20
4508836.500
  0
VERTEX
  8
LC_OH_2021_05_O7
  10
287195.001
  20
4513198.000
  0
SEQEND
  8
LC_OH_2021_05_O7
  0
INSERT
  8
FeatureAttribs
  2
FEATURE
  41
1
  42
1
  43
1
  50
0
  10
292411.589
  20
4515365.750
 66
1
  0
ATTRIB
  8
FeatureAttribs
 70
0
  1
PNOA-H_AMS_1956-57_33k_ES_PAN_21mic_H50_0504_fot_60A-04442_E.tif
  2
NAME
  10
292411.589
  20
4515365.750
 40
34.51247
  0
SEQEND
  0
POLYLINE
  8
LC_OH_2021_05_O7
  70
1
  66
1
  0
VERTEX
  8
LC_OH_2021_05_O7
  10
292003.501
  20
4517703.500
  0
VERTEX
  8
LC_OH_2021_05_O7
  10
292007.001
  20
4517703.500
  0
VERTEX
  8
LC_OH_2021_05_O7
  10
292041.501
  20
4517694.500
  0
VERTEX
  8
LC_OH_2021_05_O7
  10
293923.001
  20
4517200.000
  0
VERTEX
  8
LC_OH_2021_05_O7
  10
293830.501
  20
4513444.500
  0
VERTEX
  8
LC_OH_2021_05_O7
  10
292981.501
  20
4513028.000
  0
VERTEX
  8
LC_OH_2021_05_O7
  10
290888.501
  20
4513508.500
  0
VERTEX
  8
LC_OH_2021_05_O7
  10
291004.501
  20
4517295.500
  0
VERTEX
  8
LC_OH_2021_05_O7
  10
292002.501
  20
4517703.000
  0
VERTEX
  8
LC_OH_2021_05_O7
  10
292003.501
  20
4517703.500
  0
SEQEND
  8
LC_OH_2021_05_O7
  0
INSERT
  8
FeatureAttribs
  2
FEATURE
  41
1
  42
1
  43
1
  50
0
  10
289485.725
  20
4515446.501
 66
1
  0
ATTRIB
  8
FeatureAttribs
 70
0
  1
PNOA-H_AMS_1956-57_33k_ES_PAN_21mic_H50_0504_fot_60A-04441_E.tif
  2
NAME
  10
289485.725
  20
4515446.501
 40
34.51247
  0
SEQEND
  0
POLYLINE
  8
LC_OH_2021_05_O7
  70
1
  66
1
  0
VERTEX
  8
LC_OH_2021_05_O7
  10
288116.501
  20
4517395.500
  0
VERTEX
  8
LC_OH_2021_05_O7
  10
288965.501
  20
4517780.000
  0
VERTEX
  8
LC_OH_2021_05_O7
  10
289901.001
  20
4517557.500
  0
VERTEX
  8
LC_OH_2021_05_O7
  10
289903.501
  20
4517557.000
  0
VERTEX
  8
LC_OH_2021_05_O7
  10
291004.501
  20
4517295.500
  0
VERTEX
  8
LC_OH_2021_05_O7
  10
290888.501
  20
4513508.500
  0
VERTEX
  8
LC_OH_2021_05_O7
  10
290109.501
  20
4513113.000
  0
VERTEX
  8
LC_OH_2021_05_O7
  10
287934.501
  20
4513577.000
  0
SEQEND
  8
LC_OH_2021_05_O7
  0
INSERT
  8
FeatureAttribs
  2
FEATURE
  41
1
  42
1
  43
1
  50
0
  10
287638.289
  20
4515381.010
 66
1
  0
ATTRIB
  8
FeatureAttribs
 70
0
  1
PNOA-H_AMS_1956-57_33k_ES_PAN_21mic_H50_0503_fot_60A-04440_E.tif
  2
NAME
  10
287638.289
  20
4515381.010
 40
34.51247
  0
SEQEND
  0
POLYLINE
  8
LC_OH_2021_05_O7
  70
1
  66
1
  0
VERTEX
  8
LC_OH_2021_05_O7
  10
287285.428
  20
4517564.519
  0
VERTEX
  8
LC_OH_2021_05_O7
  10
288116.501
  20
4517395.500
  0
VERTEX
  8
LC_OH_2021_05_O7
  10
287935.001
  20
4513578.500
  0
VERTEX
  8
LC_OH_2021_05_O7
  10
287934.001
  20
4513576.500
  0
VERTEX
  8
LC_OH_2021_05_O7
  10
287930.501
  20
4513574.500
  0
VERTEX
  8
LC_OH_2021_05_O7
  10
287214.001
  20
4513207.000
  0
VERTEX
  8
LC_OH_2021_05_O7
  10
287194.001
  20
4513197.500
  0
VERTEX
  8
LC_OH_2021_05_O7
  10
287160.077
  20
4513203.744
  0
VERTEX
  8
LC_OH_2021_05_O7
  10
287184.746
  20
4514062.321
  0
VERTEX
  8
LC_OH_2021_05_O7
  10
287251.229
  20
4516375.256
  0
SEQEND
  8
LC_OH_2021_05_O7
  0
INSERT
  8
FeatureAttribs
  2
FEATURE
  41
1
  42
1
  43
1
  50
0
  10
304199.603
  20
4515033.000
 66
1
  0
ATTRIB
  8
FeatureAttribs
 70
0
  1
PNOA-H_AMS_1956-57_33k_ES_PAN_21mic_H50_0504_fot_60A-04446_E.tif
  2
NAME
  10
304199.603
  20
4515033.000
 40
34.51247
  0
SEQEND
  0
POLYLINE
  8
LC_OH_2021_05_O7
  70
1
  66
1
  0
VERTEX
  8
LC_OH_2021_05_O7
  10
304239.501
  20
4517134.500
  0
VERTEX
  8
LC_OH_2021_05_O7
  10
305695.501
  20
4516926.000
  0
VERTEX
  8
LC_OH_2021_05_O7
  10
305667.001
  20
4513391.500
  0
VERTEX
  8
LC_OH_2021_05_O7
  10
305666.501
  20
4513387.000
  0
VERTEX
  8
LC_OH_2021_05_O7
  10
305661.501
  20
4513385.000
  0
VERTEX
  8
LC_OH_2021_05_O7
  10
304110.001
  20
4512816.500
  0
VERTEX
  8
LC_OH_2021_05_O7
  10
302701.001
  20
4513353.000
  0
VERTEX
  8
LC_OH_2021_05_O7
  10
302739.001
  20
4516904.500
  0
VERTEX
  8
LC_OH_2021_05_O7
  10
303434.501
  20
4517249.500
  0
VERTEX
  8
LC_OH_2021_05_O7
  10
304237.501
  20
4517134.500
  0
VERTEX
  8
LC_OH_2021_05_O7
  10
304239.501
  20
4517134.500
  0
SEQEND
  8
LC_OH_2021_05_O7
  0
INSERT
  8
FeatureAttribs
  2
FEATURE
  41
1
  42
1
  43
1
  50
0
  10
298303.825
  20
4515148.001
 66
1
  0
ATTRIB
  8
FeatureAttribs
 70
0
  1
PNOA-H_AMS_1956-57_33k_ES_PAN_21mic_H50_0504_fot_60A-04444_E.tif
  2
NAME
  10
298303.825
  20
4515148.001
 40
34.51247
  0
SEQEND
  0
POLYLINE
  8
LC_OH_2021_05_O7
  70
1
  66
1
  0
VERTEX
  8
LC_OH_2021_05_O7
  10
298095.501
  20
4517313.500
  0
VERTEX
  8
LC_OH_2021_05_O7
  10
299837.001
  20
4516939.500
  0
VERTEX
  8
LC_OH_2021_05_O7
  10
299722.501
  20
4513369.500
  0
VERTEX
  8
LC_OH_2021_05_O7
  10
298629.501
  20
4512885.000
  0
VERTEX
  8
LC_OH_2021_05_O7
  10
298625.001
  20
4512885.500
  0
VERTEX
  8
LC_OH_2021_05_O7
  10
296775.001
  20
4513414.500
  0
VERTEX
  8
LC_OH_2021_05_O7
  10
296887.501
  20
4517086.500
  0
VERTEX
  8
LC_OH_2021_05_O7
  10
297641.001
  20
4517411.000
  0
VERTEX
  8
LC_OH_2021_05_O7
  10
298094.001
  20
4517313.500
  0
VERTEX
  8
LC_OH_2021_05_O7
  10
298095.501
  20
4517313.500
  0
SEQEND
  8
LC_OH_2021_05_O7
  0
INSERT
  8
FeatureAttribs
  2
FEATURE
  41
1
  42
1
  43
1
  50
0
  10
295353.378
  20
4515256.500
 66
1
  0
ATTRIB
  8
FeatureAttribs
 70
0
  1
PNOA-H_AMS_1956-57_33k_ES_PAN_21mic_H50_0504_fot_60A-04443_E.tif
  2
NAME
  10
295353.378
  20
4515256.500
 40
34.51247
  0
SEQEND
  0
POLYLINE
  8
LC_OH_2021_05_O7
  70
1
  66
1
  0
VERTEX
  8
LC_OH_2021_05_O7
  10
293999.001
  20
4517229.500
  0
VERTEX
  8
LC_OH_2021_05_O7
  10
294860.001
  20
4517565.000
  0
VERTEX
  8
LC_OH_2021_05_O7
  10
294867.001
  20
4517566.500
  0
VERTEX
  8
LC_OH_2021_05_O7
  10
296887.501
  20
4517086.500
  0
VERTEX
  8
LC_OH_2021_05_O7
  10
296775.501
  20
4513417.000
  0
VERTEX
  8
LC_OH_2021_05_O7
  10
296774.501
  20
4513414.000
  0
VERTEX
  8
LC_OH_2021_05_O7
  10
295801.501
  20
4512950.000
  0
VERTEX
  8
LC_OH_2021_05_O7
  10
295792.001
  20
4512946.500
  0
VERTEX
  8
LC_OH_2021_05_O7
  10
293830.501
  20
4513444.500
  0
VERTEX
  8
LC_OH_2021_05_O7
  10
293923.001
  20
4517199.500
  0
VERTEX
  8
LC_OH_2021_05_O7
  10
293998.001
  20
4517229.000
  0
VERTEX
  8
LC_OH_2021_05_O7
  10
293999.001
  20
4517229.500
  0
SEQEND
  8
LC_OH_2021_05_O7
  0
INSERT
  8
FeatureAttribs
  2
FEATURE
  41
1
  42
1
  43
1
  50
0
  10
291079.749
  20
4506326.250
 66
1
  0
ATTRIB
  8
FeatureAttribs
 70
0
  1
PNOA-H_AMS_1956-57_33k_ES_PAN_21mic_H50_0504_fot_62C-05349_E.tif
  2
NAME
  10
291079.749
  20
4506326.250
 40
34.51247
  0
SEQEND
  0
POLYLINE
  8
LC_OH_2021_05_O7
  70
1
  66
1
  0
VERTEX
  8
LC_OH_2021_05_O7
  10
291564.269
  20
4504679.015
  0
VERTEX
  8
LC_OH_2021_05_O7
  10
290662.721
  20
4504704.238
  0
VERTEX
  8
LC_OH_2021_05_O7
  10
289784.001
  20
4508702.000
  0
VERTEX
  8
LC_OH_2021_05_O7
  10
290024.501
  20
4508798.500
  0
VERTEX
  8
LC_OH_2021_05_O7
  10
290029.501
  20
4508799.000
  0
VERTEX
  8
LC_OH_2021_05_O7
  10
291950.501
  20
4508545.500
  0
VERTEX
  8
LC_OH_2021_05_O7
  10
291951.501
  20
4508545.500
  0
VERTEX
  8
LC_OH_2021_05_O7
  10
292235.001
  20
4508508.500
  0
VERTEX
  8
LC_OH_2021_05_O7
  10
292236.001
  20
4508507.500
  0
SEQEND
  8
LC_OH_2021_05_O7
  0
INSERT
  8
FeatureAttribs
  2
FEATURE
  41
1
  42
1
  43
1
  50
0
  10
310113.806
  20
4514952.500
 66
1
  0
ATTRIB
  8
FeatureAttribs
 70
0
  1
PNOA-H_AMS_1956-57_33k_ES_PAN_21mic_H50_0504_fot_60A-04448_E.tif
  2
NAME
  10
310113.806
  20
4514952.500
 40
34.51247
  0
SEQEND
  0
POLYLINE
  8
LC_OH_2021_05_O7
  70
1
  66
1
  0
VERTEX
  8
LC_OH_2021_05_O7
  10
310383.502
  20
4517032.500
  0
VERTEX
  8
LC_OH_2021_05_O7
  10
311625.502
  20
4516917.500
  0
VERTEX
  8
LC_OH_2021_05_O7
  10
311575.002
  20
4513120.500
  0
VERTEX
  8
LC_OH_2021_05_O7
  10
309698.502
  20
4512744.500
  0
VERTEX
  8
LC_OH_2021_05_O7
  10
309695.502
  20
4512744.500
  0
VERTEX
  8
LC_OH_2021_05_O7
  10
308618.002
  20
4513280.500
  0
VERTEX
  8
LC_OH_2021_05_O7
  10
308640.502
  20
4516956.000
  0
VERTEX
  8
LC_OH_2021_05_O7
  10
309005.002
  20
4517160.500
  0
VERTEX
  8
LC_OH_2021_05_O7
  10
310382.002
  20
4517032.500
  0
VERTEX
  8
LC_OH_2021_05_O7
  10
310383.502
  20
4517032.500
  0
SEQEND
  8
LC_OH_2021_05_O7
  0
INSERT
  8
FeatureAttribs
  2
FEATURE
  41
1
  42
1
  43
1
  50
0
  10
288288.170
  20
4506333.499
 66
1
  0
ATTRIB
  8
FeatureAttribs
 70
0
  1
PNOA-H_AMS_1956-57_33k_ES_PAN_21mic_H50_0504_fot_62C-05348_E.tif
  2
NAME
  10
288288.170
  20
4506333.499
 40
34.51247
  0
SEQEND
  0
POLYLINE
  8
LC_OH_2021_05_O7
  70
1
  66
1
  0
VERTEX
  8
LC_OH_2021_05_O7
  10
288869.907
  20
4504755.142
  0
VERTEX
  8
LC_OH_2021_05_O7
  10
287650.303
  20
4504789.842
  0
VERTEX
  8
LC_OH_2021_05_O7
  10
287440.501
  20
4508787.000
  0
VERTEX
  8
LC_OH_2021_05_O7
  10
287440.501
  20
4508790.000
  0
VERTEX
  8
LC_OH_2021_05_O7
  10
289200.501
  20
4508560.000
  0
SEQEND
  8
LC_OH_2021_05_O7
  0
INSERT
  8
FeatureAttribs
  2
FEATURE
  41
1
  42
1
  43
1
  50
0
  10
307154.194
  20
4515010.500
 66
1
  0
ATTRIB
  8
FeatureAttribs
 70
0
  1
PNOA-H_AMS_1956-57_33k_ES_PAN_21mic_H50_0504_fot_60A-04447_E.tif
  2
NAME
  10
307154.194
  20
4515010.500
 40
34.51247
  0
SEQEND
  0
POLYLINE
  8
LC_OH_2021_05_O7
  70
1
  66
1
  0
VERTEX
  8
LC_OH_2021_05_O7
  10
306228.501
  20
4517212.500
  0
VERTEX
  8
LC_OH_2021_05_O7
  10
308640.502
  20
4516956.000
  0
VERTEX
  8
LC_OH_2021_05_O7
  10
308618.002
  20
4513280.500
  0
VERTEX
  8
LC_OH_2021_05_O7
  10
306957.002
  20
4512808.500
  0
VERTEX
  8
LC_OH_2021_05_O7
  10
305666.501
  20
4513387.000
  0
VERTEX
  8
LC_OH_2021_05_O7
  10
305695.501
  20
4516926.000
  0
VERTEX
  8
LC_OH_2021_05_O7
  10
306228.001
  20
4517211.500
  0
VERTEX
  8
LC_OH_2021_05_O7
  10
306228.501
  20
4517212.500
  0
SEQEND
  8
LC_OH_2021_05_O7
  0
INSERT
  8
FeatureAttribs
  2
FEATURE
  41
1
  42
1
  43
1
  50
0
  10
293956.431
  20
4506277.000
 66
1
  0
ATTRIB
  8
FeatureAttribs
 70
0
  1
PNOA-H_AMS_1956-57_33k_ES_PAN_21mic_H50_0504_fot_62C-05350_E.tif
  2
NAME
  10
293956.431
  20
4506277.000
 40
34.51247
  0
SEQEND
  0
POLYLINE
  8
LC_OH_2021_05_O7
  70
1
  66
1
  0
VERTEX
  8
LC_OH_2021_05_O7
  10
294307.218
  20
4504602.438
  0
VERTEX
  8
LC_OH_2021_05_O7
  10
293963.751
  20
4504611.884
  0
VERTEX
  8
LC_OH_2021_05_O7
  10
293591.260
  20
4504622.305
  0
VERTEX
  8
LC_OH_2021_05_O7
  10
292469.001
  20
4508557.500
  0
VERTEX
  8
LC_OH_2021_05_O7
  10
292488.001
  20
4508566.500
  0
VERTEX
  8
LC_OH_2021_05_O7
  10
292854.001
  20
4508722.000
  0
VERTEX
  8
LC_OH_2021_05_O7
  10
292855.001
  20
4508722.500
  0
VERTEX
  8
LC_OH_2021_05_O7
  10
295259.501
  20
4508465.500
  0
VERTEX
  8
LC_OH_2021_05_O7
  10
295253.001
  20
4507865.000
  0
VERTEX
  8
LC_OH_2021_05_O7
  10
295252.001
  20
4507856.000
  0
SEQEND
  8
LC_OH_2021_05_O7
  0
INSERT
  8
FeatureAttribs
  2
FEATURE
  41
1
  42
1
  43
1
  50
0
  10
299686.900
  20
4506350.500
 66
1
  0
ATTRIB
  8
FeatureAttribs
 70
0
  1
PNOA-H_AMS_1956-57_33k_ES_PAN_21mic_H50_0504_fot_62C-05352_E.tif
  2
NAME
  10
299686.900
  20
4506350.500
 40
34.51247
  0
SEQEND
  0
POLYLINE
  8
LC_OH_2021_05_O7
  70
1
  66
1
  0
VERTEX
  8
LC_OH_2021_05_O7
  10
299810.845
  20
4504452.178
  0
VERTEX
  8
LC_OH_2021_05_O7
  10
299444.533
  20
4504462.078
  0
VERTEX
  8
LC_OH_2021_05_O7
  10
298165.501
  20
4507323.500
  0
VERTEX
  8
LC_OH_2021_05_O7
  10
298182.001
  20
4508442.000
  0
VERTEX
  8
LC_OH_2021_05_O7
  10
298590.001
  20
4508625.500
  0
VERTEX
  8
LC_OH_2021_05_O7
  10
298593.501
  20
4508627.000
  0
VERTEX
  8
LC_OH_2021_05_O7
  10
298597.501
  20
4508627.000
  0
VERTEX
  8
LC_OH_2021_05_O7
  10
301142.501
  20
4508435.500
  0
VERTEX
  8
LC_OH_2021_05_O7
  10
301106.501
  20
4507006.500
  0
VERTEX
  8
LC_OH_2021_05_O7
  10
300749.501
  20
4506303.500
  0
VERTEX
  8
LC_OH_2021_05_O7
  10
300749.001
  20
4506302.500
  0
SEQEND
  8
LC_OH_2021_05_O7
  0
INSERT
  8
FeatureAttribs
  2
FEATURE
  41
1
  42
1
  43
1
  50
0
  10
296798.069
  20
4506267.500
 66
1
  0
ATTRIB
  8
FeatureAttribs
 70
0
  1
PNOA-H_AMS_1956-57_33k_ES_PAN_21mic_H50_0504_fot_62C-05351_E.tif
  2
NAME
  10
296798.069
  20
4506267.500
 40
34.51247
  0
SEQEND
  0
POLYLINE
  8
LC_OH_2021_05_O7
  70
1
  66
1
  0
VERTEX
  8
LC_OH_2021_05_O7
  10
297046.657
  20
4504527.096
  0
VERTEX
  8
LC_OH_2021_05_O7
  10
296504.067
  20
4504542.019
  0
VERTEX
  8
LC_OH_2021_05_O7
  10
295252.501
  20
4507859.000
  0
VERTEX
  8
LC_OH_2021_05_O7
  10
295259.501
  20
4508466.000
  0
VERTEX
  8
LC_OH_2021_05_O7
  10
295770.001
  20
4508688.500
  0
VERTEX
  8
LC_OH_2021_05_O7
  10
298094.501
  20
4508450.500
  0
VERTEX
  8
LC_OH_2021_05_O7
  10
298095.501
  20
4508450.500
  0
VERTEX
  8
LC_OH_2021_05_O7
  10
298182.001
  20
4508442.000
  0
VERTEX
  8
LC_OH_2021_05_O7
  10
298165.501
  20
4507323.000
  0
SEQEND
  8
LC_OH_2021_05_O7
  0
INSERT
  8
FeatureAttribs
  2
FEATURE
  41
1
  42
1
  43
1
  50
0
  10
313110.869
  20
4514917.500
 66
1
  0
ATTRIB
  8
FeatureAttribs
 70
0
  1
PNOA-H_AMS_1956-57_33k_ES_PAN_21mic_H50_0504_fot_60A-04449_E.tif
  2
NAME
  10
313110.869
  20
4514917.500
 40
34.51247
  0
SEQEND
  0
POLYLINE
  8
LC_OH_2021_05_O7
  70
1
  66
1
  0
VERTEX
  8
LC_OH_2021_05_O7
  10
311625.502
  20
4516917.500
  0
VERTEX
  8
LC_OH_2021_05_O7
  10
311916.502
  20
4517091.000
  0
VERTEX
  8
LC_OH_2021_05_O7
  10
311917.002
  20
4517092.000
  0
VERTEX
  8
LC_OH_2021_05_O7
  10
314664.502
  20
4516907.500
  0
VERTEX
  8
LC_OH_2021_05_O7
  10
314581.502
  20
4512945.500
  0
VERTEX
  8
LC_OH_2021_05_O7
  10
312240.502
  20
4512743.000
  0
VERTEX
  8
LC_OH_2021_05_O7
  10
311575.002
  20
4513120.500
  0
SEQEND
  8
LC_OH_2021_05_O7
  0
INSERT
  8
FeatureAttribs
  2
FEATURE
  41
1
  42
1
  43
1
  50
0
  10
302614.935
  20
4506336.501
 66
1
  0
ATTRIB
  8
FeatureAttribs
 70
0
  1
PNOA-H_AMS_1956-57_33k_ES_PAN_21mic_H50_0504_fot_62C-05353_E.tif
  2
NAME
  10
302614.935
  20
4506336.501
 40
34.51247
  0
SEQEND
  0
POLYLINE
  8
LC_OH_2021_05_O7
  70
1
  66
1
  0
VERTEX
  8
LC_OH_2021_05_O7
  10
302580.309
  20
4504378.071
  0
VERTEX
  8
LC_OH_2021_05_O7
  10
302298.606
  20
4504385.552
  0
VERTEX
  8
LC_OH_2021_05_O7
  10
301106.501
  20
4507007.000
  0
VERTEX
  8
LC_OH_2021_05_O7
  10
301142.001
  20
4508431.000
  0
VERTEX
  8
LC_OH_2021_05_O7
  10
301143.001
  20
4508436.000
  0
VERTEX
  8
LC_OH_2021_05_O7
  10
301386.501
  20
4508550.000
  0
VERTEX
  8
LC_OH_2021_05_O7
  10
301393.501
  20
4508550.000
  0
VERTEX
  8
LC_OH_2021_05_O7
  10
304055.501
  20
4508434.500
  0
VERTEX
  8
LC_OH_2021_05_O7
  10
304025.501
  20
4506664.000
  0
SEQEND
  8
LC_OH_2021_05_O7
  0
INSERT
  8
FeatureAttribs
  2
FEATURE
  41
1
  42
1
  43
1
  50
0
  10
301248.023
  20
4515061.501
 66
1
  0
ATTRIB
  8
FeatureAttribs
 70
0
  1
PNOA-H_AMS_1956-57_33k_ES_PAN_21mic_H50_0504_fot_60A-04445_E.tif
  2
NAME
  10
301248.023
  20
4515061.501
 40
34.51247
  0
SEQEND
  0
POLYLINE
  8
LC_OH_2021_05_O7
  70
1
  66
1
  0
VERTEX
  8
LC_OH_2021_05_O7
  10
300142.501
  20
4517082.000
  0
VERTEX
  8
LC_OH_2021_05_O7
  10
300603.501
  20
4517297.000
  0
VERTEX
  8
LC_OH_2021_05_O7
  10
300609.001
  20
4517299.500
  0
VERTEX
  8
LC_OH_2021_05_O7
  10
300612.501
  20
4517299.500
  0
VERTEX
  8
LC_OH_2021_05_O7
  10
302739.001
  20
4516904.500
  0
VERTEX
  8
LC_OH_2021_05_O7
  10
302701.001
  20
4513353.000
  0
VERTEX
  8
LC_OH_2021_05_O7
  10
301397.501
  20
4512823.500
  0
VERTEX
  8
LC_OH_2021_05_O7
  10
299722.501
  20
4513370.000
  0
VERTEX
  8
LC_OH_2021_05_O7
  10
299837.001
  20
4516939.500
  0
VERTEX
  8
LC_OH_2021_05_O7
  10
300141.501
  20
4517081.500
  0
VERTEX
  8
LC_OH_2021_05_O7
  10
300142.501
  20
4517082.000
  0
SEQEND
  8
LC_OH_2021_05_O7
  0
INSERT
  8
FeatureAttribs
  2
FEATURE
  41
1
  42
1
  43
1
  50
0
  10
314301.332
  20
4506003.750
 66
1
  0
ATTRIB
  8
FeatureAttribs
 70
0
  1
PNOA-H_AMS_1956-57_33k_ES_PAN_21mic_H50_0504_fot_62C-05357_E.tif
  2
NAME
  10
314301.332
  20
4506003.750
 40
34.51247
  0
SEQEND
  0
POLYLINE
  8
LC_OH_2021_05_O7
  70
1
  66
1
  0
VERTEX
  8
LC_OH_2021_05_O7
  10
315192.032
  20
4507858.901
  0
VERTEX
  8
LC_OH_2021_05_O7
  10
315154.912
  20
4506368.561
  0
VERTEX
  8
LC_OH_2021_05_O7
  10
315097.329
  20
4504055.737
  0
VERTEX
  8
LC_OH_2021_05_O7
  10
312857.923
  20
4504112.011
  0
VERTEX
  8
LC_OH_2021_05_O7
  10
312877.502
  20
4507821.500
  0
VERTEX
  8
LC_OH_2021_05_O7
  10
314239.502
  20
4508167.000
  0
VERTEX
  8
LC_OH_2021_05_O7
  10
314249.002
  20
4508165.000
  0
VERTEX
  8
LC_OH_2021_05_O7
  10
314478.502
  20
4508090.000
  0
VERTEX
  8
LC_OH_2021_05_O7
  10
314479.502
  20
4508090.000
  0
SEQEND
  8
LC_OH_2021_05_O7
  0
INSERT
  8
FeatureAttribs
  2
FEATURE
  41
1
  42
1
  43
1
  50
0
  10
305571.501
  20
4506350.251
 66
1
  0
ATTRIB
  8
FeatureAttribs
 70
0
  1
PNOA-H_AMS_1956-57_33k_ES_PAN_21mic_H50_0504_fot_62C-05354_E.tif
  2
NAME
  10
305571.501
  20
4506350.251
 40
34.51247
  0
SEQEND
  0
POLYLINE
  8
LC_OH_2021_05_O7
  70
1
  66
1
  0
VERTEX
  8
LC_OH_2021_05_O7
  10
305368.372
  20
4504304.437
  0
VERTEX
  8
LC_OH_2021_05_O7
  10
305205.912
  20
4504308.674
  0
VERTEX
  8
LC_OH_2021_05_O7
  10
304025.501
  20
4506664.500
  0
VERTEX
  8
LC_OH_2021_05_O7
  10
304055.501
  20
4508434.500
  0
VERTEX
  8
LC_OH_2021_05_O7
  10
304227.001
  20
4508520.000
  0
VERTEX
  8
LC_OH_2021_05_O7
  10
304228.001
  20
4508520.500
  0
VERTEX
  8
LC_OH_2021_05_O7
  10
306758.502
  20
4508497.000
  0
VERTEX
  8
LC_OH_2021_05_O7
  10
306992.002
  20
4508378.000
  0
VERTEX
  8
LC_OH_2021_05_O7
  10
306960.002
  20
4506349.000
  0
SEQEND
  8
LC_OH_2021_05_O7
  0
INSERT
  8
FeatureAttribs
  2
FEATURE
  41
1
  42
1
  43
1
  50
0
  10
315000.207
  20
4514743.973
 66
1
  0
ATTRIB
  8
FeatureAttribs
 70
0
  1
PNOA-H_AMS_1956-57_33k_ES_PAN_21mic_H50_0505_fot_60A-04450_E.tif
  2
NAME
  10
315000.207
  20
4514743.973
 40
34.51247
  0
SEQEND
  0
POLYLINE
  8
LC_OH_2021_05_O7
  70
1
  66
1
  0
VERTEX
  8
LC_OH_2021_05_O7
  10
315418.912
  20
4516959.599
  0
VERTEX
  8
LC_OH_2021_05_O7
  10
315385.487
  20
4515619.930
  0
VERTEX
  8
LC_OH_2021_05_O7
  10
315327.807
  20
4513307.077
  0
VERTEX
  8
LC_OH_2021_05_O7
  10
315308.110
  20
4512516.946
  0
VERTEX
  8
LC_OH_2021_05_O7
  10
315199.502
  20
4512525.000
  0
VERTEX
  8
LC_OH_2021_05_O7
  10
314581.502
  20
4512945.500
  0
VERTEX
  8
LC_OH_2021_05_O7
  10
314664.502
  20
4516907.500
  0
VERTEX
  8
LC_OH_2021_05_O7
  10
314765.502
  20
4516970.000
  0
VERTEX
  8
LC_OH_2021_05_O7
  10
314766.002
  20
4516971.000
  0
SEQEND
  8
LC_OH_2021_05_O7
  0
INSERT
  8
FeatureAttribs
  2
FEATURE
  41
1
  42
1
  43
1
  50
0
  10
308485.836
  20
4506184.001
 66
1
  0
ATTRIB
  8
FeatureAttribs
 70
0
  1
PNOA-H_AMS_1956-57_33k_ES_PAN_21mic_H50_0504_fot_62C-05355_E.tif
  2
NAME
  10
308485.836
  20
4506184.001
 40
34.51247
  0
SEQEND
  0
POLYLINE
  8
LC_OH_2021_05_O7
  70
1
  66
1
  0
VERTEX
  8
LC_OH_2021_05_O7
  10
309886.057
  20
4504187.493
  0
VERTEX
  8
LC_OH_2021_05_O7
  10
308142.949
  20
4504232.124
  0
VERTEX
  8
LC_OH_2021_05_O7
  10
306960.002
  20
4506349.000
  0
VERTEX
  8
LC_OH_2021_05_O7
  10
306992.002
  20
4508378.000
  0
VERTEX
  8
LC_OH_2021_05_O7
  10
308320.002
  20
4508423.500
  0
VERTEX
  8
LC_OH_2021_05_O7
  10
308334.502
  20
4508424.000
  0
VERTEX
  8
LC_OH_2021_05_O7
  10
309351.002
  20
4508458.500
  0
VERTEX
  8
LC_OH_2021_05_O7
  10
309952.002
  20
4508174.500
  0
VERTEX
  8
LC_OH_2021_05_O7
  10
309952.502
  20
4508159.000
  0
SEQEND
  8
LC_OH_2021_05_O7
  0
INSERT
  8
FeatureAttribs
  2
FEATURE
  41
1
  42
1
  43
1
  50
0
  10
311393.081
  20
4506092.750
 66
1
  0
ATTRIB
  8
FeatureAttribs
 70
0
  1
PNOA-H_AMS_1956-57_33k_ES_PAN_21mic_H50_0504_fot_62C-05356_E.tif
  2
NAME
  10
311393.081
  20
4506092.750
 40
34.51247
  0
SEQEND
  0
POLYLINE
  8
LC_OH_2021_05_O7
  70
1
  66
1
  0
VERTEX
  8
LC_OH_2021_05_O7
  10
312857.923
  20
4504112.011
  0
VERTEX
  8
LC_OH_2021_05_O7
  10
311575.105
  20
4504144.247
  0
VERTEX
  8
LC_OH_2021_05_O7
  10
309886.060
  20
4504187.493
  0
VERTEX
  8
LC_OH_2021_05_O7
  10
309952.502
  20
4508174.000
  0
VERTEX
  8
LC_OH_2021_05_O7
  10
310377.002
  20
4508216.000
  0
VERTEX
  8
LC_OH_2021_05_O7
  10
310382.502
  20
4508216.500
  0
VERTEX
  8
LC_OH_2021_05_O7
  10
311476.002
  20
4508324.000
  0
VERTEX
  8
LC_OH_2021_05_O7
  10
312877.502
  20
4507821.500
  0
SEQEND
  8
LC_OH_2021_05_O7
  0
INSERT
  8
FeatureAttribs
  2
FEATURE
  41
1
  42
1
  43
1
  50
0
  10
310504.957
  20
4519332.999
 66
1
  0
ATTRIB
  8
FeatureAttribs
 70
0
  1
PNOA-H_AMS_1956-57_33k_ES_PAN_21mic_H50_0504_fot_59B-29261_W.tif
  2
NAME
  10
310504.957
  20
4519332.999
 40
34.51247
  0
SEQEND
  0
POLYLINE
  8
LC_OH_2021_05_O7
  70
1
  66
1
  0
VERTEX
  8
LC_OH_2021_05_O7
  10
309119.502
  20
4521412.000
  0
VERTEX
  8
LC_OH_2021_05_O7
  10
309934.002
  20
4521748.500
  0
VERTEX
  8
LC_OH_2021_05_O7
  10
310382.002
  20
4521670.500
  0
VERTEX
  8
LC_OH_2021_05_O7
  10
310383.502
  20
4521670.500
  0
VERTEX
  8
LC_OH_2021_05_O7
  10
311972.502
  20
4521394.500
  0
VERTEX
  8
LC_OH_2021_05_O7
  10
311917.502
  20
4517092.000
  0
VERTEX
  8
LC_OH_2021_05_O7
  10
311626.502
  20
4516917.500
  0
VERTEX
  8
LC_OH_2021_05_O7
  10
309005.502
  20
4517160.500
  0
VERTEX
  8
LC_OH_2021_05_O7
  10
309119.502
  20
4521412.000
  0
SEQEND
  8
LC_OH_2021_05_O7
  0
INSERT
  8
FeatureAttribs
  2
FEATURE
  41
1
  42
1
  43
1
  50
0
  10
304825.708
  20
4519341.500
 66
1
  0
ATTRIB
  8
FeatureAttribs
 70
0
  1
PNOA-H_AMS_1956-57_33k_ES_PAN_21mic_H50_0504_fot_59B-29263_W.tif
  2
NAME
  10
304825.708
  20
4519341.500
 40
34.51247
  0
SEQEND
  0
POLYLINE
  8
LC_OH_2021_05_O7
  70
1
  66
1
  0
VERTEX
  8
LC_OH_2021_05_O7
  10
304184.001
  20
4521757.000
  0
VERTEX
  8
LC_OH_2021_05_O7
  10
304238.001
  20
4521748.500
  0
VERTEX
  8
LC_OH_2021_05_O7
  10
304239.501
  20
4521748.500
  0
VERTEX
  8
LC_OH_2021_05_O7
  10
306216.501
  20
4521433.000
  0
VERTEX
  8
LC_OH_2021_05_O7
  10
306229.001
  20
4517212.500
  0
VERTEX
  8
LC_OH_2021_05_O7
  10
305696.001
  20
4516926.000
  0
VERTEX
  8
LC_OH_2021_05_O7
  10
303435.001
  20
4517249.500
  0
VERTEX
  8
LC_OH_2021_05_O7
  10
303422.501
  20
4521409.500
  0
VERTEX
  8
LC_OH_2021_05_O7
  10
304184.001
  20
4521757.000
  0
SEQEND
  8
LC_OH_2021_05_O7
  0
INSERT
  8
FeatureAttribs
  2
FEATURE
  41
1
  42
1
  43
1
  50
0
  10
302029.856
  20
4519310.000
 66
1
  0
ATTRIB
  8
FeatureAttribs
 70
0
  1
PNOA-H_AMS_1956-57_33k_ES_PAN_21mic_H50_0504_fot_59B-29264_W.tif
  2
NAME
  10
302029.856
  20
4519310.000
 40
34.51247
  0
SEQEND
  0
POLYLINE
  8
LC_OH_2021_05_O7
  70
1
  66
1
  0
VERTEX
  8
LC_OH_2021_05_O7
  10
300652.501
  20
4521389.500
  0
VERTEX
  8
LC_OH_2021_05_O7
  10
301350.501
  20
4521715.500
  0
VERTEX
  8
LC_OH_2021_05_O7
  10
302189.001
  20
4521591.500
  0
VERTEX
  8
LC_OH_2021_05_O7
  10
302191.501
  20
4521591.500
  0
VERTEX
  8
LC_OH_2021_05_O7
  10
303422.501
  20
4521409.500
  0
VERTEX
  8
LC_OH_2021_05_O7
  10
303435.001
  20
4517249.500
  0
VERTEX
  8
LC_OH_2021_05_O7
  10
302740.001
  20
4516904.500
  0
VERTEX
  8
LC_OH_2021_05_O7
  10
300610.001
  20
4517299.500
  0
VERTEX
  8
LC_OH_2021_05_O7
  10
300652.501
  20
4521389.500
  0
SEQEND
  8
LC_OH_2021_05_O7
  0
INSERT
  8
FeatureAttribs
  2
FEATURE
  41
1
  42
1
  43
1
  50
0
  10
296388.693
  20
4519449.751
 66
1
  0
ATTRIB
  8
FeatureAttribs
 70
0
  1
PNOA-H_AMS_1956-57_33k_ES_PAN_21mic_H50_0504_fot_59B-29266_W.tif
  2
NAME
  10
296388.693
  20
4519449.751
 40
34.51247
  0
SEQEND
  0
POLYLINE
  8
LC_OH_2021_05_O7
  70
1
  66
1
  0
VERTEX
  8
LC_OH_2021_05_O7
  10
295091.501
  20
4521565.000
  0
VERTEX
  8
LC_OH_2021_05_O7
  10
295568.501
  20
4521813.000
  0
VERTEX
  8
LC_OH_2021_05_O7
  10
296046.001
  20
4521745.000
  0
VERTEX
  8
LC_OH_2021_05_O7
  10
296047.501
  20
4521745.000
  0
VERTEX
  8
LC_OH_2021_05_O7
  10
297968.501
  20
4521470.500
  0
VERTEX
  8
LC_OH_2021_05_O7
  10
297641.501
  20
4517411.000
  0
VERTEX
  8
LC_OH_2021_05_O7
  10
296888.001
  20
4517086.500
  0
VERTEX
  8
LC_OH_2021_05_O7
  10
294865.001
  20
4517566.500
  0
VERTEX
  8
LC_OH_2021_05_O7
  10
295091.501
  20
4521565.000
  0
SEQEND
  8
LC_OH_2021_05_O7
  0
INSERT
  8
FeatureAttribs
  2
FEATURE
  41
1
  42
1
  43
1
  50
0
  10
307643.924
  20
4519383.000
 66
1
  0
ATTRIB
  8
FeatureAttribs
 70
0
  1
PNOA-H_AMS_1956-57_33k_ES_PAN_21mic_H50_0504_fot_59B-29262_W.tif
  2
NAME
  10
307643.924
  20
4519383.000
 40
34.51247
  0
SEQEND
  0
POLYLINE
  8
LC_OH_2021_05_O7
  70
1
  66
1
  0
VERTEX
  8
LC_OH_2021_05_O7
  10
306285.501
  20
4521464.000
  0
VERTEX
  8
LC_OH_2021_05_O7
  10
306286.501
  20
4521464.500
  0
VERTEX
  8
LC_OH_2021_05_O7
  10
307059.502
  20
4521809.000
  0
VERTEX
  8
LC_OH_2021_05_O7
  10
307066.002
  20
4521810.000
  0
VERTEX
  8
LC_OH_2021_05_O7
  10
309119.502
  20
4521412.000
  0
VERTEX
  8
LC_OH_2021_05_O7
  10
309006.002
  20
4517165.000
  0
VERTEX
  8
LC_OH_2021_05_O7
  10
309005.502
  20
4517160.500
  0
VERTEX
  8
LC_OH_2021_05_O7
  10
309003.502
  20
4517159.000
  0
VERTEX
  8
LC_OH_2021_05_O7
  10
308641.002
  20
4516956.000
  0
VERTEX
  8
LC_OH_2021_05_O7
  10
306229.001
  20
4517212.500
  0
VERTEX
  8
LC_OH_2021_05_O7
  10
306216.501
  20
4521433.000
  0
VERTEX
  8
LC_OH_2021_05_O7
  10
306285.501
  20
4521464.000
  0
SEQEND
  8
LC_OH_2021_05_O7
  0
INSERT
  8
FeatureAttribs
  2
FEATURE
  41
1
  42
1
  43
1
  50
0
  10
313376.382
  20
4519319.499
 66
1
  0
ATTRIB
  8
FeatureAttribs
 70
0
  1
PNOA-H_AMS_1956-57_33k_ES_PAN_21mic_H50_0504_fot_59B-29260_W.tif
  2
NAME
  10
313376.382
  20
4519319.499
 40
34.51247
  0
SEQEND
  0
POLYLINE
  8
LC_OH_2021_05_O7
  70
1
  66
1
  0
VERTEX
  8
LC_OH_2021_05_O7
  10
311972.502
  20
4521394.500
  0
VERTEX
  8
LC_OH_2021_05_O7
  10
312429.002
  20
4521592.500
  0
VERTEX
  8
LC_OH_2021_05_O7
  10
312430.002
  20
4521593.000
  0
VERTEX
  8
LC_OH_2021_05_O7
  10
312750.002
  20
4521731.500
  0
VERTEX
  8
LC_OH_2021_05_O7
  10
313366.002
  20
4521626.000
  0
VERTEX
  8
LC_OH_2021_05_O7
  10
314834.502
  20
4520933.000
  0
VERTEX
  8
LC_OH_2021_05_O7
  10
314766.502
  20
4516977.500
  0
VERTEX
  8
LC_OH_2021_05_O7
  10
314765.502
  20
4516970.000
  0
VERTEX
  8
LC_OH_2021_05_O7
  10
314667.002
  20
4516908.500
  0
VERTEX
  8
LC_OH_2021_05_O7
  10
314665.002
  20
4516907.500
  0
VERTEX
  8
LC_OH_2021_05_O7
  10
314651.002
  20
4516908.000
  0
VERTEX
  8
LC_OH_2021_05_O7
  10
311917.502
  20
4517092.000
  0
SEQEND
  8
LC_OH_2021_05_O7
  0
INSERT
  8
FeatureAttribs
  2
FEATURE
  41
1
  42
1
  43
1
  50
0
  10
293516.375
  20
4519552.250
 66
1
  0
ATTRIB
  8
FeatureAttribs
 70
0
  1
PNOA-H_AMS_1956-57_33k_ES_PAN_21mic_H50_0504_fot_59B-29267_W.tif
  2
NAME
  10
293516.375
  20
4519552.250
 40
34.51247
  0
SEQEND
  0
POLYLINE
  8
LC_OH_2021_05_O7
  70
1
  66
1
  0
VERTEX
  8
LC_OH_2021_05_O7
  10
292005.001
  20
4517714.000
  0
VERTEX
  8
LC_OH_2021_05_O7
  10
292110.501
  20
4521594.500
  0
VERTEX
  8
LC_OH_2021_05_O7
  10
292700.501
  20
4521905.000
  0
VERTEX
  8
LC_OH_2021_05_O7
  10
293998.501
  20
4521720.000
  0
VERTEX
  8
LC_OH_2021_05_O7
  10
293999.501
  20
4521720.000
  0
VERTEX
  8
LC_OH_2021_05_O7
  10
295091.501
  20
4521565.000
  0
VERTEX
  8
LC_OH_2021_05_O7
  10
295091.501
  20
4521562.500
  0
VERTEX
  8
LC_OH_2021_05_O7
  10
294865.501
  20
4517567.500
  0
VERTEX
  8
LC_OH_2021_05_O7
  10
294863.001
  20
4517565.500
  0
VERTEX
  8
LC_OH_2021_05_O7
  10
294851.501
  20
4517561.000
  0
VERTEX
  8
LC_OH_2021_05_O7
  10
293923.501
  20
4517199.500
  0
VERTEX
  8
LC_OH_2021_05_O7
  10
292005.001
  20
4517703.500
  0
VERTEX
  8
LC_OH_2021_05_O7
  10
292005.001
  20
4517714.000
  0
SEQEND
  8
LC_OH_2021_05_O7
  0
INSERT
  8
FeatureAttribs
  2
FEATURE
  41
1
  42
1
  43
1
  50
0
  10
287479.192
  20
4519693.001
 66
1
  0
ATTRIB
  8
FeatureAttribs
 70
0
  1
PNOA-H_AMS_1956-57_33k_ES_PAN_21mic_H50_0504_fot_59B-29269_W.tif
  2
NAME
  10
287479.192
  20
4519693.001
 40
34.51247
  0
SEQEND
  0
POLYLINE
  8
LC_OH_2021_05_O7
  70
1
  66
1
  0
VERTEX
  8
LC_OH_2021_05_O7
  10
287410.981
  20
4521928.890
  0
VERTEX
  8
LC_OH_2021_05_O7
  10
287853.001
  20
4521896.000
  0
VERTEX
  8
LC_OH_2021_05_O7
  10
287855.501
  20
4521896.000
  0
VERTEX
  8
LC_OH_2021_05_O7
  10
288165.501
  20
4521873.000
  0
VERTEX
  8
LC_OH_2021_05_O7
  10
289020.001
  20
4521650.000
  0
VERTEX
  8
LC_OH_2021_05_O7
  10
288966.501
  20
4517780.000
  0
VERTEX
  8
LC_OH_2021_05_O7
  10
288117.001
  20
4517395.500
  0
VERTEX
  8
LC_OH_2021_05_O7
  10
287285.424
  20
4517564.400
  0
VERTEX
  8
LC_OH_2021_05_O7
  10
287317.740
  20
4518688.198
  0
VERTEX
  8
LC_OH_2021_05_O7
  10
287384.280
  20
4521001.147
  0
SEQEND
  8
LC_OH_2021_05_O7
  0
INSERT
  8
FeatureAttribs
  2
FEATURE
  41
1
  42
1
  43
1
  50
0
  10
299213.631
  20
4519331.000
 66
1
  0
ATTRIB
  8
FeatureAttribs
 70
0
  1
PNOA-H_AMS_1956-57_33k_ES_PAN_21mic_H50_0504_fot_59B-29265_W.tif
  2
NAME
  10
299213.631
  20
4519331.000
 40
34.51247
  0
SEQEND
  0
POLYLINE
  8
LC_OH_2021_05_O7
  70
1
  66
1
  0
VERTEX
  8
LC_OH_2021_05_O7
  10
297968.501
  20
4521470.500
  0
VERTEX
  8
LC_OH_2021_05_O7
  10
298094.001
  20
4521533.000
  0
VERTEX
  8
LC_OH_2021_05_O7
  10
298095.001
  20
4521533.500
  0
VERTEX
  8
LC_OH_2021_05_O7
  10
298477.501
  20
4521722.500
  0
VERTEX
  8
LC_OH_2021_05_O7
  10
300652.501
  20
4521389.500
  0
VERTEX
  8
LC_OH_2021_05_O7
  10
300610.001
  20
4517299.500
  0
VERTEX
  8
LC_OH_2021_05_O7
  10
299840.001
  20
4516940.500
  0
VERTEX
  8
LC_OH_2021_05_O7
  10
299835.501
  20
4516939.500
  0
VERTEX
  8
LC_OH_2021_05_O7
  10
297641.501
  20
4517411.000
  0
VERTEX
  8
LC_OH_2021_05_O7
  10
297968.501
  20
4521470.500
  0
SEQEND
  8
LC_OH_2021_05_O7
  0
INSERT
  8
FeatureAttribs
  2
FEATURE
  41
1
  42
1
  43
1
  50
0
  10
290525.441
  20
4519668.501
 66
1
  0
ATTRIB
  8
FeatureAttribs
 70
0
  1
PNOA-H_AMS_1956-57_33k_ES_PAN_21mic_H50_0504_fot_59B-29268_W.tif
  2
NAME
  10
290525.441
  20
4519668.501
 40
34.51247
  0
SEQEND
  0
POLYLINE
  8
LC_OH_2021_05_O7
  70
1
  66
1
  0
VERTEX
  8
LC_OH_2021_05_O7
  10
289020.001
  20
4521650.500
  0
VERTEX
  8
LC_OH_2021_05_O7
  10
289854.501
  20
4522041.000
  0
VERTEX
  8
LC_OH_2021_05_O7
  10
289855.501
  20
4522041.500
  0
VERTEX
  8
LC_OH_2021_05_O7
  10
292110.501
  20
4521594.500
  0
VERTEX
  8
LC_OH_2021_05_O7
  10
292005.001
  20
4517703.500
  0
VERTEX
  8
LC_OH_2021_05_O7
  10
291012.001
  20
4517298.000
  0
VERTEX
  8
LC_OH_2021_05_O7
  10
291005.501
  20
4517295.500
  0
VERTEX
  8
LC_OH_2021_05_O7
  10
291002.501
  20
4517295.500
  0
VERTEX
  8
LC_OH_2021_05_O7
  10
288966.501
  20
4517780.000
  0
VERTEX
  8
LC_OH_2021_05_O7
  10
289020.001
  20
4521650.500
  0
SEQEND
  8
LC_OH_2021_05_O7
  0
INSERT
  8
FeatureAttribs
  2
FEATURE
  41
1
  42
1
  43
1
  50
0
  10
315144.008
  20
4519024.943
 66
1
  0
ATTRIB
  8
FeatureAttribs
 70
0
  1
PNOA-H_AMS_1956-57_33k_ES_PAN_21mic_H50_0505_fot_59B-29259_W.tif
  2
NAME
  10
315144.008
  20
4519024.943
 40
34.51247
  0
SEQEND
  0
POLYLINE
  8
LC_OH_2021_05_O7
  70
1
  66
1
  0
VERTEX
  8
LC_OH_2021_05_O7
  10
315418.912
  20
4516959.599
  0
VERTEX
  8
LC_OH_2021_05_O7
  10
314766.002
  20
4516971.000
  0
VERTEX
  8
LC_OH_2021_05_O7
  10
314834.502
  20
4520932.500
  0
VERTEX
  8
LC_OH_2021_05_O7
  10
315522.013
  20
4521090.286
  0
VERTEX
  8
LC_OH_2021_05_O7
  10
315500.922
  20
4520245.658
  0
VERTEX
  8
LC_OH_2021_05_O7
  10
315443.193
  20
4517932.790
  0
SEQEND
  8
LC_OH_2021_05_O7
  0
INSERT
  8
FeatureAttribs
  2
FEATURE
  41
1
  42
1
  43
1
  50
0
  10
315152.819
  20
4521886.249
 66
1
  0
ATTRIB
  8
FeatureAttribs
 70
0
  1
PNOA-H_AMS_1956-57_33k_ES_PAN_21mic_H50_0480_fot_58C-35972_W.tif
  2
NAME
  10
315152.819
  20
4521886.249
 40
34.51247
  0
SEQEND
  0
POLYLINE
  8
LC_OH_2021_05_O7
  70
1
  66
1
  0
VERTEX
  8
LC_OH_2021_05_O7
  10
315522.010
  20
4521090.136
  0
VERTEX
  8
LC_OH_2021_05_O7
  10
314834.502
  20
4520932.500
  0
VERTEX
  8
LC_OH_2021_05_O7
  10
313366.002
  20
4521625.500
  0
VERTEX
  8
LC_OH_2021_05_O7
  10
314062.750
  20
4522596.251
  0
VERTEX
  8
LC_OH_2021_05_O7
  10
315558.677
  20
4522558.532
  0
SEQEND
  8
LC_OH_2021_05_O7
  0
INSERT
  8
FeatureAttribs
  2
FEATURE
  41
1
  42
1
  43
1
  50
0
  10
287787.492
  20
4522593.551
 66
1
  0
ATTRIB
  8
FeatureAttribs
 70
0
  1
PNOA-H_AMS_1956-57_33k_ES_PAN_21mic_H50_0503_fot_000-39654_R.tif
  2
NAME
  10
287787.492
  20
4522593.551
 40
34.51247
  0
SEQEND
  0
POLYLINE
  8
LC_OH_2021_05_O7
  70
1
  66
1
  0
VERTEX
  8
LC_OH_2021_05_O7
  10
288155.963
  20
4523293.972
  0
VERTEX
  8
LC_OH_2021_05_O7
  10
288164.001
  20
4521873.000
  0
VERTEX
  8
LC_OH_2021_05_O7
  10
287410.983
  20
4521928.982
  0
VERTEX
  8
LC_OH_2021_05_O7
  10
287450.848
  20
4523314.102
  0
SEQEND
  8
LC_OH_2021_05_O7
  0
ENDSEC
  0
EOF
