  0
SECTION
  2
HEADER
  9
$ACADVER
  1
AC1009
  9
$LUNITS
  70
2
  9
$LIMMIN
  10
258739.765
  20
4504810.647
  9
$LIMMAX
  10
287450.848
  20
4524176.836
  9
$EXTMIN
  10
258739.765
  20
4504810.647
  9
$EXTMAX
  10
287450.848
  20
4524176.836
  999
Created by Global Mapper
  999
Projection: UTM
  999
Datum: ETRS89
  999
Ground Units: meters
  999
ZONE: 30
  0
ENDSEC
  0
SECTION
  2
TABLES
  0
ENDSEC
  0
SECTION
  2
BLOCKS
  0
BLOCK
  8
FeatureAttribs
  70
0
  2
FEATURE
  3
FEATURE
  10
0.00000000
  20
0.00000000
  0
ATTDEF
  8
FeatureAttribs
  70
0
  1
 
  2
NAME
  3
NAME
  10
0.00000000
  20
0.00000000
  40
1.00000000
  0
ENDBLK
  0
ENDSEC
  0
SECTION
  2
ENTITIES
  0
INSERT
  8
FeatureAttribs
  2
FEATURE
  41
1
  42
1
  43
1
  50
0
  10
283130.148
  20
4522804.001
 66
1
  0
ATTRIB
  8
FeatureAttribs
 70
0
  1
PNOA-H_AMS_1956-57_33k_ES_PAN_21mic_H50_0478_fot_58B-40143_W.tif
  2
NAME
  10
283130.148
  20
4522804.001
 40
34.63200
  0
SEQEND
  0
POLYLINE
  8
LC_OH_2021_05_O7
  70
1
  66
1
  0
VERTEX
  8
LC_OH_2021_05_O7
  10
283785.948
  20
4523420.547
  0
VERTEX
  8
LC_OH_2021_05_O7
  10
283716.001
  20
4522258.500
  0
VERTEX
  8
LC_OH_2021_05_O7
  10
282804.001
  20
4521988.000
  0
VERTEX
  8
LC_OH_2021_05_O7
  10
282526.501
  20
4522073.000
  0
VERTEX
  8
LC_OH_2021_05_O7
  10
282498.014
  20
4523458.543
  0
SEQEND
  8
LC_OH_2021_05_O7
  0
INSERT
  8
FeatureAttribs
  2
FEATURE
  41
1
  42
1
  43
1
  50
0
  10
274521.423
  20
4523054.500
 66
1
  0
ATTRIB
  8
FeatureAttribs
 70
0
  1
PNOA-H_AMS_1956-57_33k_ES_PAN_21mic_H50_0478_fot_58B-40146_W.tif
  2
NAME
  10
274521.423
  20
4523054.500
 40
34.63200
  0
SEQEND
  0
POLYLINE
  8
LC_OH_2021_05_O7
  70
1
  66
1
  0
VERTEX
  8
LC_OH_2021_05_O7
  10
275308.894
  20
4523673.831
  0
VERTEX
  8
LC_OH_2021_05_O7
  10
275302.501
  20
4522637.500
  0
VERTEX
  8
LC_OH_2021_05_O7
  10
274052.501
  20
4522269.000
  0
VERTEX
  8
LC_OH_2021_05_O7
  10
273684.001
  20
4522440.500
  0
VERTEX
  8
LC_OH_2021_05_O7
  10
273796.057
  20
4523719.903
  0
SEQEND
  8
LC_OH_2021_05_O7
  0
INSERT
  8
FeatureAttribs
  2
FEATURE
  41
1
  42
1
  43
1
  50
0
  10
280244.065
  20
4522971.251
 66
1
  0
ATTRIB
  8
FeatureAttribs
 70
0
  1
PNOA-H_AMS_1956-57_33k_ES_PAN_21mic_H50_0478_fot_58B-40144_W.tif
  2
NAME
  10
280244.065
  20
4522971.251
 40
34.63200
  0
SEQEND
  0
POLYLINE
  8
LC_OH_2021_05_O7
  70
1
  66
1
  0
VERTEX
  8
LC_OH_2021_05_O7
  10
280996.061
  20
4523502.852
  0
VERTEX
  8
LC_OH_2021_05_O7
  10
280950.001
  20
4522425.500
  0
VERTEX
  8
LC_OH_2021_05_O7
  10
279814.001
  20
4522102.500
  0
VERTEX
  8
LC_OH_2021_05_O7
  10
279465.501
  20
4522222.500
  0
VERTEX
  8
LC_OH_2021_05_O7
  10
279552.627
  20
4523545.850
  0
VERTEX
  8
LC_OH_2021_05_O7
  10
280423.732
  20
4523519.737
  0
SEQEND
  8
LC_OH_2021_05_O7
  0
INSERT
  8
FeatureAttribs
  2
FEATURE
  41
1
  42
1
  43
1
  50
0
  10
285995.802
  20
4522711.751
 66
1
  0
ATTRIB
  8
FeatureAttribs
 70
0
  1
PNOA-H_AMS_1956-57_33k_ES_PAN_21mic_H50_0478_fot_58B-40142_W.tif
  2
NAME
  10
285995.802
  20
4522711.751
 40
34.63200
  0
SEQEND
  0
POLYLINE
  8
LC_OH_2021_05_O7
  70
1
  66
1
  0
VERTEX
  8
LC_OH_2021_05_O7
  10
286674.128
  20
4523336.646
  0
VERTEX
  8
LC_OH_2021_05_O7
  10
286630.501
  20
4522690.500
  0
VERTEX
  8
LC_OH_2021_05_O7
  10
286630.501
  20
4522686.500
  0
VERTEX
  8
LC_OH_2021_05_O7
  10
286585.001
  20
4522007.500
  0
VERTEX
  8
LC_OH_2021_05_O7
  10
286583.001
  20
4521990.000
  0
VERTEX
  8
LC_OH_2021_05_O7
  10
286117.501
  20
4521803.500
  0
VERTEX
  8
LC_OH_2021_05_O7
  10
285415.501
  20
4522002.500
  0
VERTEX
  8
LC_OH_2021_05_O7
  10
285307.348
  20
4523376.317
  0
SEQEND
  8
LC_OH_2021_05_O7
  0
INSERT
  8
FeatureAttribs
  2
FEATURE
  41
1
  42
1
  43
1
  50
0
  10
277340.908
  20
4523011.750
 66
1
  0
ATTRIB
  8
FeatureAttribs
 70
0
  1
PNOA-H_AMS_1956-57_33k_ES_PAN_21mic_H50_0478_fot_58B-40145_W.tif
  2
NAME
  10
277340.908
  20
4523011.750
 40
34.63200
  0
SEQEND
  0
POLYLINE
  8
LC_OH_2021_05_O7
  70
1
  66
1
  0
VERTEX
  8
LC_OH_2021_05_O7
  10
278135.930
  20
4523588.320
  0
VERTEX
  8
LC_OH_2021_05_O7
  10
278111.001
  20
4522517.500
  0
VERTEX
  8
LC_OH_2021_05_O7
  10
276885.501
  20
4522186.000
  0
VERTEX
  8
LC_OH_2021_05_O7
  10
276872.501
  20
4522183.500
  0
VERTEX
  8
LC_OH_2021_05_O7
  10
276487.001
  20
4522347.000
  0
VERTEX
  8
LC_OH_2021_05_O7
  10
276626.972
  20
4523633.690
  0
VERTEX
  8
LC_OH_2021_05_O7
  10
276910.148
  20
4523625.066
  0
SEQEND
  8
LC_OH_2021_05_O7
  0
INSERT
  8
FeatureAttribs
  2
FEATURE
  41
1
  42
1
  43
1
  50
0
  10
266420.512
  20
4523603.500
 66
1
  0
ATTRIB
  8
FeatureAttribs
 70
0
  1
PNOA-H_AMS_1956-57_33k_ES_PAN_21mic_H50_0478_fot_58B-40149_W.tif
  2
NAME
  10
266420.512
  20
4523603.500
 40
34.63200
  0
SEQEND
  0
POLYLINE
  8
LC_OH_2021_05_O7
  70
1
  66
1
  0
VERTEX
  8
LC_OH_2021_05_O7
  10
266726.254
  20
4523939.891
  0
VERTEX
  8
LC_OH_2021_05_O7
  10
266724.500
  20
4523104.000
  0
VERTEX
  8
LC_OH_2021_05_O7
  10
266699.500
  20
4522935.000
  0
VERTEX
  8
LC_OH_2021_05_O7
  10
266698.000
  20
4522933.500
  0
VERTEX
  8
LC_OH_2021_05_O7
  10
266660.500
  20
4522927.000
  0
VERTEX
  8
LC_OH_2021_05_O7
  10
265821.358
  20
4523968.573
  0
VERTEX
  8
LC_OH_2021_05_O7
  10
266369.293
  20
4523951.102
  0
SEQEND
  8
LC_OH_2021_05_O7
  0
INSERT
  8
FeatureAttribs
  2
FEATURE
  41
1
  42
1
  43
1
  50
0
  10
260548.344
  20
4523709.001
 66
1
  0
ATTRIB
  8
FeatureAttribs
 70
0
  1
PNOA-H_AMS_1956-57_33k_ES_PAN_21mic_H50_0478_fot_58B-40151_W.tif
  2
NAME
  10
260548.344
  20
4523709.001
 40
34.63200
  0
SEQEND
  0
POLYLINE
  8
LC_OH_2021_05_O7
  70
1
  66
1
  0
VERTEX
  8
LC_OH_2021_05_O7
  10
261023.614
  20
4524122.417
  0
VERTEX
  8
LC_OH_2021_05_O7
  10
260684.000
  20
4523138.000
  0
VERTEX
  8
LC_OH_2021_05_O7
  10
259845.399
  20
4524160.545
  0
SEQEND
  8
LC_OH_2021_05_O7
  0
INSERT
  8
FeatureAttribs
  2
FEATURE
  41
1
  42
1
  43
1
  50
0
  10
272016.404
  20
4523300.501
 66
1
  0
ATTRIB
  8
FeatureAttribs
 70
0
  1
PNOA-H_AMS_1956-57_33k_ES_PAN_21mic_H50_0478_fot_58B-40147_W.tif
  2
NAME
  10
272016.404
  20
4523300.501
 40
34.63200
  0
SEQEND
  0
POLYLINE
  8
LC_OH_2021_05_O7
  70
1
  66
1
  0
VERTEX
  8
LC_OH_2021_05_O7
  10
272480.631
  20
4523760.400
  0
VERTEX
  8
LC_OH_2021_05_O7
  10
272475.501
  20
4522750.000
  0
VERTEX
  8
LC_OH_2021_05_O7
  10
271676.001
  20
4522541.000
  0
VERTEX
  8
LC_OH_2021_05_O7
  10
271476.006
  20
4523791.473
  0
SEQEND
  8
LC_OH_2021_05_O7
  0
INSERT
  8
FeatureAttribs
  2
FEATURE
  41
1
  42
1
  43
1
  50
0
  10
263471.333
  20
4523617.501
 66
1
  0
ATTRIB
  8
FeatureAttribs
 70
0
  1
PNOA-H_AMS_1956-57_33k_ES_PAN_21mic_H50_0478_fot_58B-40150_W.tif
  2
NAME
  10
263471.333
  20
4523617.501
 40
34.63200
  0
SEQEND
  0
POLYLINE
  8
LC_OH_2021_05_O7
  70
1
  66
1
  0
VERTEX
  8
LC_OH_2021_05_O7
  10
263916.327
  20
4524029.313
  0
VERTEX
  8
LC_OH_2021_05_O7
  10
263635.000
  20
4522960.000
  0
VERTEX
  8
LC_OH_2021_05_O7
  10
263633.500
  20
4522955.500
  0
VERTEX
  8
LC_OH_2021_05_O7
  10
263630.000
  20
4522955.000
  0
VERTEX
  8
LC_OH_2021_05_O7
  10
262800.186
  20
4524064.926
  0
VERTEX
  8
LC_OH_2021_05_O7
  10
262855.639
  20
4524063.132
  0
SEQEND
  8
LC_OH_2021_05_O7
  0
INSERT
  8
FeatureAttribs
  2
FEATURE
  41
1
  42
1
  43
1
  50
0
  10
269257.802
  20
4523398.000
 66
1
  0
ATTRIB
  8
FeatureAttribs
 70
0
  1
PNOA-H_AMS_1956-57_33k_ES_PAN_21mic_H50_0478_fot_58B-40148_W.tif
  2
NAME
  10
269257.802
  20
4523398.000
 40
34.63200
  0
SEQEND
  0
POLYLINE
  8
LC_OH_2021_05_O7
  70
1
  66
1
  0
VERTEX
  8
LC_OH_2021_05_O7
  10
269669.147
  20
4523847.463
  0
VERTEX
  8
LC_OH_2021_05_O7
  10
269677.500
  20
4522869.000
  0
VERTEX
  8
LC_OH_2021_05_O7
  10
269677.500
  20
4522837.000
  0
VERTEX
  8
LC_OH_2021_05_O7
  10
269676.000
  20
4522836.500
  0
VERTEX
  8
LC_OH_2021_05_O7
  10
269105.000
  20
4522736.500
  0
VERTEX
  8
LC_OH_2021_05_O7
  10
269097.000
  20
4522736.000
  0
VERTEX
  8
LC_OH_2021_05_O7
  10
268657.695
  20
4523879.230
  0
SEQEND
  8
LC_OH_2021_05_O7
  0
INSERT
  8
FeatureAttribs
  2
FEATURE
  41
1
  42
1
  43
1
  50
0
  10
259587.431
  20
4519750.577
 66
1
  0
ATTRIB
  8
FeatureAttribs
 70
0
  1
PNOA-H_AMS_1956-57_33k_ES_PAN_21mic_H50_0502_fot_59A-35455_W.tif
  2
NAME
  10
259587.431
  20
4519750.577
 40
34.63200
  0
SEQEND
  0
POLYLINE
  8
LC_OH_2021_05_O7
  70
1
  66
1
  0
VERTEX
  8
LC_OH_2021_05_O7
  10
259250.530
  20
4521371.154
  0
VERTEX
  8
LC_OH_2021_05_O7
  10
259896.500
  20
4520062.000
  0
VERTEX
  8
LC_OH_2021_05_O7
  10
260028.500
  20
4518516.000
  0
VERTEX
  8
LC_OH_2021_05_O7
  10
259350.500
  20
4518131.500
  0
VERTEX
  8
LC_OH_2021_05_O7
  10
259345.000
  20
4518130.000
  0
VERTEX
  8
LC_OH_2021_05_O7
  10
259146.362
  20
4518173.101
  0
VERTEX
  8
LC_OH_2021_05_O7
  10
259191.224
  20
4519550.747
  0
SEQEND
  8
LC_OH_2021_05_O7
  0
INSERT
  8
FeatureAttribs
  2
FEATURE
  41
1
  42
1
  43
1
  50
0
  10
262136.313
  20
4520116.498
 66
1
  0
ATTRIB
  8
FeatureAttribs
 70
0
  1
PNOA-H_AMS_1956-57_33k_ES_PAN_21mic_H50_0503_fot_000-35454_R.tif
  2
NAME
  10
262136.313
  20
4520116.498
 40
34.63200
  0
SEQEND
  0
POLYLINE
  8
LC_OH_2021_05_O7
  70
1
  66
1
  0
VERTEX
  8
LC_OH_2021_05_O7
  10
262042.500
  20
4522078.500
  0
VERTEX
  8
LC_OH_2021_05_O7
  10
262882.500
  20
4520123.500
  0
VERTEX
  8
LC_OH_2021_05_O7
  10
262907.500
  20
4518527.500
  0
VERTEX
  8
LC_OH_2021_05_O7
  10
262191.500
  20
4518154.500
  0
VERTEX
  8
LC_OH_2021_05_O7
  10
261106.500
  20
4518439.500
  0
VERTEX
  8
LC_OH_2021_05_O7
  10
261608.000
  20
4521406.000
  0
VERTEX
  8
LC_OH_2021_05_O7
  10
262042.500
  20
4522077.500
  0
VERTEX
  8
LC_OH_2021_05_O7
  10
262042.500
  20
4522078.500
  0
SEQEND
  8
LC_OH_2021_05_O7
  0
INSERT
  8
FeatureAttribs
  2
FEATURE
  41
1
  42
1
  43
1
  50
0
  10
265120.989
  20
4520257.750
 66
1
  0
ATTRIB
  8
FeatureAttribs
 70
0
  1
PNOA-H_AMS_1956-57_33k_ES_PAN_21mic_H50_0503_fot_000-35453_R.tif
  2
NAME
  10
265120.989
  20
4520257.750
 40
34.63200
  0
SEQEND
  0
POLYLINE
  8
LC_OH_2021_05_O7
  70
1
  66
1
  0
VERTEX
  8
LC_OH_2021_05_O7
  10
265327.500
  20
4521657.500
  0
VERTEX
  8
LC_OH_2021_05_O7
  10
265851.500
  20
4520151.000
  0
VERTEX
  8
LC_OH_2021_05_O7
  10
265734.000
  20
4518466.000
  0
VERTEX
  8
LC_OH_2021_05_O7
  10
265192.500
  20
4518222.500
  0
VERTEX
  8
LC_OH_2021_05_O7
  10
264563.000
  20
4518414.500
  0
VERTEX
  8
LC_OH_2021_05_O7
  10
264367.000
  20
4521082.500
  0
VERTEX
  8
LC_OH_2021_05_O7
  10
264367.000
  20
4521088.000
  0
VERTEX
  8
LC_OH_2021_05_O7
  10
264369.500
  20
4521093.500
  0
VERTEX
  8
LC_OH_2021_05_O7
  10
264930.500
  20
4522293.000
  0
VERTEX
  8
LC_OH_2021_05_O7
  10
265110.000
  20
4522281.500
  0
VERTEX
  8
LC_OH_2021_05_O7
  10
265111.500
  20
4522280.500
  0
VERTEX
  8
LC_OH_2021_05_O7
  10
265327.500
  20
4521659.000
  0
VERTEX
  8
LC_OH_2021_05_O7
  10
265327.500
  20
4521657.500
  0
SEQEND
  8
LC_OH_2021_05_O7
  0
INSERT
  8
FeatureAttribs
  2
FEATURE
  41
1
  42
1
  43
1
  50
0
  10
269656.313
  20
4519710.250
 66
1
  0
ATTRIB
  8
FeatureAttribs
 70
0
  1
PNOA-H_AMS_1956-57_33k_ES_PAN_21mic_H50_0503_fot_000-42180_R.tif
  2
NAME
  10
269656.313
  20
4519710.250
 40
34.63200
  0
SEQEND
  0
POLYLINE
  8
LC_OH_2021_05_O7
  70
1
  66
1
  0
VERTEX
  8
LC_OH_2021_05_O7
  10
270968.000
  20
4521133.500
  0
VERTEX
  8
LC_OH_2021_05_O7
  10
270969.000
  20
4521133.000
  0
VERTEX
  8
LC_OH_2021_05_O7
  10
270970.000
  20
4521127.000
  0
VERTEX
  8
LC_OH_2021_05_O7
  10
271021.500
  20
4520804.500
  0
VERTEX
  8
LC_OH_2021_05_O7
  10
271109.500
  20
4518362.500
  0
VERTEX
  8
LC_OH_2021_05_O7
  10
271109.000
  20
4518350.000
  0
VERTEX
  8
LC_OH_2021_05_O7
  10
271017.000
  20
4518287.000
  0
VERTEX
  8
LC_OH_2021_05_O7
  10
268246.500
  20
4518384.500
  0
VERTEX
  8
LC_OH_2021_05_O7
  10
268253.000
  20
4520042.000
  0
VERTEX
  8
LC_OH_2021_05_O7
  10
270966.500
  20
4521133.000
  0
VERTEX
  8
LC_OH_2021_05_O7
  10
270968.000
  20
4521133.500
  0
SEQEND
  8
LC_OH_2021_05_O7
  0
INSERT
  8
FeatureAttribs
  2
FEATURE
  41
1
  42
1
  43
1
  50
0
  10
259531.132
  20
4507904.336
 66
1
  0
ATTRIB
  8
FeatureAttribs
 70
0
  1
PNOA-H_AMS_1956-57_33k_ES_PAN_21mic_H50_0502_fot_62B-04154_W.tif
  2
NAME
  10
259531.132
  20
4507904.336
 40
34.63200
  0
SEQEND
  0
POLYLINE
  8
LC_OH_2021_05_O7
  70
1
  66
1
  0
VERTEX
  8
LC_OH_2021_05_O7
  10
260087.162
  20
4505629.173
  0
VERTEX
  8
LC_OH_2021_05_O7
  10
258739.765
  20
4505672.628
  0
VERTEX
  8
LC_OH_2021_05_O7
  10
258814.928
  20
4507985.632
  0
VERTEX
  8
LC_OH_2021_05_O7
  10
258884.802
  20
4510134.965
  0
VERTEX
  8
LC_OH_2021_05_O7
  10
259600.000
  20
4510179.000
  0
VERTEX
  8
LC_OH_2021_05_O7
  10
259608.000
  20
4510179.500
  0
VERTEX
  8
LC_OH_2021_05_O7
  10
259614.500
  20
4510179.500
  0
VERTEX
  8
LC_OH_2021_05_O7
  10
259620.500
  20
4510176.500
  0
VERTEX
  8
LC_OH_2021_05_O7
  10
260322.500
  20
4509807.000
  0
SEQEND
  8
LC_OH_2021_05_O7
  0
INSERT
  8
FeatureAttribs
  2
FEATURE
  41
1
  42
1
  43
1
  50
0
  10
259421.895
  20
4512404.295
 66
1
  0
ATTRIB
  8
FeatureAttribs
 70
0
  1
PNOA-H_AMS_1956-57_33k_ES_PAN_21mic_H50_0502_fot_61B-18265_W.tif
  2
NAME
  10
259421.895
  20
4512404.295
 40
34.63200
  0
SEQEND
  0
POLYLINE
  8
LC_OH_2021_05_O7
  70
1
  66
1
  0
VERTEX
  8
LC_OH_2021_05_O7
  10
259031.100
  20
4514632.417
  0
VERTEX
  8
LC_OH_2021_05_O7
  10
259180.500
  20
4514654.000
  0
VERTEX
  8
LC_OH_2021_05_O7
  10
259183.500
  20
4514654.000
  0
VERTEX
  8
LC_OH_2021_05_O7
  10
259321.500
  20
4514674.000
  0
VERTEX
  8
LC_OH_2021_05_O7
  10
259959.000
  20
4514300.500
  0
VERTEX
  8
LC_OH_2021_05_O7
  10
259614.000
  20
4510179.500
  0
VERTEX
  8
LC_OH_2021_05_O7
  10
258884.790
  20
4510134.590
  0
VERTEX
  8
LC_OH_2021_05_O7
  10
258890.123
  20
4510298.643
  0
VERTEX
  8
LC_OH_2021_05_O7
  10
258965.351
  20
4512611.659
  0
SEQEND
  8
LC_OH_2021_05_O7
  0
INSERT
  8
FeatureAttribs
  2
FEATURE
  41
1
  42
1
  43
1
  50
0
  10
281713.740
  20
4507108.000
 66
1
  0
ATTRIB
  8
FeatureAttribs
 70
0
  1
PNOA-H_AMS_1956-57_33k_ES_PAN_21mic_H50_0503_fot_62B-04146_W.tif
  2
NAME
  10
281713.740
  20
4507108.000
 40
34.63200
  0
SEQEND
  0
POLYLINE
  8
LC_OH_2021_05_O7
  70
1
  66
1
  0
VERTEX
  8
LC_OH_2021_05_O7
  10
280397.001
  20
4508638.500
  0
VERTEX
  8
LC_OH_2021_05_O7
  10
281659.001
  20
4508974.000
  0
VERTEX
  8
LC_OH_2021_05_O7
  10
281710.501
  20
4508960.500
  0
VERTEX
  8
LC_OH_2021_05_O7
  10
281711.501
  20
4508960.500
  0
VERTEX
  8
LC_OH_2021_05_O7
  10
283179.501
  20
4508567.500
  0
VERTEX
  8
LC_OH_2021_05_O7
  10
283103.001
  20
4507059.000
  0
VERTEX
  8
LC_OH_2021_05_O7
  10
280230.501
  20
4505242.000
  0
SEQEND
  8
LC_OH_2021_05_O7
  0
INSERT
  8
FeatureAttribs
  2
FEATURE
  41
1
  42
1
  43
1
  50
0
  10
283956.919
  20
4506549.999
 66
1
  0
ATTRIB
  8
FeatureAttribs
 70
0
  1
PNOA-H_AMS_1956-57_33k_ES_PAN_21mic_H50_0503_fot_62B-04145_W.tif
  2
NAME
  10
283956.919
  20
4506549.999
 40
34.63200
  0
SEQEND
  0
POLYLINE
  8
LC_OH_2021_05_O7
  70
1
  66
1
  0
VERTEX
  8
LC_OH_2021_05_O7
  10
284522.533
  20
4504879.972
  0
VERTEX
  8
LC_OH_2021_05_O7
  10
283396.742
  20
4504912.538
  0
VERTEX
  8
LC_OH_2021_05_O7
  10
283146.411
  20
4504919.898
  0
VERTEX
  8
LC_OH_2021_05_O7
  10
283103.001
  20
4507043.000
  0
VERTEX
  8
LC_OH_2021_05_O7
  10
283103.001
  20
4507065.500
  0
VERTEX
  8
LC_OH_2021_05_O7
  10
283179.501
  20
4508567.500
  0
VERTEX
  8
LC_OH_2021_05_O7
  10
284428.001
  20
4508918.500
  0
VERTEX
  8
LC_OH_2021_05_O7
  10
285163.501
  20
4508727.500
  0
SEQEND
  8
LC_OH_2021_05_O7
  0
INSERT
  8
FeatureAttribs
  2
FEATURE
  41
1
  42
1
  43
1
  50
0
  10
280306.911
  20
4511176.249
 66
1
  0
ATTRIB
  8
FeatureAttribs
 70
0
  1
PNOA-H_AMS_1956-57_33k_ES_PAN_21mic_H50_0503_fot_61B-18257_W.tif
  2
NAME
  10
280306.911
  20
4511176.249
 40
34.63200
  0
SEQEND
  0
POLYLINE
  8
LC_OH_2021_05_O7
  70
1
  66
1
  0
VERTEX
  8
LC_OH_2021_05_O7
  10
279663.501
  20
4513677.000
  0
VERTEX
  8
LC_OH_2021_05_O7
  10
281676.001
  20
4513424.000
  0
VERTEX
  8
LC_OH_2021_05_O7
  10
281660.501
  20
4508974.000
  0
VERTEX
  8
LC_OH_2021_05_O7
  10
280398.501
  20
4508638.500
  0
VERTEX
  8
LC_OH_2021_05_O7
  10
280395.501
  20
4508638.500
  0
VERTEX
  8
LC_OH_2021_05_O7
  10
278930.501
  20
4509066.000
  0
VERTEX
  8
LC_OH_2021_05_O7
  10
278962.501
  20
4513521.000
  0
VERTEX
  8
LC_OH_2021_05_O7
  10
279366.501
  20
4513714.000
  0
VERTEX
  8
LC_OH_2021_05_O7
  10
279661.001
  20
4513677.000
  0
VERTEX
  8
LC_OH_2021_05_O7
  10
279663.501
  20
4513677.000
  0
SEQEND
  8
LC_OH_2021_05_O7
  0
INSERT
  8
FeatureAttribs
  2
FEATURE
  41
1
  42
1
  43
1
  50
0
  10
267543.483
  20
4507137.999
 66
1
  0
ATTRIB
  8
FeatureAttribs
 70
0
  1
PNOA-H_AMS_1956-57_33k_ES_PAN_21mic_H50_0503_fot_62B-04151_W.tif
  2
NAME
  10
267543.483
  20
4507137.999
 40
34.63200
  0
SEQEND
  0
POLYLINE
  8
LC_OH_2021_05_O7
  70
1
  66
1
  0
VERTEX
  8
LC_OH_2021_05_O7
  10
268901.517
  20
4505349.530
  0
VERTEX
  8
LC_OH_2021_05_O7
  10
265992.908
  20
4505440.574
  0
VERTEX
  8
LC_OH_2021_05_O7
  10
266194.500
  20
4509347.000
  0
VERTEX
  8
LC_OH_2021_05_O7
  10
266195.500
  20
4509348.500
  0
VERTEX
  8
LC_OH_2021_05_O7
  10
266218.000
  20
4509353.000
  0
VERTEX
  8
LC_OH_2021_05_O7
  10
267915.000
  20
4509687.000
  0
VERTEX
  8
LC_OH_2021_05_O7
  10
267917.500
  20
4509687.500
  0
VERTEX
  8
LC_OH_2021_05_O7
  10
269126.000
  20
4509176.000
  0
SEQEND
  8
LC_OH_2021_05_O7
  0
INSERT
  8
FeatureAttribs
  2
FEATURE
  41
1
  42
1
  43
1
  50
0
  10
261661.894
  20
4507464.250
 66
1
  0
ATTRIB
  8
FeatureAttribs
 70
0
  1
PNOA-H_AMS_1956-57_33k_ES_PAN_21mic_H50_0503_fot_62B-04153_W.tif
  2
NAME
  10
261661.894
  20
4507464.250
 40
34.63200
  0
SEQEND
  0
POLYLINE
  8
LC_OH_2021_05_O7
  70
1
  66
1
  0
VERTEX
  8
LC_OH_2021_05_O7
  10
263024.792
  20
4505534.792
  0
VERTEX
  8
LC_OH_2021_05_O7
  10
262262.246
  20
4505559.023
  0
VERTEX
  8
LC_OH_2021_05_O7
  10
260087.162
  20
4505629.173
  0
VERTEX
  8
LC_OH_2021_05_O7
  10
260322.500
  20
4509807.000
  0
VERTEX
  8
LC_OH_2021_05_O7
  10
262274.500
  20
4510018.500
  0
VERTEX
  8
LC_OH_2021_05_O7
  10
262279.000
  20
4510019.000
  0
VERTEX
  8
LC_OH_2021_05_O7
  10
262282.500
  20
4510019.000
  0
VERTEX
  8
LC_OH_2021_05_O7
  10
262345.500
  20
4509987.500
  0
VERTEX
  8
LC_OH_2021_05_O7
  10
263249.500
  20
4509532.500
  0
SEQEND
  8
LC_OH_2021_05_O7
  0
INSERT
  8
FeatureAttribs
  2
FEATURE
  41
1
  42
1
  43
1
  50
0
  10
285816.642
  20
4511081.000
 66
1
  0
ATTRIB
  8
FeatureAttribs
 70
0
  1
PNOA-H_AMS_1956-57_33k_ES_PAN_21mic_H50_0503_fot_61B-18255_W.tif
  2
NAME
  10
285816.642
  20
4511081.000
 40
34.63200
  0
SEQEND
  0
POLYLINE
  8
LC_OH_2021_05_O7
  70
1
  66
1
  0
VERTEX
  8
LC_OH_2021_05_O7
  10
287032.892
  20
4508775.596
  0
VERTEX
  8
LC_OH_2021_05_O7
  10
286238.501
  20
4508563.500
  0
VERTEX
  8
LC_OH_2021_05_O7
  10
285163.001
  20
4508727.500
  0
VERTEX
  8
LC_OH_2021_05_O7
  10
284428.501
  20
4508918.500
  0
VERTEX
  8
LC_OH_2021_05_O7
  10
284383.501
  20
4513291.000
  0
VERTEX
  8
LC_OH_2021_05_O7
  10
285015.001
  20
4513598.500
  0
VERTEX
  8
LC_OH_2021_05_O7
  10
285806.001
  20
4513453.000
  0
VERTEX
  8
LC_OH_2021_05_O7
  10
285807.501
  20
4513453.000
  0
VERTEX
  8
LC_OH_2021_05_O7
  10
287160.082
  20
4513203.930
  0
VERTEX
  8
LC_OH_2021_05_O7
  10
287118.291
  20
4511749.392
  0
VERTEX
  8
LC_OH_2021_05_O7
  10
287051.864
  20
4509436.470
  0
SEQEND
  8
LC_OH_2021_05_O7
  0
INSERT
  8
FeatureAttribs
  2
FEATURE
  41
1
  42
1
  43
1
  50
0
  10
273323.602
  20
4506817.499
 66
1
  0
ATTRIB
  8
FeatureAttribs
 70
0
  1
PNOA-H_AMS_1956-57_33k_ES_PAN_21mic_H50_0503_fot_62B-04149_W.tif
  2
NAME
  10
273323.602
  20
4506817.499
 40
34.63200
  0
SEQEND
  0
POLYLINE
  8
LC_OH_2021_05_O7
  70
1
  66
1
  0
VERTEX
  8
LC_OH_2021_05_O7
  10
274608.782
  20
4505174.248
  0
VERTEX
  8
LC_OH_2021_05_O7
  10
272829.576
  20
4505228.249
  0
VERTEX
  8
LC_OH_2021_05_O7
  10
271788.397
  20
4505260.345
  0
VERTEX
  8
LC_OH_2021_05_O7
  10
272036.501
  20
4508966.500
  0
VERTEX
  8
LC_OH_2021_05_O7
  10
273447.501
  20
4509335.000
  0
VERTEX
  8
LC_OH_2021_05_O7
  10
273518.001
  20
4509311.500
  0
VERTEX
  8
LC_OH_2021_05_O7
  10
273519.501
  20
4509311.000
  0
VERTEX
  8
LC_OH_2021_05_O7
  10
274934.001
  20
4508840.500
  0
SEQEND
  8
LC_OH_2021_05_O7
  0
INSERT
  8
FeatureAttribs
  2
FEATURE
  41
1
  42
1
  43
1
  50
0
  10
276137.790
  20
4506659.999
 66
1
  0
ATTRIB
  8
FeatureAttribs
 70
0
  1
PNOA-H_AMS_1956-57_33k_ES_PAN_21mic_H50_0503_fot_62B-04148_W.tif
  2
NAME
  10
276137.790
  20
4506659.999
 40
34.63200
  0
SEQEND
  0
POLYLINE
  8
LC_OH_2021_05_O7
  70
1
  66
1
  0
VERTEX
  8
LC_OH_2021_05_O7
  10
277412.999
  20
4505089.639
  0
VERTEX
  8
LC_OH_2021_05_O7
  10
276351.982
  20
4505121.339
  0
VERTEX
  8
LC_OH_2021_05_O7
  10
274608.640
  20
4505174.252
  0
VERTEX
  8
LC_OH_2021_05_O7
  10
274934.001
  20
4508840.500
  0
VERTEX
  8
LC_OH_2021_05_O7
  10
276169.001
  20
4509182.000
  0
VERTEX
  8
LC_OH_2021_05_O7
  10
276185.001
  20
4509185.500
  0
VERTEX
  8
LC_OH_2021_05_O7
  10
277613.501
  20
4508753.000
  0
VERTEX
  8
LC_OH_2021_05_O7
  10
277615.501
  20
4508752.500
  0
VERTEX
  8
LC_OH_2021_05_O7
  10
277694.501
  20
4508729.000
  0
VERTEX
  8
LC_OH_2021_05_O7
  10
277695.501
  20
4508728.500
  0
VERTEX
  8
LC_OH_2021_05_O7
  10
277695.501
  20
4508723.500
  0
SEQEND
  8
LC_OH_2021_05_O7
  0
INSERT
  8
FeatureAttribs
  2
FEATURE
  41
1
  42
1
  43
1
  50
0
  10
278911.017
  20
4506563.999
 66
1
  0
ATTRIB
  8
FeatureAttribs
 70
0
  1
PNOA-H_AMS_1956-57_33k_ES_PAN_21mic_H50_0503_fot_62B-04147_W.tif
  2
NAME
  10
278911.017
  20
4506563.999
 40
34.63200
  0
SEQEND
  0
POLYLINE
  8
LC_OH_2021_05_O7
  70
1
  66
1
  0
VERTEX
  8
LC_OH_2021_05_O7
  10
280202.958
  20
4505006.441
  0
VERTEX
  8
LC_OH_2021_05_O7
  10
279874.371
  20
4505016.102
  0
VERTEX
  8
LC_OH_2021_05_O7
  10
277412.545
  20
4505089.653
  0
VERTEX
  8
LC_OH_2021_05_O7
  10
277695.501
  20
4508728.500
  0
VERTEX
  8
LC_OH_2021_05_O7
  10
278931.501
  20
4509066.000
  0
VERTEX
  8
LC_OH_2021_05_O7
  10
280397.001
  20
4508638.500
  0
VERTEX
  8
LC_OH_2021_05_O7
  10
280282.501
  20
4506313.500
  0
VERTEX
  8
LC_OH_2021_05_O7
  10
280282.001
  20
4506302.500
  0
VERTEX
  8
LC_OH_2021_05_O7
  10
280230.501
  20
4505245.000
  0
SEQEND
  8
LC_OH_2021_05_O7
  0
INSERT
  8
FeatureAttribs
  2
FEATURE
  41
1
  42
1
  43
1
  50
0
  10
270449.059
  20
4506964.250
 66
1
  0
ATTRIB
  8
FeatureAttribs
 70
0
  1
PNOA-H_AMS_1956-57_33k_ES_PAN_21mic_H50_0503_fot_62B-04150_W.tif
  2
NAME
  10
270449.059
  20
4506964.250
 40
34.63200
  0
SEQEND
  0
POLYLINE
  8
LC_OH_2021_05_O7
  70
1
  66
1
  0
VERTEX
  8
LC_OH_2021_05_O7
  10
271787.958
  20
4505260.359
  0
VERTEX
  8
LC_OH_2021_05_O7
  10
269307.151
  20
4505336.833
  0
VERTEX
  8
LC_OH_2021_05_O7
  10
268901.089
  20
4505349.544
  0
VERTEX
  8
LC_OH_2021_05_O7
  10
269125.500
  20
4509173.000
  0
VERTEX
  8
LC_OH_2021_05_O7
  10
269126.000
  20
4509176.000
  0
VERTEX
  8
LC_OH_2021_05_O7
  10
269132.000
  20
4509177.500
  0
VERTEX
  8
LC_OH_2021_05_O7
  10
269420.000
  20
4509242.500
  0
VERTEX
  8
LC_OH_2021_05_O7
  10
269422.500
  20
4509243.000
  0
VERTEX
  8
LC_OH_2021_05_O7
  10
270640.500
  20
4509517.500
  0
VERTEX
  8
LC_OH_2021_05_O7
  10
272036.501
  20
4508966.500
  0
SEQEND
  8
LC_OH_2021_05_O7
  0
INSERT
  8
FeatureAttribs
  2
FEATURE
  41
1
  42
1
  43
1
  50
0
  10
277574.173
  20
4511269.500
 66
1
  0
ATTRIB
  8
FeatureAttribs
 70
0
  1
PNOA-H_AMS_1956-57_33k_ES_PAN_21mic_H50_0503_fot_61B-18258_W.tif
  2
NAME
  10
277574.173
  20
4511269.500
 40
34.63200
  0
SEQEND
  0
POLYLINE
  8
LC_OH_2021_05_O7
  70
1
  66
1
  0
VERTEX
  8
LC_OH_2021_05_O7
  10
277615.501
  20
4513678.000
  0
VERTEX
  8
LC_OH_2021_05_O7
  10
278962.501
  20
4513521.000
  0
VERTEX
  8
LC_OH_2021_05_O7
  10
278930.501
  20
4509066.000
  0
VERTEX
  8
LC_OH_2021_05_O7
  10
277697.001
  20
4508728.500
  0
VERTEX
  8
LC_OH_2021_05_O7
  10
277686.001
  20
4508731.000
  0
VERTEX
  8
LC_OH_2021_05_O7
  10
276183.501
  20
4509185.500
  0
VERTEX
  8
LC_OH_2021_05_O7
  10
276223.501
  20
4513688.500
  0
VERTEX
  8
LC_OH_2021_05_O7
  10
276468.001
  20
4513806.000
  0
VERTEX
  8
LC_OH_2021_05_O7
  10
276477.501
  20
4513810.500
  0
VERTEX
  8
LC_OH_2021_05_O7
  10
276481.001
  20
4513810.500
  0
VERTEX
  8
LC_OH_2021_05_O7
  10
277613.501
  20
4513678.000
  0
VERTEX
  8
LC_OH_2021_05_O7
  10
277615.501
  20
4513678.000
  0
SEQEND
  8
LC_OH_2021_05_O7
  0
INSERT
  8
FeatureAttribs
  2
FEATURE
  41
1
  42
1
  43
1
  50
0
  10
264606.695
  20
4507303.748
 66
1
  0
ATTRIB
  8
FeatureAttribs
 70
0
  1
PNOA-H_AMS_1956-57_33k_ES_PAN_21mic_H50_0503_fot_62B-04152_W.tif
  2
NAME
  10
264606.695
  20
4507303.748
 40
34.63200
  0
SEQEND
  0
POLYLINE
  8
LC_OH_2021_05_O7
  70
1
  66
1
  0
VERTEX
  8
LC_OH_2021_05_O7
  10
265992.924
  20
4505440.574
  0
VERTEX
  8
LC_OH_2021_05_O7
  10
265784.708
  20
4505447.091
  0
VERTEX
  8
LC_OH_2021_05_O7
  10
263024.771
  20
4505534.792
  0
VERTEX
  8
LC_OH_2021_05_O7
  10
263249.000
  20
4509528.000
  0
VERTEX
  8
LC_OH_2021_05_O7
  10
263249.500
  20
4509532.500
  0
VERTEX
  8
LC_OH_2021_05_O7
  10
263276.000
  20
4509537.000
  0
VERTEX
  8
LC_OH_2021_05_O7
  10
263279.000
  20
4509537.500
  0
VERTEX
  8
LC_OH_2021_05_O7
  10
265140.000
  20
4509838.500
  0
VERTEX
  8
LC_OH_2021_05_O7
  10
266195.000
  20
4509348.000
  0
SEQEND
  8
LC_OH_2021_05_O7
  0
INSERT
  8
FeatureAttribs
  2
FEATURE
  41
1
  42
1
  43
1
  50
0
  10
274853.679
  20
4511363.750
 66
1
  0
ATTRIB
  8
FeatureAttribs
 70
0
  1
PNOA-H_AMS_1956-57_33k_ES_PAN_21mic_H50_0503_fot_61B-18259_W.tif
  2
NAME
  10
274853.679
  20
4511363.750
 40
34.63200
  0
SEQEND
  0
POLYLINE
  8
LC_OH_2021_05_O7
  70
1
  66
1
  0
VERTEX
  8
LC_OH_2021_05_O7
  10
273519.001
  20
4511908.000
  0
VERTEX
  8
LC_OH_2021_05_O7
  10
273572.001
  20
4513819.000
  0
VERTEX
  8
LC_OH_2021_05_O7
  10
273707.001
  20
4513887.000
  0
VERTEX
  8
LC_OH_2021_05_O7
  10
273711.001
  20
4513887.000
  0
VERTEX
  8
LC_OH_2021_05_O7
  10
276223.501
  20
4513688.500
  0
VERTEX
  8
LC_OH_2021_05_O7
  10
276183.501
  20
4509185.500
  0
VERTEX
  8
LC_OH_2021_05_O7
  10
274933.501
  20
4508840.500
  0
VERTEX
  8
LC_OH_2021_05_O7
  10
273448.501
  20
4509335.000
  0
VERTEX
  8
LC_OH_2021_05_O7
  10
273519.001
  20
4511889.500
  0
VERTEX
  8
LC_OH_2021_05_O7
  10
273519.001
  20
4511908.000
  0
SEQEND
  8
LC_OH_2021_05_O7
  0
INSERT
  8
FeatureAttribs
  2
FEATURE
  41
1
  42
1
  43
1
  50
0
  10
283036.943
  20
4511111.000
 66
1
  0
ATTRIB
  8
FeatureAttribs
 70
0
  1
PNOA-H_AMS_1956-57_33k_ES_PAN_21mic_H50_0503_fot_61B-18256_W.tif
  2
NAME
  10
283036.943
  20
4511111.000
 40
34.63200
  0
SEQEND
  0
POLYLINE
  8
LC_OH_2021_05_O7
  70
1
  66
1
  0
VERTEX
  8
LC_OH_2021_05_O7
  10
281710.501
  20
4513440.500
  0
VERTEX
  8
LC_OH_2021_05_O7
  10
282168.501
  20
4513654.500
  0
VERTEX
  8
LC_OH_2021_05_O7
  10
284383.501
  20
4513291.000
  0
VERTEX
  8
LC_OH_2021_05_O7
  10
284428.501
  20
4508963.000
  0
VERTEX
  8
LC_OH_2021_05_O7
  10
284428.001
  20
4508918.000
  0
VERTEX
  8
LC_OH_2021_05_O7
  10
283190.001
  20
4508570.000
  0
VERTEX
  8
LC_OH_2021_05_O7
  10
283178.001
  20
4508567.500
  0
VERTEX
  8
LC_OH_2021_05_O7
  10
281660.501
  20
4508974.000
  0
VERTEX
  8
LC_OH_2021_05_O7
  10
281675.501
  20
4513418.000
  0
VERTEX
  8
LC_OH_2021_05_O7
  10
281676.501
  20
4513424.500
  0
VERTEX
  8
LC_OH_2021_05_O7
  10
281709.501
  20
4513440.000
  0
VERTEX
  8
LC_OH_2021_05_O7
  10
281710.501
  20
4513440.500
  0
SEQEND
  8
LC_OH_2021_05_O7
  0
INSERT
  8
FeatureAttribs
  2
FEATURE
  41
1
  42
1
  43
1
  50
0
  10
269420.044
  20
4511618.249
 66
1
  0
ATTRIB
  8
FeatureAttribs
 70
0
  1
PNOA-H_AMS_1956-57_33k_ES_PAN_21mic_H50_0503_fot_61B-18261_W.tif
  2
NAME
  10
269420.044
  20
4511618.249
 40
34.63200
  0
SEQEND
  0
POLYLINE
  8
LC_OH_2021_05_O7
  70
1
  66
1
  0
VERTEX
  8
LC_OH_2021_05_O7
  10
269423.500
  20
4514035.500
  0
VERTEX
  8
LC_OH_2021_05_O7
  10
270828.000
  20
4514008.000
  0
VERTEX
  8
LC_OH_2021_05_O7
  10
270832.000
  20
4514007.500
  0
VERTEX
  8
LC_OH_2021_05_O7
  10
270835.500
  20
4514005.500
  0
VERTEX
  8
LC_OH_2021_05_O7
  10
270980.000
  20
4513915.000
  0
VERTEX
  8
LC_OH_2021_05_O7
  10
270980.000
  20
4513912.000
  0
VERTEX
  8
LC_OH_2021_05_O7
  10
270640.000
  20
4509517.500
  0
VERTEX
  8
LC_OH_2021_05_O7
  10
269128.000
  20
4509176.000
  0
VERTEX
  8
LC_OH_2021_05_O7
  10
269123.500
  20
4509176.500
  0
VERTEX
  8
LC_OH_2021_05_O7
  10
267924.500
  20
4509684.500
  0
VERTEX
  8
LC_OH_2021_05_O7
  10
267918.500
  20
4509687.500
  0
VERTEX
  8
LC_OH_2021_05_O7
  10
267918.500
  20
4509692.000
  0
VERTEX
  8
LC_OH_2021_05_O7
  10
268188.500
  20
4514060.500
  0
VERTEX
  8
LC_OH_2021_05_O7
  10
269420.500
  20
4514035.500
  0
VERTEX
  8
LC_OH_2021_05_O7
  10
269423.500
  20
4514035.500
  0
SEQEND
  8
LC_OH_2021_05_O7
  0
INSERT
  8
FeatureAttribs
  2
FEATURE
  41
1
  42
1
  43
1
  50
0
  10
272147.637
  20
4511440.500
 66
1
  0
ATTRIB
  8
FeatureAttribs
 70
0
  1
PNOA-H_AMS_1956-57_33k_ES_PAN_21mic_H50_0503_fot_61B-18260_W.tif
  2
NAME
  10
272147.637
  20
4511440.500
 40
34.63200
  0
SEQEND
  0
POLYLINE
  8
LC_OH_2021_05_O7
  70
1
  66
1
  0
VERTEX
  8
LC_OH_2021_05_O7
  10
270980.000
  20
4513914.500
  0
VERTEX
  8
LC_OH_2021_05_O7
  10
273572.001
  20
4513819.000
  0
VERTEX
  8
LC_OH_2021_05_O7
  10
273448.501
  20
4509335.000
  0
VERTEX
  8
LC_OH_2021_05_O7
  10
272040.501
  20
4508967.000
  0
VERTEX
  8
LC_OH_2021_05_O7
  10
272035.501
  20
4508966.500
  0
VERTEX
  8
LC_OH_2021_05_O7
  10
270640.000
  20
4509517.500
  0
VERTEX
  8
LC_OH_2021_05_O7
  10
270980.000
  20
4513912.000
  0
VERTEX
  8
LC_OH_2021_05_O7
  10
270980.000
  20
4513914.500
  0
SEQEND
  8
LC_OH_2021_05_O7
  0
INSERT
  8
FeatureAttribs
  2
FEATURE
  41
1
  42
1
  43
1
  50
0
  10
286850.708
  20
4506429.749
 66
1
  0
ATTRIB
  8
FeatureAttribs
 70
0
  1
PNOA-H_AMS_1956-57_33k_ES_PAN_21mic_H50_0504_fot_62B-04144_W.tif
  2
NAME
  10
286850.708
  20
4506429.749
 40
34.63200
  0
SEQEND
  0
POLYLINE
  8
LC_OH_2021_05_O7
  70
1
  66
1
  0
VERTEX
  8
LC_OH_2021_05_O7
  10
287032.899
  20
4508775.862
  0
VERTEX
  8
LC_OH_2021_05_O7
  10
286985.465
  20
4507123.555
  0
VERTEX
  8
LC_OH_2021_05_O7
  10
286919.095
  20
4504810.647
  0
VERTEX
  8
LC_OH_2021_05_O7
  10
286061.011
  20
4504835.469
  0
VERTEX
  8
LC_OH_2021_05_O7
  10
286238.001
  20
4508563.500
  0
SEQEND
  8
LC_OH_2021_05_O7
  0
INSERT
  8
FeatureAttribs
  2
FEATURE
  41
1
  42
1
  43
1
  50
0
  10
266654.559
  20
4511770.750
 66
1
  0
ATTRIB
  8
FeatureAttribs
 70
0
  1
PNOA-H_AMS_1956-57_33k_ES_PAN_21mic_H50_0503_fot_61B-18262_W.tif
  2
NAME
  10
266654.559
  20
4511770.750
 40
34.63200
  0
SEQEND
  0
POLYLINE
  8
LC_OH_2021_05_O7
  70
1
  66
1
  0
VERTEX
  8
LC_OH_2021_05_O7
  10
265327.000
  20
4512803.500
  0
VERTEX
  8
LC_OH_2021_05_O7
  10
265413.500
  20
4514160.500
  0
VERTEX
  8
LC_OH_2021_05_O7
  10
267973.000
  20
4514193.500
  0
VERTEX
  8
LC_OH_2021_05_O7
  10
268188.500
  20
4514060.500
  0
VERTEX
  8
LC_OH_2021_05_O7
  10
267919.500
  20
4509700.000
  0
VERTEX
  8
LC_OH_2021_05_O7
  10
267918.500
  20
4509687.500
  0
VERTEX
  8
LC_OH_2021_05_O7
  10
267917.500
  20
4509687.000
  0
VERTEX
  8
LC_OH_2021_05_O7
  10
266194.500
  20
4509348.000
  0
VERTEX
  8
LC_OH_2021_05_O7
  10
265139.000
  20
4509838.500
  0
VERTEX
  8
LC_OH_2021_05_O7
  10
265327.000
  20
4512795.500
  0
VERTEX
  8
LC_OH_2021_05_O7
  10
265327.000
  20
4512803.500
  0
SEQEND
  8
LC_OH_2021_05_O7
  0
INSERT
  8
FeatureAttribs
  2
FEATURE
  41
1
  42
1
  43
1
  50
0
  10
263879.535
  20
4511935.999
 66
1
  0
ATTRIB
  8
FeatureAttribs
 70
0
  1
PNOA-H_AMS_1956-57_33k_ES_PAN_21mic_H50_0503_fot_61B-18263_W.tif
  2
NAME
  10
263879.535
  20
4511935.999
 40
34.63200
  0
SEQEND
  0
POLYLINE
  8
LC_OH_2021_05_O7
  70
1
  66
1
  0
VERTEX
  8
LC_OH_2021_05_O7
  10
265327.500
  20
4514212.000
  0
VERTEX
  8
LC_OH_2021_05_O7
  10
265411.500
  20
4514162.000
  0
VERTEX
  8
LC_OH_2021_05_O7
  10
265413.500
  20
4514160.500
  0
VERTEX
  8
LC_OH_2021_05_O7
  10
265413.500
  20
4514158.000
  0
VERTEX
  8
LC_OH_2021_05_O7
  10
265139.000
  20
4509838.500
  0
VERTEX
  8
LC_OH_2021_05_O7
  10
263249.000
  20
4509532.500
  0
VERTEX
  8
LC_OH_2021_05_O7
  10
262282.000
  20
4510019.000
  0
VERTEX
  8
LC_OH_2021_05_O7
  10
262734.500
  20
4514255.500
  0
VERTEX
  8
LC_OH_2021_05_O7
  10
262735.000
  20
4514256.500
  0
VERTEX
  8
LC_OH_2021_05_O7
  10
262755.500
  20
4514257.500
  0
VERTEX
  8
LC_OH_2021_05_O7
  10
265115.000
  20
4514339.500
  0
VERTEX
  8
LC_OH_2021_05_O7
  10
265326.500
  20
4514212.500
  0
VERTEX
  8
LC_OH_2021_05_O7
  10
265327.500
  20
4514212.000
  0
SEQEND
  8
LC_OH_2021_05_O7
  0
INSERT
  8
FeatureAttribs
  2
FEATURE
  41
1
  42
1
  43
1
  50
0
  10
261144.630
  20
4512152.249
 66
1
  0
ATTRIB
  8
FeatureAttribs
 70
0
  1
PNOA-H_AMS_1956-57_33k_ES_PAN_21mic_H50_0503_fot_61B-18264_W.tif
  2
NAME
  10
261144.630
  20
4512152.249
 40
34.63200
  0
SEQEND
  0
POLYLINE
  8
LC_OH_2021_05_O7
  70
1
  66
1
  0
VERTEX
  8
LC_OH_2021_05_O7
  10
259959.000
  20
4514300.500
  0
VERTEX
  8
LC_OH_2021_05_O7
  10
262320.500
  20
4514497.000
  0
VERTEX
  8
LC_OH_2021_05_O7
  10
262326.500
  20
4514497.500
  0
VERTEX
  8
LC_OH_2021_05_O7
  10
262330.500
  20
4514497.500
  0
VERTEX
  8
LC_OH_2021_05_O7
  10
262728.000
  20
4514261.000
  0
VERTEX
  8
LC_OH_2021_05_O7
  10
262734.500
  20
4514257.000
  0
VERTEX
  8
LC_OH_2021_05_O7
  10
262735.000
  20
4514255.500
  0
VERTEX
  8
LC_OH_2021_05_O7
  10
262282.000
  20
4510019.000
  0
VERTEX
  8
LC_OH_2021_05_O7
  10
260325.000
  20
4509807.000
  0
VERTEX
  8
LC_OH_2021_05_O7
  10
260319.000
  20
4509808.500
  0
VERTEX
  8
LC_OH_2021_05_O7
  10
259614.000
  20
4510179.500
  0
SEQEND
  8
LC_OH_2021_05_O7
  0
INSERT
  8
FeatureAttribs
  2
FEATURE
  41
1
  42
1
  43
1
  50
0
  10
259189.046
  20
4516402.856
 66
1
  0
ATTRIB
  8
FeatureAttribs
 70
0
  1
PNOA-H_AMS_1956-57_33k_ES_PAN_21mic_H50_0502_fot_60A-04430_E.tif
  2
NAME
  10
259189.046
  20
4516402.856
 40
34.63200
  0
SEQEND
  0
POLYLINE
  8
LC_OH_2021_05_O7
  70
1
  66
1
  0
VERTEX
  8
LC_OH_2021_05_O7
  10
259146.376
  20
4518173.543
  0
VERTEX
  8
LC_OH_2021_05_O7
  10
259347.000
  20
4518130.000
  0
VERTEX
  8
LC_OH_2021_05_O7
  10
259321.000
  20
4514674.000
  0
VERTEX
  8
LC_OH_2021_05_O7
  10
259031.092
  20
4514632.169
  0
VERTEX
  8
LC_OH_2021_05_O7
  10
259040.610
  20
4514924.682
  0
VERTEX
  8
LC_OH_2021_05_O7
  10
259115.901
  20
4517237.711
  0
SEQEND
  8
LC_OH_2021_05_O7
  0
INSERT
  8
FeatureAttribs
  2
FEATURE
  41
1
  42
1
  43
1
  50
0
  10
260795.714
  20
4516408.250
 66
1
  0
ATTRIB
  8
FeatureAttribs
 70
0
  1
PNOA-H_AMS_1956-57_33k_ES_PAN_21mic_H50_0503_fot_60A-04431_E.tif
  2
NAME
  10
260795.714
  20
4516408.250
 40
34.63200
  0
SEQEND
  0
POLYLINE
  8
LC_OH_2021_05_O7
  70
1
  66
1
  0
VERTEX
  8
LC_OH_2021_05_O7
  10
259347.000
  20
4518130.000
  0
VERTEX
  8
LC_OH_2021_05_O7
  10
260027.500
  20
4518516.000
  0
VERTEX
  8
LC_OH_2021_05_O7
  10
261106.500
  20
4518440.000
  0
VERTEX
  8
LC_OH_2021_05_O7
  10
261230.500
  20
4518407.000
  0
VERTEX
  8
LC_OH_2021_05_O7
  10
261231.500
  20
4518407.000
  0
VERTEX
  8
LC_OH_2021_05_O7
  10
262191.000
  20
4518154.500
  0
VERTEX
  8
LC_OH_2021_05_O7
  10
262330.000
  20
4514497.500
  0
VERTEX
  8
LC_OH_2021_05_O7
  10
259964.000
  20
4514300.500
  0
VERTEX
  8
LC_OH_2021_05_O7
  10
259958.500
  20
4514300.500
  0
VERTEX
  8
LC_OH_2021_05_O7
  10
259953.000
  20
4514303.500
  0
VERTEX
  8
LC_OH_2021_05_O7
  10
259321.000
  20
4514674.000
  0
SEQEND
  8
LC_OH_2021_05_O7
  0
INSERT
  8
FeatureAttribs
  2
FEATURE
  41
1
  42
1
  43
1
  50
0
  10
263706.507
  20
4516392.000
 66
1
  0
ATTRIB
  8
FeatureAttribs
 70
0
  1
PNOA-H_AMS_1956-57_33k_ES_PAN_21mic_H50_0503_fot_60A-04432_E.tif
  2
NAME
  10
263706.507
  20
4516392.000
 40
34.63200
  0
SEQEND
  0
POLYLINE
  8
LC_OH_2021_05_O7
  70
1
  66
1
  0
VERTEX
  8
LC_OH_2021_05_O7
  10
263279.500
  20
4518502.000
  0
VERTEX
  8
LC_OH_2021_05_O7
  10
264561.500
  20
4518415.000
  0
VERTEX
  8
LC_OH_2021_05_O7
  10
265191.500
  20
4518222.500
  0
VERTEX
  8
LC_OH_2021_05_O7
  10
265114.500
  20
4514339.500
  0
VERTEX
  8
LC_OH_2021_05_O7
  10
262741.500
  20
4514256.500
  0
VERTEX
  8
LC_OH_2021_05_O7
  10
262734.500
  20
4514256.500
  0
VERTEX
  8
LC_OH_2021_05_O7
  10
262725.000
  20
4514262.000
  0
VERTEX
  8
LC_OH_2021_05_O7
  10
262331.000
  20
4514496.500
  0
VERTEX
  8
LC_OH_2021_05_O7
  10
262329.500
  20
4514500.000
  0
VERTEX
  8
LC_OH_2021_05_O7
  10
262191.000
  20
4518154.500
  0
VERTEX
  8
LC_OH_2021_05_O7
  10
262907.000
  20
4518527.500
  0
VERTEX
  8
LC_OH_2021_05_O7
  10
263278.500
  20
4518502.000
  0
VERTEX
  8
LC_OH_2021_05_O7
  10
263279.500
  20
4518502.000
  0
SEQEND
  8
LC_OH_2021_05_O7
  0
INSERT
  8
FeatureAttribs
  2
FEATURE
  41
1
  42
1
  43
1
  50
0
  10
269488.272
  20
4516196.001
 66
1
  0
ATTRIB
  8
FeatureAttribs
 70
0
  1
PNOA-H_AMS_1956-57_33k_ES_PAN_21mic_H50_0503_fot_60A-04434_E.tif
  2
NAME
  10
269488.272
  20
4516196.001
 40
34.63200
  0
SEQEND
  0
POLYLINE
  8
LC_OH_2021_05_O7
  70
1
  66
1
  0
VERTEX
  8
LC_OH_2021_05_O7
  10
268246.000
  20
4518384.500
  0
VERTEX
  8
LC_OH_2021_05_O7
  10
271016.500
  20
4518287.000
  0
VERTEX
  8
LC_OH_2021_05_O7
  10
270831.500
  20
4514007.500
  0
VERTEX
  8
LC_OH_2021_05_O7
  10
268189.000
  20
4514060.000
  0
VERTEX
  8
LC_OH_2021_05_O7
  10
267973.000
  20
4514193.000
  0
VERTEX
  8
LC_OH_2021_05_O7
  10
268132.000
  20
4518305.000
  0
VERTEX
  8
LC_OH_2021_05_O7
  10
268246.000
  20
4518384.500
  0
SEQEND
  8
LC_OH_2021_05_O7
  0
INSERT
  8
FeatureAttribs
  2
FEATURE
  41
1
  42
1
  43
1
  50
0
  10
266604.317
  20
4516313.499
 66
1
  0
ATTRIB
  8
FeatureAttribs
 70
0
  1
PNOA-H_AMS_1956-57_33k_ES_PAN_21mic_H50_0503_fot_60A-04433_E.tif
  2
NAME
  10
266604.317
  20
4516313.499
 40
34.63200
  0
SEQEND
  0
POLYLINE
  8
LC_OH_2021_05_O7
  70
1
  66
1
  0
VERTEX
  8
LC_OH_2021_05_O7
  10
265327.000
  20
4518283.500
  0
VERTEX
  8
LC_OH_2021_05_O7
  10
265734.000
  20
4518466.500
  0
VERTEX
  8
LC_OH_2021_05_O7
  10
268132.000
  20
4518305.000
  0
VERTEX
  8
LC_OH_2021_05_O7
  10
267973.000
  20
4514193.500
  0
VERTEX
  8
LC_OH_2021_05_O7
  10
265413.000
  20
4514160.500
  0
VERTEX
  8
LC_OH_2021_05_O7
  10
265114.500
  20
4514339.500
  0
VERTEX
  8
LC_OH_2021_05_O7
  10
265191.500
  20
4518222.500
  0
VERTEX
  8
LC_OH_2021_05_O7
  10
265326.000
  20
4518283.000
  0
VERTEX
  8
LC_OH_2021_05_O7
  10
265327.000
  20
4518283.500
  0
SEQEND
  8
LC_OH_2021_05_O7
  0
INSERT
  8
FeatureAttribs
  2
FEATURE
  41
1
  42
1
  43
1
  50
0
  10
275218.151
  20
4516004.750
 66
1
  0
ATTRIB
  8
FeatureAttribs
 70
0
  1
PNOA-H_AMS_1956-57_33k_ES_PAN_21mic_H50_0503_fot_60A-04436_E.tif
  2
NAME
  10
275218.151
  20
4516004.750
 40
34.63200
  0
SEQEND
  0
POLYLINE
  8
LC_OH_2021_05_O7
  70
1
  66
1
  0
VERTEX
  8
LC_OH_2021_05_O7
  10
275567.501
  20
4518278.000
  0
VERTEX
  8
LC_OH_2021_05_O7
  10
276736.501
  20
4518248.000
  0
VERTEX
  8
LC_OH_2021_05_O7
  10
276743.001
  20
4518246.500
  0
VERTEX
  8
LC_OH_2021_05_O7
  10
276836.001
  20
4518181.000
  0
VERTEX
  8
LC_OH_2021_05_O7
  10
276478.501
  20
4513810.500
  0
VERTEX
  8
LC_OH_2021_05_O7
  10
276224.001
  20
4513688.500
  0
VERTEX
  8
LC_OH_2021_05_O7
  10
273707.501
  20
4513887.000
  0
VERTEX
  8
LC_OH_2021_05_O7
  10
273855.001
  20
4518298.000
  0
VERTEX
  8
LC_OH_2021_05_O7
  10
273888.001
  20
4518320.500
  0
VERTEX
  8
LC_OH_2021_05_O7
  10
273895.501
  20
4518321.000
  0
VERTEX
  8
LC_OH_2021_05_O7
  10
275549.501
  20
4518278.000
  0
VERTEX
  8
LC_OH_2021_05_O7
  10
275567.501
  20
4518278.000
  0
SEQEND
  8
LC_OH_2021_05_O7
  0
INSERT
  8
FeatureAttribs
  2
FEATURE
  41
1
  42
1
  43
1
  50
0
  10
278071.536
  20
4515851.000
 66
1
  0
ATTRIB
  8
FeatureAttribs
 70
0
  1
PNOA-H_AMS_1956-57_33k_ES_PAN_21mic_H50_0503_fot_60A-04437_E.tif
  2
NAME
  10
278071.536
  20
4515851.000
 40
34.63200
  0
SEQEND
  0
POLYLINE
  8
LC_OH_2021_05_O7
  70
1
  66
1
  0
VERTEX
  8
LC_OH_2021_05_O7
  10
277615.501
  20
4518176.000
  0
VERTEX
  8
LC_OH_2021_05_O7
  10
278002.501
  20
4518173.500
  0
VERTEX
  8
LC_OH_2021_05_O7
  10
279628.501
  20
4517997.000
  0
VERTEX
  8
LC_OH_2021_05_O7
  10
279368.001
  20
4513717.000
  0
VERTEX
  8
LC_OH_2021_05_O7
  10
279367.501
  20
4513714.000
  0
VERTEX
  8
LC_OH_2021_05_O7
  10
279357.501
  20
4513709.000
  0
VERTEX
  8
LC_OH_2021_05_O7
  10
278963.001
  20
4513521.000
  0
VERTEX
  8
LC_OH_2021_05_O7
  10
276478.501
  20
4513810.500
  0
VERTEX
  8
LC_OH_2021_05_O7
  10
276835.501
  20
4518180.500
  0
VERTEX
  8
LC_OH_2021_05_O7
  10
276897.501
  20
4518181.000
  0
VERTEX
  8
LC_OH_2021_05_O7
  10
277577.501
  20
4518176.000
  0
VERTEX
  8
LC_OH_2021_05_O7
  10
277615.501
  20
4518176.000
  0
SEQEND
  8
LC_OH_2021_05_O7
  0
INSERT
  8
FeatureAttribs
  2
FEATURE
  41
1
  42
1
  43
1
  50
0
  10
272351.148
  20
4516085.000
 66
1
  0
ATTRIB
  8
FeatureAttribs
 70
0
  1
PNOA-H_AMS_1956-57_33k_ES_PAN_21mic_H50_0503_fot_60A-04435_E.tif
  2
NAME
  10
272351.148
  20
4516085.000
 40
34.63200
  0
SEQEND
  0
POLYLINE
  8
LC_OH_2021_05_O7
  70
1
  66
1
  0
VERTEX
  8
LC_OH_2021_05_O7
  10
271109.500
  20
4518351.000
  0
VERTEX
  8
LC_OH_2021_05_O7
  10
273855.001
  20
4518298.000
  0
VERTEX
  8
LC_OH_2021_05_O7
  10
273707.501
  20
4513887.000
  0
VERTEX
  8
LC_OH_2021_05_O7
  10
273573.001
  20
4513819.000
  0
VERTEX
  8
LC_OH_2021_05_O7
  10
273559.501
  20
4513819.000
  0
VERTEX
  8
LC_OH_2021_05_O7
  10
270990.500
  20
4513914.000
  0
VERTEX
  8
LC_OH_2021_05_O7
  10
270980.000
  20
4513914.500
  0
VERTEX
  8
LC_OH_2021_05_O7
  10
270978.000
  20
4513915.500
  0
VERTEX
  8
LC_OH_2021_05_O7
  10
270831.500
  20
4514007.500
  0
VERTEX
  8
LC_OH_2021_05_O7
  10
271016.500
  20
4518287.000
  0
VERTEX
  8
LC_OH_2021_05_O7
  10
271109.000
  20
4518350.000
  0
VERTEX
  8
LC_OH_2021_05_O7
  10
271109.500
  20
4518351.000
  0
SEQEND
  8
LC_OH_2021_05_O7
  0
INSERT
  8
FeatureAttribs
  2
FEATURE
  41
1
  42
1
  43
1
  50
0
  10
280900.463
  20
4515765.001
 66
1
  0
ATTRIB
  8
FeatureAttribs
 70
0
  1
PNOA-H_AMS_1956-57_33k_ES_PAN_21mic_H50_0503_fot_60A-04438_E.tif
  2
NAME
  10
280900.463
  20
4515765.001
 40
34.63200
  0
SEQEND
  0
POLYLINE
  8
LC_OH_2021_05_O7
  70
1
  66
1
  0
VERTEX
  8
LC_OH_2021_05_O7
  10
279662.501
  20
4518015.000
  0
VERTEX
  8
LC_OH_2021_05_O7
  10
279838.501
  20
4518106.000
  0
VERTEX
  8
LC_OH_2021_05_O7
  10
280542.001
  20
4518077.500
  0
VERTEX
  8
LC_OH_2021_05_O7
  10
282442.001
  20
4517766.500
  0
VERTEX
  8
LC_OH_2021_05_O7
  10
282177.501
  20
4513799.500
  0
VERTEX
  8
LC_OH_2021_05_O7
  10
282167.001
  20
4513654.000
  0
VERTEX
  8
LC_OH_2021_05_O7
  10
281683.001
  20
4513427.000
  0
VERTEX
  8
LC_OH_2021_05_O7
  10
281676.501
  20
4513424.000
  0
VERTEX
  8
LC_OH_2021_05_O7
  10
281673.501
  20
4513424.000
  0
VERTEX
  8
LC_OH_2021_05_O7
  10
279367.501
  20
4513714.000
  0
VERTEX
  8
LC_OH_2021_05_O7
  10
279628.001
  20
4517991.500
  0
VERTEX
  8
LC_OH_2021_05_O7
  10
279629.001
  20
4517997.500
  0
VERTEX
  8
LC_OH_2021_05_O7
  10
279661.501
  20
4518014.500
  0
VERTEX
  8
LC_OH_2021_05_O7
  10
279662.501
  20
4518015.000
  0
SEQEND
  8
LC_OH_2021_05_O7
  0
INSERT
  8
FeatureAttribs
  2
FEATURE
  41
1
  42
1
  43
1
  50
0
  10
286581.911
  20
4515528.501
 66
1
  0
ATTRIB
  8
FeatureAttribs
 70
0
  1
PNOA-H_AMS_1956-57_33k_ES_PAN_21mic_H50_0503_fot_60A-04440_E.tif
  2
NAME
  10
286581.911
  20
4515528.501
 40
34.63200
  0
SEQEND
  0
POLYLINE
  8
LC_OH_2021_05_O7
  70
1
  66
1
  0
VERTEX
  8
LC_OH_2021_05_O7
  10
287285.428
  20
4517564.519
  0
VERTEX
  8
LC_OH_2021_05_O7
  10
287251.229
  20
4516375.256
  0
VERTEX
  8
LC_OH_2021_05_O7
  10
287184.746
  20
4514062.321
  0
VERTEX
  8
LC_OH_2021_05_O7
  10
287160.077
  20
4513203.744
  0
VERTEX
  8
LC_OH_2021_05_O7
  10
285015.501
  20
4513598.500
  0
VERTEX
  8
LC_OH_2021_05_O7
  10
285266.001
  20
4517607.000
  0
VERTEX
  8
LC_OH_2021_05_O7
  10
285806.001
  20
4517848.000
  0
VERTEX
  8
LC_OH_2021_05_O7
  10
285807.001
  20
4517848.500
  0
VERTEX
  8
LC_OH_2021_05_O7
  10
285830.501
  20
4517859.000
  0
VERTEX
  8
LC_OH_2021_05_O7
  10
285835.001
  20
4517859.500
  0
SEQEND
  8
LC_OH_2021_05_O7
  0
INSERT
  8
FeatureAttribs
  2
FEATURE
  41
1
  42
1
  43
1
  50
0
  10
283720.825
  20
4515627.000
 66
1
  0
ATTRIB
  8
FeatureAttribs
 70
0
  1
PNOA-H_AMS_1956-57_33k_ES_PAN_21mic_H50_0503_fot_60A-04439_E.tif
  2
NAME
  10
283720.825
  20
4515627.000
 40
34.63200
  0
SEQEND
  0
POLYLINE
  8
LC_OH_2021_05_O7
  70
1
  66
1
  0
VERTEX
  8
LC_OH_2021_05_O7
  10
283759.501
  20
4517882.000
  0
VERTEX
  8
LC_OH_2021_05_O7
  10
285266.001
  20
4517607.000
  0
VERTEX
  8
LC_OH_2021_05_O7
  10
285016.001
  20
4513599.000
  0
VERTEX
  8
LC_OH_2021_05_O7
  10
284383.001
  20
4513291.000
  0
VERTEX
  8
LC_OH_2021_05_O7
  10
282167.501
  20
4513654.500
  0
VERTEX
  8
LC_OH_2021_05_O7
  10
282442.001
  20
4517766.500
  0
VERTEX
  8
LC_OH_2021_05_O7
  10
282860.001
  20
4517963.000
  0
VERTEX
  8
LC_OH_2021_05_O7
  10
283644.001
  20
4517903.500
  0
VERTEX
  8
LC_OH_2021_05_O7
  10
283756.001
  20
4517882.500
  0
VERTEX
  8
LC_OH_2021_05_O7
  10
283759.501
  20
4517882.000
  0
SEQEND
  8
LC_OH_2021_05_O7
  0
INSERT
  8
FeatureAttribs
  2
FEATURE
  41
1
  42
1
  43
1
  50
0
  10
275403.814
  20
4521206.500
 66
1
  0
ATTRIB
  8
FeatureAttribs
 70
0
  1
PNOA-H_AMS_1956-57_33k_ES_PAN_21mic_H50_0503_fot_59B-29273_W.tif
  2
NAME
  10
275403.814
  20
4521206.500
 40
34.63200
  0
SEQEND
  0
POLYLINE
  8
LC_OH_2021_05_O7
  70
1
  66
1
  0
VERTEX
  8
LC_OH_2021_05_O7
  10
275302.001
  20
4522637.500
  0
VERTEX
  8
LC_OH_2021_05_O7
  10
276486.501
  20
4522347.500
  0
VERTEX
  8
LC_OH_2021_05_O7
  10
276874.001
  20
4522183.500
  0
VERTEX
  8
LC_OH_2021_05_O7
  10
276735.001
  20
4519775.500
  0
VERTEX
  8
LC_OH_2021_05_O7
  10
273985.001
  20
4521122.000
  0
VERTEX
  8
LC_OH_2021_05_O7
  10
274053.001
  20
4522269.000
  0
VERTEX
  8
LC_OH_2021_05_O7
  10
275300.501
  20
4522637.000
  0
VERTEX
  8
LC_OH_2021_05_O7
  10
275302.001
  20
4522637.500
  0
SEQEND
  8
LC_OH_2021_05_O7
  0
INSERT
  8
FeatureAttribs
  2
FEATURE
  41
1
  42
1
  43
1
  50
0
  10
269467.913
  20
4521439.500
 66
1
  0
ATTRIB
  8
FeatureAttribs
 70
0
  1
PNOA-H_AMS_1956-57_33k_ES_PAN_21mic_H50_0503_fot_59B-29275_W.tif
  2
NAME
  10
269467.913
  20
4521439.500
 40
34.63200
  0
SEQEND
  0
POLYLINE
  8
LC_OH_2021_05_O7
  70
1
  66
1
  0
VERTEX
  8
LC_OH_2021_05_O7
  10
269676.000
  20
4522837.000
  0
VERTEX
  8
LC_OH_2021_05_O7
  10
269685.000
  20
4522835.000
  0
VERTEX
  8
LC_OH_2021_05_O7
  10
270567.000
  20
4522559.500
  0
VERTEX
  8
LC_OH_2021_05_O7
  10
271032.500
  20
4522326.500
  0
VERTEX
  8
LC_OH_2021_05_O7
  10
270968.500
  20
4521133.500
  0
VERTEX
  8
LC_OH_2021_05_O7
  10
268254.500
  20
4520042.000
  0
VERTEX
  8
LC_OH_2021_05_O7
  10
268252.500
  20
4520043.000
  0
VERTEX
  8
LC_OH_2021_05_O7
  10
268250.000
  20
4520053.000
  0
VERTEX
  8
LC_OH_2021_05_O7
  10
267947.500
  20
4521320.000
  0
VERTEX
  8
LC_OH_2021_05_O7
  10
267976.000
  20
4522319.000
  0
VERTEX
  8
LC_OH_2021_05_O7
  10
269097.000
  20
4522735.500
  0
VERTEX
  8
LC_OH_2021_05_O7
  10
269673.000
  20
4522836.500
  0
VERTEX
  8
LC_OH_2021_05_O7
  10
269676.000
  20
4522837.000
  0
SEQEND
  8
LC_OH_2021_05_O7
  0
INSERT
  8
FeatureAttribs
  2
FEATURE
  41
1
  42
1
  43
1
  50
0
  10
263426.183
  20
4521539.501
 66
1
  0
ATTRIB
  8
FeatureAttribs
 70
0
  1
PNOA-H_AMS_1956-57_33k_ES_PAN_21mic_H50_0503_fot_59B-29277_W.tif
  2
NAME
  10
263426.183
  20
4521539.501
 40
34.63200
  0
SEQEND
  0
POLYLINE
  8
LC_OH_2021_05_O7
  70
1
  66
1
  0
VERTEX
  8
LC_OH_2021_05_O7
  10
263632.000
  20
4522955.500
  0
VERTEX
  8
LC_OH_2021_05_O7
  10
263634.000
  20
4522955.500
  0
VERTEX
  8
LC_OH_2021_05_O7
  10
263644.000
  20
4522950.500
  0
VERTEX
  8
LC_OH_2021_05_O7
  10
264918.500
  20
4522299.500
  0
VERTEX
  8
LC_OH_2021_05_O7
  10
264930.500
  20
4522292.500
  0
VERTEX
  8
LC_OH_2021_05_O7
  10
264367.000
  20
4521087.000
  0
VERTEX
  8
LC_OH_2021_05_O7
  10
262883.000
  20
4520123.500
  0
VERTEX
  8
LC_OH_2021_05_O7
  10
262882.000
  20
4520123.500
  0
VERTEX
  8
LC_OH_2021_05_O7
  10
262875.500
  20
4520138.500
  0
VERTEX
  8
LC_OH_2021_05_O7
  10
262043.000
  20
4522077.000
  0
VERTEX
  8
LC_OH_2021_05_O7
  10
262047.000
  20
4522231.500
  0
VERTEX
  8
LC_OH_2021_05_O7
  10
263630.000
  20
4522955.000
  0
VERTEX
  8
LC_OH_2021_05_O7
  10
263632.000
  20
4522955.500
  0
SEQEND
  8
LC_OH_2021_05_O7
  0
INSERT
  8
FeatureAttribs
  2
FEATURE
  41
1
  42
1
  43
1
  50
0
  10
266660.879
  20
4521541.750
 66
1
  0
ATTRIB
  8
FeatureAttribs
 70
0
  1
PNOA-H_AMS_1956-57_33k_ES_PAN_21mic_H50_0503_fot_59B-29276_W.tif
  2
NAME
  10
266660.879
  20
4521541.750
 40
34.63200
  0
SEQEND
  0
POLYLINE
  8
LC_OH_2021_05_O7
  70
1
  66
1
  0
VERTEX
  8
LC_OH_2021_05_O7
  10
267375.500
  20
4522608.000
  0
VERTEX
  8
LC_OH_2021_05_O7
  10
267976.000
  20
4522319.000
  0
VERTEX
  8
LC_OH_2021_05_O7
  10
267947.500
  20
4521320.500
  0
VERTEX
  8
LC_OH_2021_05_O7
  10
265851.500
  20
4520149.500
  0
VERTEX
  8
LC_OH_2021_05_O7
  10
265111.000
  20
4522281.500
  0
VERTEX
  8
LC_OH_2021_05_O7
  10
266659.500
  20
4522926.500
  0
VERTEX
  8
LC_OH_2021_05_O7
  10
266698.000
  20
4522934.000
  0
VERTEX
  8
LC_OH_2021_05_O7
  10
266707.000
  20
4522930.500
  0
VERTEX
  8
LC_OH_2021_05_O7
  10
267374.000
  20
4522608.500
  0
VERTEX
  8
LC_OH_2021_05_O7
  10
267375.500
  20
4522608.000
  0
SEQEND
  8
LC_OH_2021_05_O7
  0
INSERT
  8
FeatureAttribs
  2
FEATURE
  41
1
  42
1
  43
1
  50
0
  10
272497.645
  20
4521496.750
 66
1
  0
ATTRIB
  8
FeatureAttribs
 70
0
  1
PNOA-H_AMS_1956-57_33k_ES_PAN_21mic_H50_0503_fot_59B-29274_W.tif
  2
NAME
  10
272497.645
  20
4521496.750
 40
34.63200
  0
SEQEND
  0
POLYLINE
  8
LC_OH_2021_05_O7
  70
1
  66
1
  0
VERTEX
  8
LC_OH_2021_05_O7
  10
273927.001
  20
4520638.500
  0
VERTEX
  8
LC_OH_2021_05_O7
  10
273880.001
  20
4520245.000
  0
VERTEX
  8
LC_OH_2021_05_O7
  10
273879.501
  20
4520243.500
  0
VERTEX
  8
LC_OH_2021_05_O7
  10
273877.001
  20
4520243.500
  0
VERTEX
  8
LC_OH_2021_05_O7
  10
271022.000
  20
4520804.000
  0
VERTEX
  8
LC_OH_2021_05_O7
  10
271021.000
  20
4520804.500
  0
VERTEX
  8
LC_OH_2021_05_O7
  10
270968.500
  20
4521133.000
  0
VERTEX
  8
LC_OH_2021_05_O7
  10
271032.500
  20
4522326.500
  0
VERTEX
  8
LC_OH_2021_05_O7
  10
271676.501
  20
4522541.500
  0
VERTEX
  8
LC_OH_2021_05_O7
  10
272475.501
  20
4522750.000
  0
VERTEX
  8
LC_OH_2021_05_O7
  10
273681.501
  20
4522441.500
  0
VERTEX
  8
LC_OH_2021_05_O7
  10
274053.001
  20
4522269.000
  0
VERTEX
  8
LC_OH_2021_05_O7
  10
273985.001
  20
4521120.500
  0
VERTEX
  8
LC_OH_2021_05_O7
  10
273927.001
  20
4520641.000
  0
VERTEX
  8
LC_OH_2021_05_O7
  10
273927.001
  20
4520638.500
  0
SEQEND
  8
LC_OH_2021_05_O7
  0
INSERT
  8
FeatureAttribs
  2
FEATURE
  41
1
  42
1
  43
1
  50
0
  10
260428.186
  20
4521501.751
 66
1
  0
ATTRIB
  8
FeatureAttribs
 70
0
  1
PNOA-H_AMS_1956-57_33k_ES_PAN_21mic_H50_0503_fot_59B-29278_W.tif
  2
NAME
  10
260428.186
  20
4521501.751
 40
34.63200
  0
SEQEND
  0
POLYLINE
  8
LC_OH_2021_05_O7
  70
1
  66
1
  0
VERTEX
  8
LC_OH_2021_05_O7
  10
259279.803
  20
4522269.502
  0
VERTEX
  8
LC_OH_2021_05_O7
  10
260694.000
  20
4522942.000
  0
VERTEX
  8
LC_OH_2021_05_O7
  10
260705.500
  20
4522937.000
  0
VERTEX
  8
LC_OH_2021_05_O7
  10
261230.500
  20
4522660.500
  0
VERTEX
  8
LC_OH_2021_05_O7
  10
261231.500
  20
4522660.000
  0
VERTEX
  8
LC_OH_2021_05_O7
  10
262047.000
  20
4522232.000
  0
VERTEX
  8
LC_OH_2021_05_O7
  10
262042.500
  20
4522077.500
  0
VERTEX
  8
LC_OH_2021_05_O7
  10
261608.500
  20
4521406.500
  0
VERTEX
  8
LC_OH_2021_05_O7
  10
259896.500
  20
4520061.500
  0
VERTEX
  8
LC_OH_2021_05_O7
  10
259250.537
  20
4521371.369
  0
VERTEX
  8
LC_OH_2021_05_O7
  10
259266.580
  20
4521863.788
  0
SEQEND
  8
LC_OH_2021_05_O7
  0
INSERT
  8
FeatureAttribs
  2
FEATURE
  41
1
  42
1
  43
1
  50
0
  10
282036.471
  20
4519949.251
 66
1
  0
ATTRIB
  8
FeatureAttribs
 70
0
  1
PNOA-H_AMS_1956-57_33k_ES_PAN_21mic_H50_0503_fot_59B-29271_W.tif
  2
NAME
  10
282036.471
  20
4519949.251
 40
34.63200
  0
SEQEND
  0
POLYLINE
  8
LC_OH_2021_05_O7
  70
1
  66
1
  0
VERTEX
  8
LC_OH_2021_05_O7
  10
282054.501
  20
4522132.000
  0
VERTEX
  8
LC_OH_2021_05_O7
  10
282526.501
  20
4522073.500
  0
VERTEX
  8
LC_OH_2021_05_O7
  10
282805.001
  20
4521988.000
  0
VERTEX
  8
LC_OH_2021_05_O7
  10
282861.001
  20
4517963.000
  0
VERTEX
  8
LC_OH_2021_05_O7
  10
282449.501
  20
4517769.500
  0
VERTEX
  8
LC_OH_2021_05_O7
  10
282443.001
  20
4517766.500
  0
VERTEX
  8
LC_OH_2021_05_O7
  10
282440.501
  20
4517766.500
  0
VERTEX
  8
LC_OH_2021_05_O7
  10
280540.501
  20
4518077.500
  0
VERTEX
  8
LC_OH_2021_05_O7
  10
282054.501
  20
4522131.000
  0
VERTEX
  8
LC_OH_2021_05_O7
  10
282054.501
  20
4522132.000
  0
SEQEND
  8
LC_OH_2021_05_O7
  0
INSERT
  8
FeatureAttribs
  2
FEATURE
  41
1
  42
1
  43
1
  50
0
  10
285093.605
  20
4519824.000
 66
1
  0
ATTRIB
  8
FeatureAttribs
 70
0
  1
PNOA-H_AMS_1956-57_33k_ES_PAN_21mic_H50_0503_fot_59B-29270_W.tif
  2
NAME
  10
285093.605
  20
4519824.000
 40
34.63200
  0
SEQEND
  0
POLYLINE
  8
LC_OH_2021_05_O7
  70
1
  66
1
  0
VERTEX
  8
LC_OH_2021_05_O7
  10
284869.001
  20
4522041.000
  0
VERTEX
  8
LC_OH_2021_05_O7
  10
285417.001
  20
4522002.500
  0
VERTEX
  8
LC_OH_2021_05_O7
  10
286118.501
  20
4521803.500
  0
VERTEX
  8
LC_OH_2021_05_O7
  10
285885.501
  20
4518592.000
  0
VERTEX
  8
LC_OH_2021_05_O7
  10
285885.501
  20
4518590.500
  0
VERTEX
  8
LC_OH_2021_05_O7
  10
285832.501
  20
4517859.500
  0
VERTEX
  8
LC_OH_2021_05_O7
  10
285266.501
  20
4517607.000
  0
VERTEX
  8
LC_OH_2021_05_O7
  10
283643.501
  20
4517903.500
  0
SEQEND
  8
LC_OH_2021_05_O7
  0
INSERT
  8
FeatureAttribs
  2
FEATURE
  41
1
  42
1
  43
1
  50
0
  10
279076.782
  20
4520176.252
 66
1
  0
ATTRIB
  8
FeatureAttribs
 70
0
  1
PNOA-H_AMS_1956-57_33k_ES_PAN_21mic_H50_0503_fot_59B-29272_W.tif
  2
NAME
  10
279076.782
  20
4520176.252
 40
34.63200
  0
SEQEND
  0
POLYLINE
  8
LC_OH_2021_05_O7
  70
1
  66
1
  0
VERTEX
  8
LC_OH_2021_05_O7
  10
279663.501
  20
4522154.500
  0
VERTEX
  8
LC_OH_2021_05_O7
  10
279814.001
  20
4522102.500
  0
VERTEX
  8
LC_OH_2021_05_O7
  10
279838.501
  20
4518105.500
  0
VERTEX
  8
LC_OH_2021_05_O7
  10
279629.001
  20
4517997.000
  0
VERTEX
  8
LC_OH_2021_05_O7
  10
278007.001
  20
4518172.500
  0
VERTEX
  8
LC_OH_2021_05_O7
  10
278001.001
  20
4518173.500
  0
VERTEX
  8
LC_OH_2021_05_O7
  10
278001.001
  20
4518177.000
  0
VERTEX
  8
LC_OH_2021_05_O7
  10
278684.001
  20
4522355.500
  0
VERTEX
  8
LC_OH_2021_05_O7
  10
279466.001
  20
4522222.500
  0
VERTEX
  8
LC_OH_2021_05_O7
  10
279662.501
  20
4522154.500
  0
VERTEX
  8
LC_OH_2021_05_O7
  10
279663.501
  20
4522154.500
  0
SEQEND
  8
LC_OH_2021_05_O7
  0
INSERT
  8
FeatureAttribs
  2
FEATURE
  41
1
  42
1
  43
1
  50
0
  10
286621.741
  20
4519777.450
 66
1
  0
ATTRIB
  8
FeatureAttribs
 70
0
  1
PNOA-H_AMS_1956-57_33k_ES_PAN_21mic_H50_0504_fot_59B-29269_W.tif
  2
NAME
  10
286621.741
  20
4519777.450
 40
34.63200
  0
SEQEND
  0
POLYLINE
  8
LC_OH_2021_05_O7
  70
1
  66
1
  0
VERTEX
  8
LC_OH_2021_05_O7
  10
287285.424
  20
4517564.400
  0
VERTEX
  8
LC_OH_2021_05_O7
  10
285832.501
  20
4517859.500
  0
VERTEX
  8
LC_OH_2021_05_O7
  10
286118.501
  20
4521803.500
  0
VERTEX
  8
LC_OH_2021_05_O7
  10
286583.001
  20
4521990.500
  0
VERTEX
  8
LC_OH_2021_05_O7
  10
287410.981
  20
4521928.890
  0
VERTEX
  8
LC_OH_2021_05_O7
  10
287384.280
  20
4521001.147
  0
VERTEX
  8
LC_OH_2021_05_O7
  10
287317.740
  20
4518688.198
  0
SEQEND
  8
LC_OH_2021_05_O7
  0
INSERT
  8
FeatureAttribs
  2
FEATURE
  41
1
  42
1
  43
1
  50
0
  10
281888.519
  20
4505502.749
 66
1
  0
ATTRIB
  8
FeatureAttribs
 70
0
  1
PNOA-H_AMS_1956-57_33k_ES_PAN_21mic_H50_0503_fot_62C-05346_E.tif
  2
NAME
  10
281888.519
  20
4505502.749
 40
34.63200
  0
SEQEND
  0
POLYLINE
  8
LC_OH_2021_05_O7
  70
1
  66
1
  0
VERTEX
  8
LC_OH_2021_05_O7
  10
283146.681
  20
4504919.890
  0
VERTEX
  8
LC_OH_2021_05_O7
  10
280202.854
  20
4505006.444
  0
VERTEX
  8
LC_OH_2021_05_O7
  10
280230.001
  20
4505242.000
  0
VERTEX
  8
LC_OH_2021_05_O7
  10
283102.001
  20
4507058.000
  0
VERTEX
  8
LC_OH_2021_05_O7
  10
283102.501
  20
4507059.000
  0
SEQEND
  8
LC_OH_2021_05_O7
  0
INSERT
  8
FeatureAttribs
  2
FEATURE
  41
1
  42
1
  43
1
  50
0
  10
285447.220
  20
4506320.250
 66
1
  0
ATTRIB
  8
FeatureAttribs
 70
0
  1
PNOA-H_AMS_1956-57_33k_ES_PAN_21mic_H50_0503_fot_62C-05347_E.tif
  2
NAME
  10
285447.220
  20
4506320.250
 40
34.63200
  0
SEQEND
  0
POLYLINE
  8
LC_OH_2021_05_O7
  70
1
  66
1
  0
VERTEX
  8
LC_OH_2021_05_O7
  10
286061.423
  20
4504835.457
  0
VERTEX
  8
LC_OH_2021_05_O7
  10
284522.822
  20
4504879.964
  0
VERTEX
  8
LC_OH_2021_05_O7
  10
285163.001
  20
4508724.000
  0
VERTEX
  8
LC_OH_2021_05_O7
  10
285163.501
  20
4508727.500
  0
VERTEX
  8
LC_OH_2021_05_O7
  10
286238.001
  20
4508563.500
  0
SEQEND
  8
LC_OH_2021_05_O7
  0
INSERT
  8
FeatureAttribs
  2
FEATURE
  41
1
  42
1
  43
1
  50
0
  10
259987.404
  20
4523223.238
 66
1
  0
ATTRIB
  8
FeatureAttribs
 70
0
  1
PNOA-H_AMS_1956-57_33k_ES_PAN_21mic_H50_0502_fot_000-36784_R.tif
  2
NAME
  10
259987.404
  20
4523223.238
 40
34.63200
  0
SEQEND
  0
POLYLINE
  8
LC_OH_2021_05_O7
  70
1
  66
1
  0
VERTEX
  8
LC_OH_2021_05_O7
  10
259845.776
  20
4524160.533
  0
VERTEX
  8
LC_OH_2021_05_O7
  10
260683.000
  20
4523139.500
  0
VERTEX
  8
LC_OH_2021_05_O7
  10
260684.500
  20
4523131.000
  0
VERTEX
  8
LC_OH_2021_05_O7
  10
260695.000
  20
4522946.500
  0
VERTEX
  8
LC_OH_2021_05_O7
  10
260695.000
  20
4522942.000
  0
VERTEX
  8
LC_OH_2021_05_O7
  10
260687.000
  20
4522938.000
  0
VERTEX
  8
LC_OH_2021_05_O7
  10
259279.807
  20
4522269.639
  0
VERTEX
  8
LC_OH_2021_05_O7
  10
259341.967
  20
4524176.836
  0
SEQEND
  8
LC_OH_2021_05_O7
  0
INSERT
  8
FeatureAttribs
  2
FEATURE
  41
1
  42
1
  43
1
  50
0
  10
271122.343
  20
4523193.250
 66
1
  0
ATTRIB
  8
FeatureAttribs
 70
0
  1
PNOA-H_AMS_1956-57_33k_ES_PAN_21mic_H50_0503_fot_000-36780_R.tif
  2
NAME
  10
271122.343
  20
4523193.250
 40
34.63200
  0
SEQEND
  0
POLYLINE
  8
LC_OH_2021_05_O7
  70
1
  66
1
  0
VERTEX
  8
LC_OH_2021_05_O7
  10
271476.032
  20
4523791.473
  0
VERTEX
  8
LC_OH_2021_05_O7
  10
271652.501
  20
4522688.500
  0
VERTEX
  8
LC_OH_2021_05_O7
  10
271652.501
  20
4522686.500
  0
VERTEX
  8
LC_OH_2021_05_O7
  10
271676.001
  20
4522541.000
  0
VERTEX
  8
LC_OH_2021_05_O7
  10
271033.500
  20
4522326.500
  0
VERTEX
  8
LC_OH_2021_05_O7
  10
270567.500
  20
4522559.000
  0
VERTEX
  8
LC_OH_2021_05_O7
  10
270776.028
  20
4523813.124
  0
SEQEND
  8
LC_OH_2021_05_O7
  0
INSERT
  8
FeatureAttribs
  2
FEATURE
  41
1
  42
1
  43
1
  50
0
  10
265047.314
  20
4523280.750
 66
1
  0
ATTRIB
  8
FeatureAttribs
 70
0
  1
PNOA-H_AMS_1956-57_33k_ES_PAN_21mic_H50_0503_fot_000-36782_R.tif
  2
NAME
  10
265047.314
  20
4523280.750
 40
34.63200
  0
SEQEND
  0
POLYLINE
  8
LC_OH_2021_05_O7
  70
1
  66
1
  0
VERTEX
  8
LC_OH_2021_05_O7
  10
265821.914
  20
4523968.555
  0
VERTEX
  8
LC_OH_2021_05_O7
  10
266661.000
  20
4522926.500
  0
VERTEX
  8
LC_OH_2021_05_O7
  10
265112.500
  20
4522281.500
  0
VERTEX
  8
LC_OH_2021_05_O7
  10
264930.000
  20
4522293.000
  0
VERTEX
  8
LC_OH_2021_05_O7
  10
263644.500
  20
4522949.500
  0
VERTEX
  8
LC_OH_2021_05_O7
  10
263634.000
  20
4522955.000
  0
VERTEX
  8
LC_OH_2021_05_O7
  10
263633.500
  20
4522956.500
  0
VERTEX
  8
LC_OH_2021_05_O7
  10
263916.036
  20
4524029.322
  0
SEQEND
  8
LC_OH_2021_05_O7
  0
INSERT
  8
FeatureAttribs
  2
FEATURE
  41
1
  42
1
  43
1
  50
0
  10
267858.525
  20
4523189.501
 66
1
  0
ATTRIB
  8
FeatureAttribs
 70
0
  1
PNOA-H_AMS_1956-57_33k_ES_PAN_21mic_H50_0503_fot_000-36781_R.tif
  2
NAME
  10
267858.525
  20
4523189.501
 40
34.63200
  0
SEQEND
  0
POLYLINE
  8
LC_OH_2021_05_O7
  70
1
  66
1
  0
VERTEX
  8
LC_OH_2021_05_O7
  10
268658.188
  20
4523879.214
  0
VERTEX
  8
LC_OH_2021_05_O7
  10
269097.500
  20
4522735.500
  0
VERTEX
  8
LC_OH_2021_05_O7
  10
267981.500
  20
4522320.500
  0
VERTEX
  8
LC_OH_2021_05_O7
  10
267975.000
  20
4522319.000
  0
VERTEX
  8
LC_OH_2021_05_O7
  10
266699.000
  20
4522934.000
  0
VERTEX
  8
LC_OH_2021_05_O7
  10
266723.000
  20
4523097.500
  0
VERTEX
  8
LC_OH_2021_05_O7
  10
266725.500
  20
4523107.000
  0
VERTEX
  8
LC_OH_2021_05_O7
  10
267399.056
  20
4523918.760
  0
SEQEND
  8
LC_OH_2021_05_O7
  0
INSERT
  8
FeatureAttribs
  2
FEATURE
  41
1
  42
1
  43
1
  50
0
  10
270182.863
  20
4523309.500
 66
1
  0
ATTRIB
  8
FeatureAttribs
 70
0
  1
PNOA-H_AMS_1956-57_33k_ES_PAN_21mic_H50_0503_fot_000-39648_R.tif
  2
NAME
  10
270182.863
  20
4523309.500
 40
34.63200
  0
SEQEND
  0
POLYLINE
  8
LC_OH_2021_05_O7
  70
1
  66
1
  0
VERTEX
  8
LC_OH_2021_05_O7
  10
270776.124
  20
4523813.121
  0
VERTEX
  8
LC_OH_2021_05_O7
  10
270589.000
  20
4522689.000
  0
VERTEX
  8
LC_OH_2021_05_O7
  10
270589.000
  20
4522686.500
  0
VERTEX
  8
LC_OH_2021_05_O7
  10
270568.000
  20
4522559.500
  0
VERTEX
  8
LC_OH_2021_05_O7
  10
270567.000
  20
4522559.000
  0
VERTEX
  8
LC_OH_2021_05_O7
  10
269677.500
  20
4522837.000
  0
VERTEX
  8
LC_OH_2021_05_O7
  10
269668.808
  20
4523847.473
  0
VERTEX
  8
LC_OH_2021_05_O7
  10
269882.929
  20
4523840.748
  0
SEQEND
  8
LC_OH_2021_05_O7
  0
INSERT
  8
FeatureAttribs
  2
FEATURE
  41
1
  42
1
  43
1
  50
0
  10
266922.953
  20
4523582.751
 66
1
  0
ATTRIB
  8
FeatureAttribs
 70
0
  1
PNOA-H_AMS_1956-57_33k_ES_PAN_21mic_H50_0503_fot_000-39647_R.tif
  2
NAME
  10
266922.953
  20
4523582.751
 40
34.63200
  0
SEQEND
  0
POLYLINE
  8
LC_OH_2021_05_O7
  70
1
  66
1
  0
VERTEX
  8
LC_OH_2021_05_O7
  10
267399.318
  20
4523918.752
  0
VERTEX
  8
LC_OH_2021_05_O7
  10
266725.000
  20
4523105.500
  0
VERTEX
  8
LC_OH_2021_05_O7
  10
266724.500
  20
4523265.500
  0
VERTEX
  8
LC_OH_2021_05_O7
  10
266725.987
  20
4523939.900
  0
SEQEND
  8
LC_OH_2021_05_O7
  0
INSERT
  8
FeatureAttribs
  2
FEATURE
  41
1
  42
1
  43
1
  50
0
  10
278820.635
  20
4523031.251
 66
1
  0
ATTRIB
  8
FeatureAttribs
 70
0
  1
PNOA-H_AMS_1956-57_33k_ES_PAN_21mic_H50_0503_fot_000-39651_R.tif
  2
NAME
  10
278820.635
  20
4523031.251
 40
34.63200
  0
SEQEND
  0
POLYLINE
  8
LC_OH_2021_05_O7
  70
1
  66
1
  0
VERTEX
  8
LC_OH_2021_05_O7
  10
279552.283
  20
4523545.861
  0
VERTEX
  8
LC_OH_2021_05_O7
  10
279496.001
  20
4522689.500
  0
VERTEX
  8
LC_OH_2021_05_O7
  10
279496.001
  20
4522686.500
  0
VERTEX
  8
LC_OH_2021_05_O7
  10
279465.501
  20
4522222.500
  0
VERTEX
  8
LC_OH_2021_05_O7
  10
278684.501
  20
4522355.000
  0
VERTEX
  8
LC_OH_2021_05_O7
  10
278111.001
  20
4522518.000
  0
VERTEX
  8
LC_OH_2021_05_O7
  10
278135.643
  20
4523588.328
  0
SEQEND
  8
LC_OH_2021_05_O7
  0
INSERT
  8
FeatureAttribs
  2
FEATURE
  41
1
  42
1
  43
1
  50
0
  10
262065.067
  20
4523255.749
 66
1
  0
ATTRIB
  8
FeatureAttribs
 70
0
  1
PNOA-H_AMS_1956-57_33k_ES_PAN_21mic_H50_0503_fot_000-36783_R.tif
  2
NAME
  10
262065.067
  20
4523255.749
 40
34.63200
  0
SEQEND
  0
POLYLINE
  8
LC_OH_2021_05_O7
  70
1
  66
1
  0
VERTEX
  8
LC_OH_2021_05_O7
  10
262800.688
  20
4524064.910
  0
VERTEX
  8
LC_OH_2021_05_O7
  10
263602.000
  20
4522993.500
  0
VERTEX
  8
LC_OH_2021_05_O7
  10
263630.000
  20
4522956.000
  0
VERTEX
  8
LC_OH_2021_05_O7
  10
263630.000
  20
4522954.500
  0
VERTEX
  8
LC_OH_2021_05_O7
  10
262047.500
  20
4522231.500
  0
VERTEX
  8
LC_OH_2021_05_O7
  10
260695.500
  20
4522941.500
  0
VERTEX
  8
LC_OH_2021_05_O7
  10
260684.000
  20
4523139.000
  0
VERTEX
  8
LC_OH_2021_05_O7
  10
261023.415
  20
4524122.424
  0
SEQEND
  8
LC_OH_2021_05_O7
  0
INSERT
  8
FeatureAttribs
  2
FEATURE
  41
1
  42
1
  43
1
  50
0
  10
284550.582
  20
4522811.250
 66
1
  0
ATTRIB
  8
FeatureAttribs
 70
0
  1
PNOA-H_AMS_1956-57_33k_ES_PAN_21mic_H50_0503_fot_000-39653_R.tif
  2
NAME
  10
284550.582
  20
4522811.250
 40
34.63200
  0
SEQEND
  0
POLYLINE
  8
LC_OH_2021_05_O7
  70
1
  66
1
  0
VERTEX
  8
LC_OH_2021_05_O7
  10
285307.532
  20
4523376.311
  0
VERTEX
  8
LC_OH_2021_05_O7
  10
285415.501
  20
4522002.500
  0
VERTEX
  8
LC_OH_2021_05_O7
  10
284867.501
  20
4522041.000
  0
VERTEX
  8
LC_OH_2021_05_O7
  10
283716.001
  20
4522258.000
  0
VERTEX
  8
LC_OH_2021_05_O7
  10
283785.806
  20
4523420.551
  0
VERTEX
  8
LC_OH_2021_05_O7
  10
283937.298
  20
4523416.082
  0
SEQEND
  8
LC_OH_2021_05_O7
  0
INSERT
  8
FeatureAttribs
  2
FEATURE
  41
1
  42
1
  43
1
  50
0
  10
263676.717
  20
4519750.750
 66
1
  0
ATTRIB
  8
FeatureAttribs
 70
0
  1
PNOA-H_AMS_1956-57_33k_ES_PAN_21mic_H50_0503_fot_000-42178_R.tif
  2
NAME
  10
263676.717
  20
4519750.750
 40
34.63200
  0
SEQEND
  0
POLYLINE
  8
LC_OH_2021_05_O7
  70
1
  66
1
  0
VERTEX
  8
LC_OH_2021_05_O7
  10
264366.000
  20
4521087.000
  0
VERTEX
  8
LC_OH_2021_05_O7
  10
264367.000
  20
4521087.000
  0
VERTEX
  8
LC_OH_2021_05_O7
  10
264369.500
  20
4521055.500
  0
VERTEX
  8
LC_OH_2021_05_O7
  10
264563.000
  20
4518414.500
  0
VERTEX
  8
LC_OH_2021_05_O7
  10
262907.500
  20
4518527.500
  0
VERTEX
  8
LC_OH_2021_05_O7
  10
262882.500
  20
4520123.500
  0
VERTEX
  8
LC_OH_2021_05_O7
  10
264365.500
  20
4521086.000
  0
VERTEX
  8
LC_OH_2021_05_O7
  10
264366.000
  20
4521087.000
  0
SEQEND
  8
LC_OH_2021_05_O7
  0
INSERT
  8
FeatureAttribs
  2
FEATURE
  41
1
  42
1
  43
1
  50
0
  10
260632.683
  20
4519923.249
 66
1
  0
ATTRIB
  8
FeatureAttribs
 70
0
  1
PNOA-H_AMS_1956-57_33k_ES_PAN_21mic_H50_0503_fot_000-42177_R.tif
  2
NAME
  10
260632.683
  20
4519923.249
 40
34.63200
  0
SEQEND
  0
POLYLINE
  8
LC_OH_2021_05_O7
  70
1
  66
1
  0
VERTEX
  8
LC_OH_2021_05_O7
  10
259898.000
  20
4520063.000
  0
VERTEX
  8
LC_OH_2021_05_O7
  10
261608.500
  20
4521406.500
  0
VERTEX
  8
LC_OH_2021_05_O7
  10
261132.000
  20
4518593.000
  0
VERTEX
  8
LC_OH_2021_05_O7
  10
261132.000
  20
4518590.500
  0
VERTEX
  8
LC_OH_2021_05_O7
  10
261106.500
  20
4518440.000
  0
VERTEX
  8
LC_OH_2021_05_O7
  10
260028.000
  20
4518516.500
  0
VERTEX
  8
LC_OH_2021_05_O7
  10
259896.500
  20
4520059.000
  0
VERTEX
  8
LC_OH_2021_05_O7
  10
259896.500
  20
4520061.500
  0
SEQEND
  8
LC_OH_2021_05_O7
  0
INSERT
  8
FeatureAttribs
  2
FEATURE
  41
1
  42
1
  43
1
  50
0
  10
275936.666
  20
4523093.501
 66
1
  0
ATTRIB
  8
FeatureAttribs
 70
0
  1
PNOA-H_AMS_1956-57_33k_ES_PAN_21mic_H50_0503_fot_000-39650_R.tif
  2
NAME
  10
275936.666
  20
4523093.501
 40
34.63200
  0
SEQEND
  0
POLYLINE
  8
LC_OH_2021_05_O7
  70
1
  66
1
  0
VERTEX
  8
LC_OH_2021_05_O7
  10
276626.674
  20
4523633.699
  0
VERTEX
  8
LC_OH_2021_05_O7
  10
276487.001
  20
4522347.000
  0
VERTEX
  8
LC_OH_2021_05_O7
  10
275302.501
  20
4522637.500
  0
VERTEX
  8
LC_OH_2021_05_O7
  10
275308.888
  20
4523673.831
  0
SEQEND
  8
LC_OH_2021_05_O7
  0
INSERT
  8
FeatureAttribs
  2
FEATURE
  41
1
  42
1
  43
1
  50
0
  10
273116.555
  20
4523250.250
 66
1
  0
ATTRIB
  8
FeatureAttribs
 70
0
  1
PNOA-H_AMS_1956-57_33k_ES_PAN_21mic_H50_0503_fot_000-39649_R.tif
  2
NAME
  10
273116.555
  20
4523250.250
 40
34.63200
  0
SEQEND
  0
POLYLINE
  8
LC_OH_2021_05_O7
  70
1
  66
1
  0
VERTEX
  8
LC_OH_2021_05_O7
  10
273796.043
  20
4523719.903
  0
VERTEX
  8
LC_OH_2021_05_O7
  10
273684.501
  20
4522441.500
  0
VERTEX
  8
LC_OH_2021_05_O7
  10
273683.001
  20
4522440.500
  0
VERTEX
  8
LC_OH_2021_05_O7
  10
272475.501
  20
4522749.500
  0
VERTEX
  8
LC_OH_2021_05_O7
  10
272480.633
  20
4523760.400
  0
VERTEX
  8
LC_OH_2021_05_O7
  10
273396.547
  20
4523732.070
  0
SEQEND
  8
LC_OH_2021_05_O7
  0
INSERT
  8
FeatureAttribs
  2
FEATURE
  41
1
  42
1
  43
1
  50
0
  10
281739.297
  20
4522846.751
 66
1
  0
ATTRIB
  8
FeatureAttribs
 70
0
  1
PNOA-H_AMS_1956-57_33k_ES_PAN_21mic_H50_0503_fot_000-39652_R.tif
  2
NAME
  10
281739.297
  20
4522846.751
 40
34.63200
  0
SEQEND
  0
POLYLINE
  8
LC_OH_2021_05_O7
  70
1
  66
1
  0
VERTEX
  8
LC_OH_2021_05_O7
  10
282498.025
  20
4523458.542
  0
VERTEX
  8
LC_OH_2021_05_O7
  10
282526.501
  20
4522073.500
  0
VERTEX
  8
LC_OH_2021_05_O7
  10
282054.001
  20
4522132.000
  0
VERTEX
  8
LC_OH_2021_05_O7
  10
280950.001
  20
4522426.000
  0
VERTEX
  8
LC_OH_2021_05_O7
  10
280996.040
  20
4523502.853
  0
SEQEND
  8
LC_OH_2021_05_O7
  0
INSERT
  8
FeatureAttribs
  2
FEATURE
  41
1
  42
1
  43
1
  50
0
  10
280588.956
  20
4520251.750
 66
1
  0
ATTRIB
  8
FeatureAttribs
 70
0
  1
PNOA-H_AMS_1956-57_33k_ES_PAN_21mic_H50_0503_fot_000-42184_R.tif
  2
NAME
  10
280588.956
  20
4520251.750
 40
34.63200
  0
SEQEND
  0
POLYLINE
  8
LC_OH_2021_05_O7
  70
1
  66
1
  0
VERTEX
  8
LC_OH_2021_05_O7
  10
281711.501
  20
4522223.500
  0
VERTEX
  8
LC_OH_2021_05_O7
  10
282052.501
  20
4522133.000
  0
VERTEX
  8
LC_OH_2021_05_O7
  10
282054.501
  20
4522131.000
  0
VERTEX
  8
LC_OH_2021_05_O7
  10
280540.501
  20
4518077.500
  0
VERTEX
  8
LC_OH_2021_05_O7
  10
279838.501
  20
4518106.000
  0
VERTEX
  8
LC_OH_2021_05_O7
  10
279814.001
  20
4522103.000
  0
VERTEX
  8
LC_OH_2021_05_O7
  10
280950.001
  20
4522426.000
  0
VERTEX
  8
LC_OH_2021_05_O7
  10
281710.001
  20
4522223.500
  0
VERTEX
  8
LC_OH_2021_05_O7
  10
281711.501
  20
4522223.500
  0
SEQEND
  8
LC_OH_2021_05_O7
  0
INSERT
  8
FeatureAttribs
  2
FEATURE
  41
1
  42
1
  43
1
  50
0
  10
287396.754
  20
4522746.500
 66
1
  0
ATTRIB
  8
FeatureAttribs
 70
0
  1
PNOA-H_AMS_1956-57_33k_ES_PAN_21mic_H50_0503_fot_000-39654_R.tif
  2
NAME
  10
287396.754
  20
4522746.500
 40
34.63200
  0
SEQEND
  0
POLYLINE
  8
LC_OH_2021_05_O7
  70
1
  66
1
  0
VERTEX
  8
LC_OH_2021_05_O7
  10
287410.983
  20
4521928.982
  0
VERTEX
  8
LC_OH_2021_05_O7
  10
286583.501
  20
4521990.500
  0
VERTEX
  8
LC_OH_2021_05_O7
  10
286674.223
  20
4523336.644
  0
VERTEX
  8
LC_OH_2021_05_O7
  10
287450.848
  20
4523314.102
  0
SEQEND
  8
LC_OH_2021_05_O7
  0
INSERT
  8
FeatureAttribs
  2
FEATURE
  41
1
  42
1
  43
1
  50
0
  10
267040.051
  20
4519812.750
 66
1
  0
ATTRIB
  8
FeatureAttribs
 70
0
  1
PNOA-H_AMS_1956-57_33k_ES_PAN_21mic_H50_0503_fot_000-42179_R.tif
  2
NAME
  10
267040.051
  20
4519812.750
 40
34.63200
  0
SEQEND
  0
POLYLINE
  8
LC_OH_2021_05_O7
  70
1
  66
1
  0
VERTEX
  8
LC_OH_2021_05_O7
  10
267946.500
  20
4521320.500
  0
VERTEX
  8
LC_OH_2021_05_O7
  10
267948.000
  20
4521320.000
  0
VERTEX
  8
LC_OH_2021_05_O7
  10
267949.500
  20
4521314.000
  0
VERTEX
  8
LC_OH_2021_05_O7
  10
268253.000
  20
4520043.000
  0
VERTEX
  8
LC_OH_2021_05_O7
  10
268246.500
  20
4518384.500
  0
VERTEX
  8
LC_OH_2021_05_O7
  10
268133.500
  20
4518305.500
  0
VERTEX
  8
LC_OH_2021_05_O7
  10
268124.500
  20
4518305.000
  0
VERTEX
  8
LC_OH_2021_05_O7
  10
268102.000
  20
4518306.500
  0
VERTEX
  8
LC_OH_2021_05_O7
  10
265734.000
  20
4518466.500
  0
VERTEX
  8
LC_OH_2021_05_O7
  10
265851.500
  20
4520149.500
  0
VERTEX
  8
LC_OH_2021_05_O7
  10
267945.500
  20
4521320.000
  0
VERTEX
  8
LC_OH_2021_05_O7
  10
267946.500
  20
4521320.500
  0
SEQEND
  8
LC_OH_2021_05_O7
  0
INSERT
  8
FeatureAttribs
  2
FEATURE
  41
1
  42
1
  43
1
  50
0
  10
275308.889
  20
4519684.750
 66
1
  0
ATTRIB
  8
FeatureAttribs
 70
0
  1
PNOA-H_AMS_1956-57_33k_ES_PAN_21mic_H50_0503_fot_000-42182_R.tif
  2
NAME
  10
275308.889
  20
4519684.750
 40
34.63200
  0
SEQEND
  0
POLYLINE
  8
LC_OH_2021_05_O7
  70
1
  66
1
  0
VERTEX
  8
LC_OH_2021_05_O7
  10
276739.501
  20
4518590.500
  0
VERTEX
  8
LC_OH_2021_05_O7
  10
276741.001
  20
4518247.500
  0
VERTEX
  8
LC_OH_2021_05_O7
  10
273889.001
  20
4518321.000
  0
VERTEX
  8
LC_OH_2021_05_O7
  10
273879.501
  20
4520199.500
  0
VERTEX
  8
LC_OH_2021_05_O7
  10
273879.501
  20
4520245.000
  0
VERTEX
  8
LC_OH_2021_05_O7
  10
273984.501
  20
4521120.500
  0
VERTEX
  8
LC_OH_2021_05_O7
  10
273985.501
  20
4521122.000
  0
VERTEX
  8
LC_OH_2021_05_O7
  10
276734.501
  20
4519776.000
  0
VERTEX
  8
LC_OH_2021_05_O7
  10
276735.501
  20
4519725.500
  0
VERTEX
  8
LC_OH_2021_05_O7
  10
276739.501
  20
4518655.500
  0
VERTEX
  8
LC_OH_2021_05_O7
  10
276739.501
  20
4518590.500
  0
SEQEND
  8
LC_OH_2021_05_O7
  0
INSERT
  8
FeatureAttribs
  2
FEATURE
  41
1
  42
1
  43
1
  50
0
  10
277561.859
  20
4520345.751
 66
1
  0
ATTRIB
  8
FeatureAttribs
 70
0
  1
PNOA-H_AMS_1956-57_33k_ES_PAN_21mic_H50_0503_fot_000-42183_R.tif
  2
NAME
  10
277561.859
  20
4520345.751
 40
34.63200
  0
SEQEND
  0
POLYLINE
  8
LC_OH_2021_05_O7
  70
1
  66
1
  0
VERTEX
  8
LC_OH_2021_05_O7
  10
278111.001
  20
4522518.000
  0
VERTEX
  8
LC_OH_2021_05_O7
  10
278682.501
  20
4522356.000
  0
VERTEX
  8
LC_OH_2021_05_O7
  10
278684.001
  20
4522355.500
  0
VERTEX
  8
LC_OH_2021_05_O7
  10
278684.001
  20
4522353.500
  0
VERTEX
  8
LC_OH_2021_05_O7
  10
278001.001
  20
4518173.500
  0
VERTEX
  8
LC_OH_2021_05_O7
  10
276835.501
  20
4518181.000
  0
VERTEX
  8
LC_OH_2021_05_O7
  10
276741.001
  20
4518247.500
  0
VERTEX
  8
LC_OH_2021_05_O7
  10
276735.001
  20
4519778.500
  0
VERTEX
  8
LC_OH_2021_05_O7
  10
276874.001
  20
4522183.500
  0
VERTEX
  8
LC_OH_2021_05_O7
  10
278109.001
  20
4522517.500
  0
VERTEX
  8
LC_OH_2021_05_O7
  10
278111.001
  20
4522518.000
  0
SEQEND
  8
LC_OH_2021_05_O7
  0
INSERT
  8
FeatureAttribs
  2
FEATURE
  41
1
  42
1
  43
1
  50
0
  10
272474.747
  20
4519551.250
 66
1
  0
ATTRIB
  8
FeatureAttribs
 70
0
  1
PNOA-H_AMS_1956-57_33k_ES_PAN_21mic_H50_0503_fot_000-42181_R.tif
  2
NAME
  10
272474.747
  20
4519551.250
 40
34.63200
  0
SEQEND
  0
POLYLINE
  8
LC_OH_2021_05_O7
  70
1
  66
1
  0
VERTEX
  8
LC_OH_2021_05_O7
  10
271021.500
  20
4520804.500
  0
VERTEX
  8
LC_OH_2021_05_O7
  10
273879.501
  20
4520243.500
  0
VERTEX
  8
LC_OH_2021_05_O7
  10
273889.001
  20
4518379.000
  0
VERTEX
  8
LC_OH_2021_05_O7
  10
273889.001
  20
4518320.500
  0
VERTEX
  8
LC_OH_2021_05_O7
  10
273855.501
  20
4518298.000
  0
VERTEX
  8
LC_OH_2021_05_O7
  10
271110.000
  20
4518350.500
  0
VERTEX
  8
LC_OH_2021_05_O7
  10
271021.500
  20
4520791.500
  0
VERTEX
  8
LC_OH_2021_05_O7
  10
271021.500
  20
4520804.500
  0
SEQEND
  8
LC_OH_2021_05_O7
  0
INSERT
  8
FeatureAttribs
  2
FEATURE
  41
1
  42
1
  43
1
  50
0
  10
283559.908
  20
4520081.001
 66
1
  0
ATTRIB
  8
FeatureAttribs
 70
0
  1
PNOA-H_AMS_1956-57_33k_ES_PAN_21mic_H50_0503_fot_000-42185_R.tif
  2
NAME
  10
283559.908
  20
4520081.001
 40
34.63200
  0
SEQEND
  0
POLYLINE
  8
LC_OH_2021_05_O7
  70
1
  66
1
  0
VERTEX
  8
LC_OH_2021_05_O7
  10
283759.501
  20
4522250.000
  0
VERTEX
  8
LC_OH_2021_05_O7
  10
284869.001
  20
4522040.500
  0
VERTEX
  8
LC_OH_2021_05_O7
  10
283643.501
  20
4517903.500
  0
VERTEX
  8
LC_OH_2021_05_O7
  10
282865.001
  20
4517962.500
  0
VERTEX
  8
LC_OH_2021_05_O7
  10
282861.001
  20
4517963.000
  0
VERTEX
  8
LC_OH_2021_05_O7
  10
282860.501
  20
4517964.000
  0
VERTEX
  8
LC_OH_2021_05_O7
  10
282805.001
  20
4521988.000
  0
VERTEX
  8
LC_OH_2021_05_O7
  10
283715.501
  20
4522258.500
  0
VERTEX
  8
LC_OH_2021_05_O7
  10
283758.501
  20
4522250.000
  0
VERTEX
  8
LC_OH_2021_05_O7
  10
283759.501
  20
4522250.000
  0
SEQEND
  8
LC_OH_2021_05_O7
  0
ENDSEC
  0
EOF
