  0
SECTION
  2
HEADER
  9
$ACADVER
  1
AC1009
  9
$LUNITS
  70
2
  9
$LIMMIN
  10
230559.194
  20
4505672.628
  9
$LIMMAX
  10
259341.967
  20
4525146.806
  9
$EXTMIN
  10
230559.194
  20
4505672.628
  9
$EXTMAX
  10
259341.967
  20
4525146.806
  999
Created by Global Mapper
  999
Projection: UTM
  999
Datum: ETRS89
  999
Ground Units: meters
  999
ZONE: 30
  0
ENDSEC
  0
SECTION
  2
TABLES
  0
ENDSEC
  0
SECTION
  2
BLOCKS
  0
BLOCK
  8
FeatureAttribs
  70
0
  2
FEATURE
  3
FEATURE
  10
0.00000000
  20
0.00000000
  0
ATTDEF
  8
FeatureAttribs
  70
0
  1
 
  2
NAME
  3
NAME
  10
0.00000000
  20
0.00000000
  40
1.00000000
  0
ENDBLK
  0
ENDSEC
  0
SECTION
  2
ENTITIES
  0
INSERT
  8
FeatureAttribs
  2
FEATURE
  41
1
  42
1
  43
1
  50
0
  10
257575.461
  20
4523911.251
 66
1
  0
ATTRIB
  8
FeatureAttribs
 70
0
  1
PNOA-H_AMS_1956-57_33k_ES_PAN_21mic_H50_0477_fot_58A-40152_W.tif
  2
NAME
  10
257575.461
  20
4523911.251
 40
34.75186
  0
SEQEND
  0
POLYLINE
  8
LC_OH_2021_05_O7
  70
1
  66
1
  0
VERTEX
  8
LC_OH_2021_05_O7
  10
258141.171
  20
4524216.267
  0
VERTEX
  8
LC_OH_2021_05_O7
  10
257705.000
  20
4523312.500
  0
VERTEX
  8
LC_OH_2021_05_O7
  10
256838.621
  20
4524259.040
  0
SEQEND
  8
LC_OH_2021_05_O7
  0
INSERT
  8
FeatureAttribs
  2
FEATURE
  41
1
  42
1
  43
1
  50
0
  10
251694.943
  20
4524191.501
 66
1
  0
ATTRIB
  8
FeatureAttribs
 70
0
  1
PNOA-H_AMS_1956-57_33k_ES_PAN_21mic_H50_0477_fot_58A-40154_W.tif
  2
NAME
  10
251694.943
  20
4524191.501
 40
34.75186
  0
SEQEND
  0
POLYLINE
  8
LC_OH_2021_05_O7
  70
1
  66
1
  0
VERTEX
  8
LC_OH_2021_05_O7
  10
252435.514
  20
4524405.243
  0
VERTEX
  8
LC_OH_2021_05_O7
  10
251765.500
  20
4523633.000
  0
VERTEX
  8
LC_OH_2021_05_O7
  10
251762.500
  20
4523634.500
  0
VERTEX
  8
LC_OH_2021_05_O7
  10
251744.000
  20
4523651.000
  0
VERTEX
  8
LC_OH_2021_05_O7
  10
250880.500
  20
4524423.500
  0
VERTEX
  8
LC_OH_2021_05_O7
  10
250892.113
  20
4524457.338
  0
VERTEX
  8
LC_OH_2021_05_O7
  10
252314.566
  20
4524409.272
  0
SEQEND
  8
LC_OH_2021_05_O7
  0
INSERT
  8
FeatureAttribs
  2
FEATURE
  41
1
  42
1
  43
1
  50
0
  10
254653.700
  20
4523966.750
 66
1
  0
ATTRIB
  8
FeatureAttribs
 70
0
  1
PNOA-H_AMS_1956-57_33k_ES_PAN_21mic_H50_0477_fot_58A-40153_W.tif
  2
NAME
  10
254653.700
  20
4523966.750
 40
34.75186
  0
SEQEND
  0
POLYLINE
  8
LC_OH_2021_05_O7
  70
1
  66
1
  0
VERTEX
  8
LC_OH_2021_05_O7
  10
255307.710
  20
4524309.559
  0
VERTEX
  8
LC_OH_2021_05_O7
  10
254734.000
  20
4523423.500
  0
VERTEX
  8
LC_OH_2021_05_O7
  10
254727.000
  20
4523429.500
  0
VERTEX
  8
LC_OH_2021_05_O7
  10
253853.634
  20
4524358.000
  0
SEQEND
  8
LC_OH_2021_05_O7
  0
INSERT
  8
FeatureAttribs
  2
FEATURE
  41
1
  42
1
  43
1
  50
0
  10
246003.840
  20
4524502.001
 66
1
  0
ATTRIB
  8
FeatureAttribs
 70
0
  1
PNOA-H_AMS_1956-57_33k_ES_PAN_21mic_H50_0477_fot_58A-40156_W.tif
  2
NAME
  10
246003.840
  20
4524502.001
 40
34.75186
  0
SEQEND
  0
POLYLINE
  8
LC_OH_2021_05_O7
  70
1
  66
1
  0
VERTEX
  8
LC_OH_2021_05_O7
  10
246876.056
  20
4524593.962
  0
VERTEX
  8
LC_OH_2021_05_O7
  10
246876.000
  20
4524583.500
  0
VERTEX
  8
LC_OH_2021_05_O7
  10
245883.500
  20
4524004.000
  0
VERTEX
  8
LC_OH_2021_05_O7
  10
245881.000
  20
4524004.500
  0
VERTEX
  8
LC_OH_2021_05_O7
  10
245876.000
  20
4524008.500
  0
VERTEX
  8
LC_OH_2021_05_O7
  10
245083.178
  20
4524655.497
  0
VERTEX
  8
LC_OH_2021_05_O7
  10
245287.089
  20
4524648.412
  0
SEQEND
  8
LC_OH_2021_05_O7
  0
INSERT
  8
FeatureAttribs
  2
FEATURE
  41
1
  42
1
  43
1
  50
0
  10
248823.553
  20
4524286.751
 66
1
  0
ATTRIB
  8
FeatureAttribs
 70
0
  1
PNOA-H_AMS_1956-57_33k_ES_PAN_21mic_H50_0477_fot_58A-40155_W.tif
  2
NAME
  10
248823.553
  20
4524286.751
 40
34.75186
  0
SEQEND
  0
POLYLINE
  8
LC_OH_2021_05_O7
  70
1
  66
1
  0
VERTEX
  8
LC_OH_2021_05_O7
  10
249659.785
  20
4524498.980
  0
VERTEX
  8
LC_OH_2021_05_O7
  10
248799.000
  20
4523823.500
  0
VERTEX
  8
LC_OH_2021_05_O7
  10
248132.500
  20
4524394.000
  0
VERTEX
  8
LC_OH_2021_05_O7
  10
248154.688
  20
4524550.146
  0
VERTEX
  8
LC_OH_2021_05_O7
  10
248800.837
  20
4524528.004
  0
SEQEND
  8
LC_OH_2021_05_O7
  0
INSERT
  8
FeatureAttribs
  2
FEATURE
  41
1
  42
1
  43
1
  50
0
  10
231574.197
  20
4524978.903
 66
1
  0
ATTRIB
  8
FeatureAttribs
 70
0
  1
PNOA-H_AMS_1956-57_33k_ES_PAN_21mic_H50_0477_fot_58A-40161_W.tif
  2
NAME
  10
231574.197
  20
4524978.903
 40
34.75186
  0
SEQEND
  0
POLYLINE
  8
LC_OH_2021_05_O7
  70
1
  66
1
  0
VERTEX
  8
LC_OH_2021_05_O7
  10
231924.519
  20
4525121.750
  0
VERTEX
  8
LC_OH_2021_05_O7
  10
231290.000
  20
4524816.000
  0
VERTEX
  8
LC_OH_2021_05_O7
  10
231279.500
  20
4524811.000
  0
VERTEX
  8
LC_OH_2021_05_O7
  10
231278.500
  20
4524811.500
  0
VERTEX
  8
LC_OH_2021_05_O7
  10
231223.875
  20
4524926.488
  0
VERTEX
  8
LC_OH_2021_05_O7
  10
231231.896
  20
4525146.806
  0
SEQEND
  8
LC_OH_2021_05_O7
  0
INSERT
  8
FeatureAttribs
  2
FEATURE
  41
1
  42
1
  43
1
  50
0
  10
234490.962
  20
4524953.501
 66
1
  0
ATTRIB
  8
FeatureAttribs
 70
0
  1
PNOA-H_AMS_1956-57_33k_ES_PAN_21mic_H50_0477_fot_58A-40160_W.tif
  2
NAME
  10
234490.962
  20
4524953.501
 40
34.75186
  0
SEQEND
  0
POLYLINE
  8
LC_OH_2021_05_O7
  70
1
  66
1
  0
VERTEX
  8
LC_OH_2021_05_O7
  10
235045.345
  20
4525008.997
  0
VERTEX
  8
LC_OH_2021_05_O7
  10
234426.500
  20
4524734.500
  0
VERTEX
  8
LC_OH_2021_05_O7
  10
234425.500
  20
4524734.500
  0
VERTEX
  8
LC_OH_2021_05_O7
  10
234253.000
  20
4524657.500
  0
VERTEX
  8
LC_OH_2021_05_O7
  10
234249.000
  20
4524657.000
  0
VERTEX
  8
LC_OH_2021_05_O7
  10
234002.926
  20
4525046.564
  0
VERTEX
  8
LC_OH_2021_05_O7
  10
234745.725
  20
4525019.693
  0
SEQEND
  8
LC_OH_2021_05_O7
  0
INSERT
  8
FeatureAttribs
  2
FEATURE
  41
1
  42
1
  43
1
  50
0
  10
243154.201
  20
4524558.500
 66
1
  0
ATTRIB
  8
FeatureAttribs
 70
0
  1
PNOA-H_AMS_1956-57_33k_ES_PAN_21mic_H50_0477_fot_58A-40157_W.tif
  2
NAME
  10
243154.201
  20
4524558.500
 40
34.75186
  0
SEQEND
  0
POLYLINE
  8
LC_OH_2021_05_O7
  70
1
  66
1
  0
VERTEX
  8
LC_OH_2021_05_O7
  10
244067.025
  20
4524690.802
  0
VERTEX
  8
LC_OH_2021_05_O7
  10
243016.500
  20
4524117.000
  0
VERTEX
  8
LC_OH_2021_05_O7
  10
242247.608
  20
4524754.017
  0
SEQEND
  8
LC_OH_2021_05_O7
  0
INSERT
  8
FeatureAttribs
  2
FEATURE
  41
1
  42
1
  43
1
  50
0
  10
240312.728
  20
4524640.501
 66
1
  0
ATTRIB
  8
FeatureAttribs
 70
0
  1
PNOA-H_AMS_1956-57_33k_ES_PAN_21mic_H50_0477_fot_58A-40158_W.tif
  2
NAME
  10
240312.728
  20
4524640.501
 40
34.75186
  0
SEQEND
  0
POLYLINE
  8
LC_OH_2021_05_O7
  70
1
  66
1
  0
VERTEX
  8
LC_OH_2021_05_O7
  10
241186.323
  20
4524791.171
  0
VERTEX
  8
LC_OH_2021_05_O7
  10
240123.000
  20
4524281.000
  0
VERTEX
  8
LC_OH_2021_05_O7
  10
239538.476
  20
4524849.210
  0
SEQEND
  8
LC_OH_2021_05_O7
  0
INSERT
  8
FeatureAttribs
  2
FEATURE
  41
1
  42
1
  43
1
  50
0
  10
237486.986
  20
4524883.501
 66
1
  0
ATTRIB
  8
FeatureAttribs
 70
0
  1
PNOA-H_AMS_1956-57_33k_ES_PAN_21mic_H50_0477_fot_58A-40159_W.tif
  2
NAME
  10
237486.986
  20
4524883.501
 40
34.75186
  0
SEQEND
  0
POLYLINE
  8
LC_OH_2021_05_O7
  70
1
  66
1
  0
VERTEX
  8
LC_OH_2021_05_O7
  10
238109.380
  20
4524899.616
  0
VERTEX
  8
LC_OH_2021_05_O7
  10
237213.000
  20
4524517.000
  0
VERTEX
  8
LC_OH_2021_05_O7
  10
236850.634
  20
4524944.551
  0
SEQEND
  8
LC_OH_2021_05_O7
  0
INSERT
  8
FeatureAttribs
  2
FEATURE
  41
1
  42
1
  43
1
  50
0
  10
231162.970
  20
4513627.118
 66
1
  0
ATTRIB
  8
FeatureAttribs
 70
0
  1
PNOA-H_AMS_1956-57_33k_ES_PAN_21mic_H50_0501_fot_61A-39618_W.tif
  2
NAME
  10
231162.970
  20
4513627.118
 40
34.75186
  0
SEQEND
  0
POLYLINE
  8
LC_OH_2021_05_O7
  70
1
  66
1
  0
VERTEX
  8
LC_OH_2021_05_O7
  10
230860.304
  20
4514932.447
  0
VERTEX
  8
LC_OH_2021_05_O7
  10
231556.500
  20
4514854.500
  0
VERTEX
  8
LC_OH_2021_05_O7
  10
231560.500
  20
4514854.000
  0
VERTEX
  8
LC_OH_2021_05_O7
  10
231560.500
  20
4514853.000
  0
VERTEX
  8
LC_OH_2021_05_O7
  10
230765.440
  20
4512321.788
  0
VERTEX
  8
LC_OH_2021_05_O7
  10
230811.190
  20
4513581.105
  0
SEQEND
  8
LC_OH_2021_05_O7
  0
INSERT
  8
FeatureAttribs
  2
FEATURE
  41
1
  42
1
  43
1
  50
0
  10
255508.371
  20
4519400.000
 66
1
  0
ATTRIB
  8
FeatureAttribs
 70
0
  1
PNOA-H_AMS_1956-57_33k_ES_PAN_21mic_H50_0502_fot_59A-35456_W.tif
  2
NAME
  10
255508.371
  20
4519400.000
 40
34.75186
  0
SEQEND
  0
POLYLINE
  8
LC_OH_2021_05_O7
  70
1
  66
1
  0
VERTEX
  8
LC_OH_2021_05_O7
  10
255087.000
  20
4520312.000
  0
VERTEX
  8
LC_OH_2021_05_O7
  10
256579.000
  20
4520633.000
  0
VERTEX
  8
LC_OH_2021_05_O7
  10
256600.000
  20
4520637.500
  0
VERTEX
  8
LC_OH_2021_05_O7
  10
256602.000
  20
4520637.000
  0
VERTEX
  8
LC_OH_2021_05_O7
  10
256918.500
  20
4520032.000
  0
VERTEX
  8
LC_OH_2021_05_O7
  10
257116.000
  20
4518586.500
  0
VERTEX
  8
LC_OH_2021_05_O7
  10
256455.500
  20
4518162.500
  0
VERTEX
  8
LC_OH_2021_05_O7
  10
254012.500
  20
4518564.500
  0
VERTEX
  8
LC_OH_2021_05_O7
  10
254011.500
  20
4519938.000
  0
VERTEX
  8
LC_OH_2021_05_O7
  10
254309.500
  20
4520144.500
  0
VERTEX
  8
LC_OH_2021_05_O7
  10
255084.500
  20
4520311.500
  0
VERTEX
  8
LC_OH_2021_05_O7
  10
255087.000
  20
4520312.000
  0
SEQEND
  8
LC_OH_2021_05_O7
  0
INSERT
  8
FeatureAttribs
  2
FEATURE
  41
1
  42
1
  43
1
  50
0
  10
252473.439
  20
4519371.500
 66
1
  0
ATTRIB
  8
FeatureAttribs
 70
0
  1
PNOA-H_AMS_1956-57_33k_ES_PAN_21mic_H50_0502_fot_59A-35457_W.tif
  2
NAME
  10
252473.439
  20
4519371.500
 40
34.75186
  0
SEQEND
  0
POLYLINE
  8
LC_OH_2021_05_O7
  70
1
  66
1
  0
VERTEX
  8
LC_OH_2021_05_O7
  10
253039.500
  20
4520419.500
  0
VERTEX
  8
LC_OH_2021_05_O7
  10
253796.000
  20
4520358.500
  0
VERTEX
  8
LC_OH_2021_05_O7
  10
254011.500
  20
4519938.500
  0
VERTEX
  8
LC_OH_2021_05_O7
  10
254012.500
  20
4518564.000
  0
VERTEX
  8
LC_OH_2021_05_O7
  10
253518.000
  20
4518219.500
  0
VERTEX
  8
LC_OH_2021_05_O7
  10
253513.500
  20
4518216.500
  0
VERTEX
  8
LC_OH_2021_05_O7
  10
253510.000
  20
4518216.500
  0
VERTEX
  8
LC_OH_2021_05_O7
  10
250936.500
  20
4518569.000
  0
VERTEX
  8
LC_OH_2021_05_O7
  10
250933.500
  20
4520131.000
  0
VERTEX
  8
LC_OH_2021_05_O7
  10
251727.500
  20
4520526.500
  0
VERTEX
  8
LC_OH_2021_05_O7
  10
253033.500
  20
4520420.000
  0
VERTEX
  8
LC_OH_2021_05_O7
  10
253039.500
  20
4520419.500
  0
SEQEND
  8
LC_OH_2021_05_O7
  0
INSERT
  8
FeatureAttribs
  2
FEATURE
  41
1
  42
1
  43
1
  50
0
  10
249395.343
  20
4519549.999
 66
1
  0
ATTRIB
  8
FeatureAttribs
 70
0
  1
PNOA-H_AMS_1956-57_33k_ES_PAN_21mic_H50_0502_fot_59A-35458_W.tif
  2
NAME
  10
249395.343
  20
4519549.999
 40
34.75186
  0
SEQEND
  0
POLYLINE
  8
LC_OH_2021_05_O7
  70
1
  66
1
  0
VERTEX
  8
LC_OH_2021_05_O7
  10
250936.500
  20
4518590.500
  0
VERTEX
  8
LC_OH_2021_05_O7
  10
250936.500
  20
4518569.000
  0
VERTEX
  8
LC_OH_2021_05_O7
  10
250935.500
  20
4518568.000
  0
VERTEX
  8
LC_OH_2021_05_O7
  10
250541.000
  20
4518273.500
  0
VERTEX
  8
LC_OH_2021_05_O7
  10
250536.500
  20
4518273.500
  0
VERTEX
  8
LC_OH_2021_05_O7
  10
247845.500
  20
4518598.500
  0
VERTEX
  8
LC_OH_2021_05_O7
  10
247866.000
  20
4520413.500
  0
VERTEX
  8
LC_OH_2021_05_O7
  10
247966.500
  20
4520826.500
  0
VERTEX
  8
LC_OH_2021_05_O7
  10
250910.500
  20
4520176.000
  0
VERTEX
  8
LC_OH_2021_05_O7
  10
250933.000
  20
4520131.000
  0
VERTEX
  8
LC_OH_2021_05_O7
  10
250936.500
  20
4518724.000
  0
VERTEX
  8
LC_OH_2021_05_O7
  10
250936.500
  20
4518590.500
  0
SEQEND
  8
LC_OH_2021_05_O7
  0
INSERT
  8
FeatureAttribs
  2
FEATURE
  41
1
  42
1
  43
1
  50
0
  10
243287.869
  20
4519561.751
 66
1
  0
ATTRIB
  8
FeatureAttribs
 70
0
  1
PNOA-H_AMS_1956-57_33k_ES_PAN_21mic_H50_0502_fot_59A-35460_W.tif
  2
NAME
  10
243287.869
  20
4519561.751
 40
34.75186
  0
SEQEND
  0
POLYLINE
  8
LC_OH_2021_05_O7
  70
1
  66
1
  0
VERTEX
  8
LC_OH_2021_05_O7
  10
242799.500
  20
4520644.500
  0
VERTEX
  8
LC_OH_2021_05_O7
  10
244817.000
  20
4520326.500
  0
VERTEX
  8
LC_OH_2021_05_O7
  10
244807.500
  20
4518651.000
  0
VERTEX
  8
LC_OH_2021_05_O7
  10
244418.000
  20
4518345.000
  0
VERTEX
  8
LC_OH_2021_05_O7
  10
241727.000
  20
4518604.500
  0
VERTEX
  8
LC_OH_2021_05_O7
  10
241789.500
  20
4520262.500
  0
VERTEX
  8
LC_OH_2021_05_O7
  10
241948.500
  20
4520778.500
  0
VERTEX
  8
LC_OH_2021_05_O7
  10
242798.500
  20
4520644.500
  0
VERTEX
  8
LC_OH_2021_05_O7
  10
242799.500
  20
4520644.500
  0
SEQEND
  8
LC_OH_2021_05_O7
  0
INSERT
  8
FeatureAttribs
  2
FEATURE
  41
1
  42
1
  43
1
  50
0
  10
246333.838
  20
4519475.001
 66
1
  0
ATTRIB
  8
FeatureAttribs
 70
0
  1
PNOA-H_AMS_1956-57_33k_ES_PAN_21mic_H50_0502_fot_59A-35459_W.tif
  2
NAME
  10
246333.838
  20
4519475.001
 40
34.75186
  0
SEQEND
  0
POLYLINE
  8
LC_OH_2021_05_O7
  70
1
  66
1
  0
VERTEX
  8
LC_OH_2021_05_O7
  10
247834.500
  20
4518590.500
  0
VERTEX
  8
LC_OH_2021_05_O7
  10
247504.500
  20
4518335.500
  0
VERTEX
  8
LC_OH_2021_05_O7
  10
247500.500
  20
4518332.500
  0
VERTEX
  8
LC_OH_2021_05_O7
  10
247498.000
  20
4518332.500
  0
VERTEX
  8
LC_OH_2021_05_O7
  10
244807.500
  20
4518651.000
  0
VERTEX
  8
LC_OH_2021_05_O7
  10
244817.000
  20
4520328.000
  0
VERTEX
  8
LC_OH_2021_05_O7
  10
244892.500
  20
4520617.500
  0
VERTEX
  8
LC_OH_2021_05_O7
  10
247866.000
  20
4520412.500
  0
VERTEX
  8
LC_OH_2021_05_O7
  10
247846.000
  20
4518623.000
  0
VERTEX
  8
LC_OH_2021_05_O7
  10
247845.500
  20
4518598.500
  0
VERTEX
  8
LC_OH_2021_05_O7
  10
247836.000
  20
4518591.000
  0
VERTEX
  8
LC_OH_2021_05_O7
  10
247834.500
  20
4518590.500
  0
SEQEND
  8
LC_OH_2021_05_O7
  0
INSERT
  8
FeatureAttribs
  2
FEATURE
  41
1
  42
1
  43
1
  50
0
  10
259013.089
  20
4519825.749
 66
1
  0
ATTRIB
  8
FeatureAttribs
 70
0
  1
PNOA-H_AMS_1956-57_33k_ES_PAN_21mic_H50_0502_fot_59A-35455_W.tif
  2
NAME
  10
259013.089
  20
4519825.749
 40
34.75186
  0
SEQEND
  0
POLYLINE
  8
LC_OH_2021_05_O7
  70
1
  66
1
  0
VERTEX
  8
LC_OH_2021_05_O7
  10
259250.530
  20
4521371.154
  0
VERTEX
  8
LC_OH_2021_05_O7
  10
259191.224
  20
4519550.747
  0
VERTEX
  8
LC_OH_2021_05_O7
  10
259146.362
  20
4518173.101
  0
VERTEX
  8
LC_OH_2021_05_O7
  10
257319.500
  20
4518569.500
  0
VERTEX
  8
LC_OH_2021_05_O7
  10
259171.500
  20
4521514.500
  0
VERTEX
  8
LC_OH_2021_05_O7
  10
259176.000
  20
4521521.500
  0
VERTEX
  8
LC_OH_2021_05_O7
  10
259177.000
  20
4521521.500
  0
VERTEX
  8
LC_OH_2021_05_O7
  10
259183.500
  20
4521508.000
  0
VERTEX
  8
LC_OH_2021_05_O7
  10
259183.500
  20
4521507.000
  0
SEQEND
  8
LC_OH_2021_05_O7
  0
INSERT
  8
FeatureAttribs
  2
FEATURE
  41
1
  42
1
  43
1
  50
0
  10
245900.766
  20
4512529.998
 66
1
  0
ATTRIB
  8
FeatureAttribs
 70
0
  1
PNOA-H_AMS_1956-57_33k_ES_PAN_21mic_H50_0502_fot_000-39613_R.tif
  2
NAME
  10
245900.766
  20
4512529.998
 40
34.75186
  0
SEQEND
  0
POLYLINE
  8
LC_OH_2021_05_O7
  70
1
  66
1
  0
VERTEX
  8
LC_OH_2021_05_O7
  10
245731.000
  20
4514763.000
  0
VERTEX
  8
LC_OH_2021_05_O7
  10
246439.000
  20
4514706.000
  0
VERTEX
  8
LC_OH_2021_05_O7
  10
246784.500
  20
4510628.500
  0
VERTEX
  8
LC_OH_2021_05_O7
  10
246784.500
  20
4510627.000
  0
VERTEX
  8
LC_OH_2021_05_O7
  10
246778.000
  20
4510624.500
  0
VERTEX
  8
LC_OH_2021_05_O7
  10
245931.500
  20
4510305.000
  0
VERTEX
  8
LC_OH_2021_05_O7
  10
245910.000
  20
4510297.000
  0
VERTEX
  8
LC_OH_2021_05_O7
  10
245907.000
  20
4510297.000
  0
VERTEX
  8
LC_OH_2021_05_O7
  10
244709.000
  20
4510636.500
  0
VERTEX
  8
LC_OH_2021_05_O7
  10
245731.000
  20
4514761.500
  0
VERTEX
  8
LC_OH_2021_05_O7
  10
245731.000
  20
4514763.000
  0
SEQEND
  8
LC_OH_2021_05_O7
  0
INSERT
  8
FeatureAttribs
  2
FEATURE
  41
1
  42
1
  43
1
  50
0
  10
240248.710
  20
4519676.500
 66
1
  0
ATTRIB
  8
FeatureAttribs
 70
0
  1
PNOA-H_AMS_1956-57_33k_ES_PAN_21mic_H50_0502_fot_59A-35461_W.tif
  2
NAME
  10
240248.710
  20
4519676.500
 40
34.75186
  0
SEQEND
  0
POLYLINE
  8
LC_OH_2021_05_O7
  70
1
  66
1
  0
VERTEX
  8
LC_OH_2021_05_O7
  10
241708.000
  20
4518590.500
  0
VERTEX
  8
LC_OH_2021_05_O7
  10
241398.000
  20
4518355.500
  0
VERTEX
  8
LC_OH_2021_05_O7
  10
241390.000
  20
4518349.500
  0
VERTEX
  8
LC_OH_2021_05_O7
  10
241388.000
  20
4518349.500
  0
VERTEX
  8
LC_OH_2021_05_O7
  10
238684.000
  20
4518595.000
  0
VERTEX
  8
LC_OH_2021_05_O7
  10
238736.000
  20
4519830.000
  0
VERTEX
  8
LC_OH_2021_05_O7
  10
239269.500
  20
4521003.500
  0
VERTEX
  8
LC_OH_2021_05_O7
  10
241790.000
  20
4520263.000
  0
VERTEX
  8
LC_OH_2021_05_O7
  10
241727.500
  20
4518606.500
  0
VERTEX
  8
LC_OH_2021_05_O7
  10
241725.500
  20
4518603.000
  0
VERTEX
  8
LC_OH_2021_05_O7
  10
241709.500
  20
4518591.000
  0
VERTEX
  8
LC_OH_2021_05_O7
  10
241708.000
  20
4518590.500
  0
SEQEND
  8
LC_OH_2021_05_O7
  0
INSERT
  8
FeatureAttribs
  2
FEATURE
  41
1
  42
1
  43
1
  50
0
  10
236960.312
  20
4520348.999
 66
1
  0
ATTRIB
  8
FeatureAttribs
 70
0
  1
PNOA-H_AMS_1956-57_33k_ES_PAN_21mic_H50_0502_fot_59A-35462_W.tif
  2
NAME
  10
236960.312
  20
4520348.999
 40
34.75186
  0
SEQEND
  0
POLYLINE
  8
LC_OH_2021_05_O7
  70
1
  66
1
  0
VERTEX
  8
LC_OH_2021_05_O7
  10
236220.000
  20
4522241.500
  0
VERTEX
  8
LC_OH_2021_05_O7
  10
238736.000
  20
4519830.500
  0
VERTEX
  8
LC_OH_2021_05_O7
  10
238684.000
  20
4518595.000
  0
VERTEX
  8
LC_OH_2021_05_O7
  10
238490.500
  20
4518456.500
  0
VERTEX
  8
LC_OH_2021_05_O7
  10
235674.000
  20
4518690.000
  0
VERTEX
  8
LC_OH_2021_05_O7
  10
235779.000
  20
4522060.500
  0
VERTEX
  8
LC_OH_2021_05_O7
  10
235779.500
  20
4522063.500
  0
VERTEX
  8
LC_OH_2021_05_O7
  10
235781.500
  20
4522064.500
  0
VERTEX
  8
LC_OH_2021_05_O7
  10
236218.500
  20
4522241.000
  0
VERTEX
  8
LC_OH_2021_05_O7
  10
236220.000
  20
4522241.500
  0
SEQEND
  8
LC_OH_2021_05_O7
  0
INSERT
  8
FeatureAttribs
  2
FEATURE
  41
1
  42
1
  43
1
  50
0
  10
234242.254
  20
4520650.249
 66
1
  0
ATTRIB
  8
FeatureAttribs
 70
0
  1
PNOA-H_AMS_1956-57_33k_ES_PAN_21mic_H50_0502_fot_59A-35463_W.tif
  2
NAME
  10
234242.254
  20
4520650.249
 40
34.75186
  0
SEQEND
  0
POLYLINE
  8
LC_OH_2021_05_O7
  70
1
  66
1
  0
VERTEX
  8
LC_OH_2021_05_O7
  10
234607.500
  20
4522524.500
  0
VERTEX
  8
LC_OH_2021_05_O7
  10
235779.500
  20
4522063.500
  0
VERTEX
  8
LC_OH_2021_05_O7
  10
235674.000
  20
4518690.000
  0
VERTEX
  8
LC_OH_2021_05_O7
  10
235464.500
  20
4518541.000
  0
VERTEX
  8
LC_OH_2021_05_O7
  10
235460.000
  20
4518538.000
  0
VERTEX
  8
LC_OH_2021_05_O7
  10
235453.500
  20
4518538.000
  0
VERTEX
  8
LC_OH_2021_05_O7
  10
232630.500
  20
4518716.000
  0
VERTEX
  8
LC_OH_2021_05_O7
  10
232853.500
  20
4522350.000
  0
VERTEX
  8
LC_OH_2021_05_O7
  10
234003.500
  20
4522762.500
  0
VERTEX
  8
LC_OH_2021_05_O7
  10
234606.500
  20
4522525.000
  0
VERTEX
  8
LC_OH_2021_05_O7
  10
234607.500
  20
4522524.500
  0
SEQEND
  8
LC_OH_2021_05_O7
  0
INSERT
  8
FeatureAttribs
  2
FEATURE
  41
1
  42
1
  43
1
  50
0
  10
236665.522
  20
4513565.999
 66
1
  0
ATTRIB
  8
FeatureAttribs
 70
0
  1
PNOA-H_AMS_1956-57_33k_ES_PAN_21mic_H50_0502_fot_000-39616_R.tif
  2
NAME
  10
236665.522
  20
4513565.999
 40
34.75186
  0
SEQEND
  0
POLYLINE
  8
LC_OH_2021_05_O7
  70
1
  66
1
  0
VERTEX
  8
LC_OH_2021_05_O7
  10
235982.000
  20
4512446.500
  0
VERTEX
  8
LC_OH_2021_05_O7
  10
235445.500
  20
4512157.000
  0
VERTEX
  8
LC_OH_2021_05_O7
  10
235128.500
  20
4514749.000
  0
VERTEX
  8
LC_OH_2021_05_O7
  10
235452.500
  20
4514975.000
  0
VERTEX
  8
LC_OH_2021_05_O7
  10
238150.500
  20
4514727.000
  0
VERTEX
  8
LC_OH_2021_05_O7
  10
238131.500
  20
4513981.000
  0
VERTEX
  8
LC_OH_2021_05_O7
  10
238094.000
  20
4513585.500
  0
VERTEX
  8
LC_OH_2021_05_O7
  10
235983.500
  20
4512447.000
  0
VERTEX
  8
LC_OH_2021_05_O7
  10
235982.000
  20
4512446.500
  0
SEQEND
  8
LC_OH_2021_05_O7
  0
INSERT
  8
FeatureAttribs
  2
FEATURE
  41
1
  42
1
  43
1
  50
0
  10
248712.087
  20
4512409.249
 66
1
  0
ATTRIB
  8
FeatureAttribs
 70
0
  1
PNOA-H_AMS_1956-57_33k_ES_PAN_21mic_H50_0502_fot_000-39612_R.tif
  2
NAME
  10
248712.087
  20
4512409.249
 40
34.75186
  0
SEQEND
  0
POLYLINE
  8
LC_OH_2021_05_O7
  70
1
  66
1
  0
VERTEX
  8
LC_OH_2021_05_O7
  10
248698.500
  20
4514657.000
  0
VERTEX
  8
LC_OH_2021_05_O7
  10
249164.500
  20
4514606.000
  0
VERTEX
  8
LC_OH_2021_05_O7
  10
249727.000
  20
4510501.500
  0
VERTEX
  8
LC_OH_2021_05_O7
  10
248811.000
  20
4510162.000
  0
VERTEX
  8
LC_OH_2021_05_O7
  10
248807.000
  20
4510161.500
  0
VERTEX
  8
LC_OH_2021_05_O7
  10
247358.500
  20
4510587.000
  0
VERTEX
  8
LC_OH_2021_05_O7
  10
248698.500
  20
4514656.000
  0
VERTEX
  8
LC_OH_2021_05_O7
  10
248698.500
  20
4514657.000
  0
SEQEND
  8
LC_OH_2021_05_O7
  0
INSERT
  8
FeatureAttribs
  2
FEATURE
  41
1
  42
1
  43
1
  50
0
  10
243070.621
  20
4512680.499
 66
1
  0
ATTRIB
  8
FeatureAttribs
 70
0
  1
PNOA-H_AMS_1956-57_33k_ES_PAN_21mic_H50_0502_fot_000-39614_R.tif
  2
NAME
  10
243070.621
  20
4512680.499
 40
34.75186
  0
SEQEND
  0
POLYLINE
  8
LC_OH_2021_05_O7
  70
1
  66
1
  0
VERTEX
  8
LC_OH_2021_05_O7
  10
242799.500
  20
4514800.500
  0
VERTEX
  8
LC_OH_2021_05_O7
  10
243692.000
  20
4514707.500
  0
VERTEX
  8
LC_OH_2021_05_O7
  10
243696.000
  20
4514707.000
  0
VERTEX
  8
LC_OH_2021_05_O7
  10
243696.500
  20
4514704.000
  0
VERTEX
  8
LC_OH_2021_05_O7
  10
243740.500
  20
4510741.500
  0
VERTEX
  8
LC_OH_2021_05_O7
  10
243106.500
  20
4510479.500
  0
VERTEX
  8
LC_OH_2021_05_O7
  10
242813.500
  20
4510546.500
  0
VERTEX
  8
LC_OH_2021_05_O7
  10
242019.000
  20
4514880.000
  0
VERTEX
  8
LC_OH_2021_05_O7
  10
242019.000
  20
4514881.500
  0
VERTEX
  8
LC_OH_2021_05_O7
  10
242028.000
  20
4514881.000
  0
VERTEX
  8
LC_OH_2021_05_O7
  10
242795.000
  20
4514800.500
  0
VERTEX
  8
LC_OH_2021_05_O7
  10
242799.500
  20
4514800.500
  0
SEQEND
  8
LC_OH_2021_05_O7
  0
INSERT
  8
FeatureAttribs
  2
FEATURE
  41
1
  42
1
  43
1
  50
0
  10
251617.784
  20
4512278.000
 66
1
  0
ATTRIB
  8
FeatureAttribs
 70
0
  1
PNOA-H_AMS_1956-57_33k_ES_PAN_21mic_H50_0502_fot_000-39611_R.tif
  2
NAME
  10
251617.784
  20
4512278.000
 40
34.75186
  0
SEQEND
  0
POLYLINE
  8
LC_OH_2021_05_O7
  70
1
  66
1
  0
VERTEX
  8
LC_OH_2021_05_O7
  10
251582.000
  20
4514543.000
  0
VERTEX
  8
LC_OH_2021_05_O7
  10
251787.500
  20
4514523.500
  0
VERTEX
  8
LC_OH_2021_05_O7
  10
251790.000
  20
4514523.000
  0
VERTEX
  8
LC_OH_2021_05_O7
  10
251791.000
  20
4514520.000
  0
VERTEX
  8
LC_OH_2021_05_O7
  10
252877.500
  20
4510408.000
  0
VERTEX
  8
LC_OH_2021_05_O7
  10
251671.000
  20
4510014.000
  0
VERTEX
  8
LC_OH_2021_05_O7
  10
251665.500
  20
4510013.000
  0
VERTEX
  8
LC_OH_2021_05_O7
  10
250273.000
  20
4510481.000
  0
VERTEX
  8
LC_OH_2021_05_O7
  10
251581.500
  20
4514541.000
  0
VERTEX
  8
LC_OH_2021_05_O7
  10
251582.000
  20
4514543.000
  0
SEQEND
  8
LC_OH_2021_05_O7
  0
INSERT
  8
FeatureAttribs
  2
FEATURE
  41
1
  42
1
  43
1
  50
0
  10
233227.881
  20
4513118.250
 66
1
  0
ATTRIB
  8
FeatureAttribs
 70
0
  1
PNOA-H_AMS_1956-57_33k_ES_PAN_21mic_H50_0502_fot_000-39617_R.tif
  2
NAME
  10
233227.881
  20
4513118.250
 40
34.75186
  0
SEQEND
  0
POLYLINE
  8
LC_OH_2021_05_O7
  70
1
  66
1
  0
VERTEX
  8
LC_OH_2021_05_O7
  10
232506.500
  20
4515073.500
  0
VERTEX
  8
LC_OH_2021_05_O7
  10
235077.000
  20
4514748.000
  0
VERTEX
  8
LC_OH_2021_05_O7
  10
235080.500
  20
4514747.500
  0
VERTEX
  8
LC_OH_2021_05_O7
  10
235081.000
  20
4514746.000
  0
VERTEX
  8
LC_OH_2021_05_O7
  10
232660.000
  20
4511166.000
  0
VERTEX
  8
LC_OH_2021_05_O7
  10
232657.500
  20
4511163.000
  0
VERTEX
  8
LC_OH_2021_05_O7
  10
232656.000
  20
4511163.000
  0
VERTEX
  8
LC_OH_2021_05_O7
  10
232620.000
  20
4511169.000
  0
VERTEX
  8
LC_OH_2021_05_O7
  10
232618.000
  20
4511171.000
  0
VERTEX
  8
LC_OH_2021_05_O7
  10
232341.500
  20
4514950.000
  0
VERTEX
  8
LC_OH_2021_05_O7
  10
232341.500
  20
4514954.500
  0
VERTEX
  8
LC_OH_2021_05_O7
  10
232506.000
  20
4515072.500
  0
VERTEX
  8
LC_OH_2021_05_O7
  10
232506.500
  20
4515073.500
  0
SEQEND
  8
LC_OH_2021_05_O7
  0
INSERT
  8
FeatureAttribs
  2
FEATURE
  41
1
  42
1
  43
1
  50
0
  10
231234.084
  20
4520805.999
 66
1
  0
ATTRIB
  8
FeatureAttribs
 70
0
  1
PNOA-H_AMS_1956-57_33k_ES_PAN_21mic_H50_0502_fot_59A-35464_W.tif
  2
NAME
  10
231234.084
  20
4520805.999
 40
34.75186
  0
SEQEND
  0
POLYLINE
  8
LC_OH_2021_05_O7
  70
1
  66
1
  0
VERTEX
  8
LC_OH_2021_05_O7
  10
231153.444
  20
4522991.887
  0
VERTEX
  8
LC_OH_2021_05_O7
  10
232853.500
  20
4522350.000
  0
VERTEX
  8
LC_OH_2021_05_O7
  10
232630.500
  20
4518716.000
  0
VERTEX
  8
LC_OH_2021_05_O7
  10
232434.000
  20
4518582.000
  0
VERTEX
  8
LC_OH_2021_05_O7
  10
230996.980
  20
4518691.620
  0
VERTEX
  8
LC_OH_2021_05_O7
  10
231063.506
  20
4520520.508
  0
VERTEX
  8
LC_OH_2021_05_O7
  10
231147.683
  20
4522833.654
  0
SEQEND
  8
LC_OH_2021_05_O7
  0
INSERT
  8
FeatureAttribs
  2
FEATURE
  41
1
  42
1
  43
1
  50
0
  10
239948.829
  20
4513309.999
 66
1
  0
ATTRIB
  8
FeatureAttribs
 70
0
  1
PNOA-H_AMS_1956-57_33k_ES_PAN_21mic_H50_0502_fot_000-39615_R.tif
  2
NAME
  10
239948.829
  20
4513309.999
 40
34.75186
  0
SEQEND
  0
POLYLINE
  8
LC_OH_2021_05_O7
  70
1
  66
1
  0
VERTEX
  8
LC_OH_2021_05_O7
  10
238387.000
  20
4514895.000
  0
VERTEX
  8
LC_OH_2021_05_O7
  10
241011.000
  20
4514665.500
  0
VERTEX
  8
LC_OH_2021_05_O7
  10
240878.000
  20
4511725.000
  0
VERTEX
  8
LC_OH_2021_05_O7
  10
238131.500
  20
4513980.500
  0
VERTEX
  8
LC_OH_2021_05_O7
  10
238150.500
  20
4514727.500
  0
VERTEX
  8
LC_OH_2021_05_O7
  10
238386.000
  20
4514894.500
  0
VERTEX
  8
LC_OH_2021_05_O7
  10
238387.000
  20
4514895.000
  0
SEQEND
  8
LC_OH_2021_05_O7
  0
INSERT
  8
FeatureAttribs
  2
FEATURE
  41
1
  42
1
  43
1
  50
0
  10
251575.546
  20
4505920.459
 66
1
  0
ATTRIB
  8
FeatureAttribs
 70
0
  1
PNOA-H_AMS_1956-57_33k_ES_PAN_21mic_H50_0527_fot_000-34905_R.tif
  2
NAME
  10
251575.546
  20
4505920.459
 40
34.75186
  0
SEQEND
  0
POLYLINE
  8
LC_OH_2021_05_O7
  70
1
  66
1
  0
VERTEX
  8
LC_OH_2021_05_O7
  10
251708.144
  20
4505904.417
  0
VERTEX
  8
LC_OH_2021_05_O7
  10
251694.744
  20
4505904.862
  0
VERTEX
  8
LC_OH_2021_05_O7
  10
251442.947
  20
4505913.342
  0
VERTEX
  8
LC_OH_2021_05_O7
  10
251490.500
  20
4505935.500
  0
VERTEX
  8
LC_OH_2021_05_O7
  10
251495.500
  20
4505936.500
  0
SEQEND
  8
LC_OH_2021_05_O7
  0
INSERT
  8
FeatureAttribs
  2
FEATURE
  41
1
  42
1
  43
1
  50
0
  10
249033.521
  20
4506054.752
 66
1
  0
ATTRIB
  8
FeatureAttribs
 70
0
  1
PNOA-H_AMS_1956-57_33k_ES_PAN_21mic_H50_0527_fot_000-34906_R.tif
  2
NAME
  10
249033.521
  20
4506054.752
 40
34.75186
  0
SEQEND
  0
POLYLINE
  8
LC_OH_2021_05_O7
  70
1
  66
1
  0
VERTEX
  8
LC_OH_2021_05_O7
  10
249701.048
  20
4505972.004
  0
VERTEX
  8
LC_OH_2021_05_O7
  10
248365.993
  20
4506016.964
  0
VERTEX
  8
LC_OH_2021_05_O7
  10
248612.500
  20
4506137.000
  0
VERTEX
  8
LC_OH_2021_05_O7
  10
248613.500
  20
4506137.500
  0
SEQEND
  8
LC_OH_2021_05_O7
  0
INSERT
  8
FeatureAttribs
  2
FEATURE
  41
1
  42
1
  43
1
  50
0
  10
246371.665
  20
4506201.402
 66
1
  0
ATTRIB
  8
FeatureAttribs
 70
0
  1
PNOA-H_AMS_1956-57_33k_ES_PAN_21mic_H50_0527_fot_000-34907_R.tif
  2
NAME
  10
246371.665
  20
4506201.402
 40
34.75186
  0
SEQEND
  0
POLYLINE
  8
LC_OH_2021_05_O7
  70
1
  66
1
  0
VERTEX
  8
LC_OH_2021_05_O7
  10
247474.912
  20
4506047.304
  0
VERTEX
  8
LC_OH_2021_05_O7
  10
245268.418
  20
4506122.661
  0
VERTEX
  8
LC_OH_2021_05_O7
  10
245753.500
  20
4506355.500
  0
SEQEND
  8
LC_OH_2021_05_O7
  0
INSERT
  8
FeatureAttribs
  2
FEATURE
  41
1
  42
1
  43
1
  50
0
  10
240854.650
  20
4506517.625
 66
1
  0
ATTRIB
  8
FeatureAttribs
 70
0
  1
PNOA-H_AMS_1956-57_33k_ES_PAN_21mic_H50_0527_fot_000-34909_R.tif
  2
NAME
  10
240854.650
  20
4506517.625
 40
34.75186
  0
SEQEND
  0
POLYLINE
  8
LC_OH_2021_05_O7
  70
1
  66
1
  0
VERTEX
  8
LC_OH_2021_05_O7
  10
242311.688
  20
4506224.750
  0
VERTEX
  8
LC_OH_2021_05_O7
  10
241127.063
  20
4506265.771
  0
VERTEX
  8
LC_OH_2021_05_O7
  10
239390.301
  20
4506326.736
  0
VERTEX
  8
LC_OH_2021_05_O7
  10
239409.500
  20
4506515.000
  0
VERTEX
  8
LC_OH_2021_05_O7
  10
239410.000
  20
4506516.500
  0
VERTEX
  8
LC_OH_2021_05_O7
  10
239419.500
  20
4506521.000
  0
VERTEX
  8
LC_OH_2021_05_O7
  10
240045.500
  20
4506810.500
  0
VERTEX
  8
LC_OH_2021_05_O7
  10
240749.000
  20
4506651.000
  0
VERTEX
  8
LC_OH_2021_05_O7
  10
240751.500
  20
4506650.500
  0
VERTEX
  8
LC_OH_2021_05_O7
  10
242319.000
  20
4506295.000
  0
SEQEND
  8
LC_OH_2021_05_O7
  0
INSERT
  8
FeatureAttribs
  2
FEATURE
  41
1
  42
1
  43
1
  50
0
  10
237940.537
  20
4506689.862
 66
1
  0
ATTRIB
  8
FeatureAttribs
 70
0
  1
PNOA-H_AMS_1956-57_33k_ES_PAN_21mic_H50_0527_fot_000-34910_R.tif
  2
NAME
  10
237940.537
  20
4506689.862
 40
34.75186
  0
SEQEND
  0
POLYLINE
  8
LC_OH_2021_05_O7
  70
1
  66
1
  0
VERTEX
  8
LC_OH_2021_05_O7
  10
239390.633
  20
4506326.724
  0
VERTEX
  8
LC_OH_2021_05_O7
  10
237604.461
  20
4506389.423
  0
VERTEX
  8
LC_OH_2021_05_O7
  10
236471.073
  20
4506429.747
  0
VERTEX
  8
LC_OH_2021_05_O7
  10
236498.000
  20
4506711.000
  0
VERTEX
  8
LC_OH_2021_05_O7
  10
237187.000
  20
4507053.000
  0
VERTEX
  8
LC_OH_2021_05_O7
  10
237189.500
  20
4507053.000
  0
VERTEX
  8
LC_OH_2021_05_O7
  10
238702.000
  20
4506687.000
  0
VERTEX
  8
LC_OH_2021_05_O7
  10
238703.500
  20
4506687.000
  0
VERTEX
  8
LC_OH_2021_05_O7
  10
239410.000
  20
4506516.000
  0
SEQEND
  8
LC_OH_2021_05_O7
  0
INSERT
  8
FeatureAttribs
  2
FEATURE
  41
1
  42
1
  43
1
  50
0
  10
234803.550
  20
4506760.372
 66
1
  0
ATTRIB
  8
FeatureAttribs
 70
0
  1
PNOA-H_AMS_1956-57_33k_ES_PAN_21mic_H50_0527_fot_000-34911_R.tif
  2
NAME
  10
234803.550
  20
4506760.372
 40
34.75186
  0
SEQEND
  0
POLYLINE
  8
LC_OH_2021_05_O7
  70
1
  66
1
  0
VERTEX
  8
LC_OH_2021_05_O7
  10
236471.143
  20
4506429.744
  0
VERTEX
  8
LC_OH_2021_05_O7
  10
234081.838
  20
4506514.751
  0
VERTEX
  8
LC_OH_2021_05_O7
  10
233109.100
  20
4506549.821
  0
VERTEX
  8
LC_OH_2021_05_O7
  10
234943.500
  20
4507090.500
  0
VERTEX
  8
LC_OH_2021_05_O7
  10
234945.500
  20
4507091.000
  0
VERTEX
  8
LC_OH_2021_05_O7
  10
236498.000
  20
4506711.000
  0
SEQEND
  8
LC_OH_2021_05_O7
  0
INSERT
  8
FeatureAttribs
  2
FEATURE
  41
1
  42
1
  43
1
  50
0
  10
243652.423
  20
4506340.030
 66
1
  0
ATTRIB
  8
FeatureAttribs
 70
0
  1
PNOA-H_AMS_1956-57_33k_ES_PAN_21mic_H50_0527_fot_000-34908_R.tif
  2
NAME
  10
243652.423
  20
4506340.030
 40
34.75186
  0
SEQEND
  0
POLYLINE
  8
LC_OH_2021_05_O7
  70
1
  66
1
  0
VERTEX
  8
LC_OH_2021_05_O7
  10
244993.173
  20
4506132.061
  0
VERTEX
  8
LC_OH_2021_05_O7
  10
244649.643
  20
4506143.793
  0
VERTEX
  8
LC_OH_2021_05_O7
  10
242311.672
  20
4506224.751
  0
VERTEX
  8
LC_OH_2021_05_O7
  10
242319.000
  20
4506295.000
  0
VERTEX
  8
LC_OH_2021_05_O7
  10
242866.000
  20
4506548.000
  0
VERTEX
  8
LC_OH_2021_05_O7
  10
244844.500
  20
4506161.000
  0
VERTEX
  8
LC_OH_2021_05_O7
  10
244847.500
  20
4506160.500
  0
SEQEND
  8
LC_OH_2021_05_O7
  0
INSERT
  8
FeatureAttribs
  2
FEATURE
  41
1
  42
1
  43
1
  50
0
  10
253004.764
  20
4507982.499
 66
1
  0
ATTRIB
  8
FeatureAttribs
 70
0
  1
PNOA-H_AMS_1956-57_33k_ES_PAN_21mic_H50_0502_fot_62B-04156_W.tif
  2
NAME
  10
253004.764
  20
4507982.499
 40
34.75186
  0
SEQEND
  0
POLYLINE
  8
LC_OH_2021_05_O7
  70
1
  66
1
  0
VERTEX
  8
LC_OH_2021_05_O7
  10
254284.303
  20
4505818.884
  0
VERTEX
  8
LC_OH_2021_05_O7
  10
251706.358
  20
4505904.476
  0
VERTEX
  8
LC_OH_2021_05_O7
  10
251493.500
  20
4505936.500
  0
VERTEX
  8
LC_OH_2021_05_O7
  10
251666.500
  20
4510013.000
  0
VERTEX
  8
LC_OH_2021_05_O7
  10
252874.500
  20
4510407.500
  0
VERTEX
  8
LC_OH_2021_05_O7
  10
252876.000
  20
4510408.000
  0
VERTEX
  8
LC_OH_2021_05_O7
  10
254310.000
  20
4510408.000
  0
VERTEX
  8
LC_OH_2021_05_O7
  10
254581.000
  20
4510249.500
  0
SEQEND
  8
LC_OH_2021_05_O7
  0
INSERT
  8
FeatureAttribs
  2
FEATURE
  41
1
  42
1
  43
1
  50
0
  10
247273.501
  20
4508274.749
 66
1
  0
ATTRIB
  8
FeatureAttribs
 70
0
  1
PNOA-H_AMS_1956-57_33k_ES_PAN_21mic_H50_0502_fot_62B-04158_W.tif
  2
NAME
  10
247273.501
  20
4508274.749
 40
34.75186
  0
SEQEND
  0
POLYLINE
  8
LC_OH_2021_05_O7
  70
1
  66
1
  0
VERTEX
  8
LC_OH_2021_05_O7
  10
248367.232
  20
4506016.922
  0
VERTEX
  8
LC_OH_2021_05_O7
  10
248172.204
  20
4506023.490
  0
VERTEX
  8
LC_OH_2021_05_O7
  10
247472.697
  20
4506047.380
  0
VERTEX
  8
LC_OH_2021_05_O7
  10
245754.500
  20
4506355.500
  0
VERTEX
  8
LC_OH_2021_05_O7
  10
245908.500
  20
4510297.000
  0
VERTEX
  8
LC_OH_2021_05_O7
  10
246781.500
  20
4510626.500
  0
VERTEX
  8
LC_OH_2021_05_O7
  10
246783.000
  20
4510627.000
  0
VERTEX
  8
LC_OH_2021_05_O7
  10
247359.000
  20
4510587.000
  0
VERTEX
  8
LC_OH_2021_05_O7
  10
248808.500
  20
4510161.500
  0
VERTEX
  8
LC_OH_2021_05_O7
  10
248614.500
  20
4506140.000
  0
VERTEX
  8
LC_OH_2021_05_O7
  10
248614.000
  20
4506137.500
  0
VERTEX
  8
LC_OH_2021_05_O7
  10
248609.500
  20
4506135.000
  0
SEQEND
  8
LC_OH_2021_05_O7
  0
INSERT
  8
FeatureAttribs
  2
FEATURE
  41
1
  42
1
  43
1
  50
0
  10
244407.298
  20
4508416.249
 66
1
  0
ATTRIB
  8
FeatureAttribs
 70
0
  1
PNOA-H_AMS_1956-57_33k_ES_PAN_21mic_H50_0502_fot_62B-04159_W.tif
  2
NAME
  10
244407.298
  20
4508416.249
 40
34.75186
  0
SEQEND
  0
POLYLINE
  8
LC_OH_2021_05_O7
  70
1
  66
1
  0
VERTEX
  8
LC_OH_2021_05_O7
  10
245268.975
  20
4506122.642
  0
VERTEX
  8
LC_OH_2021_05_O7
  10
244992.937
  20
4506132.069
  0
VERTEX
  8
LC_OH_2021_05_O7
  10
242865.500
  20
4506548.000
  0
VERTEX
  8
LC_OH_2021_05_O7
  10
243105.500
  20
4510479.500
  0
VERTEX
  8
LC_OH_2021_05_O7
  10
243739.000
  20
4510741.000
  0
VERTEX
  8
LC_OH_2021_05_O7
  10
243740.000
  20
4510741.500
  0
VERTEX
  8
LC_OH_2021_05_O7
  10
244709.000
  20
4510637.000
  0
VERTEX
  8
LC_OH_2021_05_O7
  10
245908.500
  20
4510297.000
  0
VERTEX
  8
LC_OH_2021_05_O7
  10
245754.500
  20
4506355.500
  0
SEQEND
  8
LC_OH_2021_05_O7
  0
INSERT
  8
FeatureAttribs
  2
FEATURE
  41
1
  42
1
  43
1
  50
0
  10
258744.396
  20
4507629.000
 66
1
  0
ATTRIB
  8
FeatureAttribs
 70
0
  1
PNOA-H_AMS_1956-57_33k_ES_PAN_21mic_H50_0502_fot_62B-04154_W.tif
  2
NAME
  10
258744.396
  20
4507629.000
 40
34.75186
  0
SEQEND
  0
POLYLINE
  8
LC_OH_2021_05_O7
  70
1
  66
1
  0
VERTEX
  8
LC_OH_2021_05_O7
  10
258884.802
  20
4510134.965
  0
VERTEX
  8
LC_OH_2021_05_O7
  10
258814.928
  20
4507985.632
  0
VERTEX
  8
LC_OH_2021_05_O7
  10
258739.765
  20
4505672.628
  0
VERTEX
  8
LC_OH_2021_05_O7
  10
257214.653
  20
4505722.540
  0
VERTEX
  8
LC_OH_2021_05_O7
  10
257383.000
  20
4510042.500
  0
SEQEND
  8
LC_OH_2021_05_O7
  0
INSERT
  8
FeatureAttribs
  2
FEATURE
  41
1
  42
1
  43
1
  50
0
  10
232587.473
  20
4508828.000
 66
1
  0
ATTRIB
  8
FeatureAttribs
 70
0
  1
PNOA-H_AMS_1956-57_33k_ES_PAN_21mic_H50_0502_fot_62B-04163_W.tif
  2
NAME
  10
232587.473
  20
4508828.000
 40
34.75186
  0
SEQEND
  0
POLYLINE
  8
LC_OH_2021_05_O7
  70
1
  66
1
  0
VERTEX
  8
LC_OH_2021_05_O7
  10
232540.269
  20
4506570.329
  0
VERTEX
  8
LC_OH_2021_05_O7
  10
231819.468
  20
4506596.317
  0
VERTEX
  8
LC_OH_2021_05_O7
  10
231877.000
  20
4510900.500
  0
VERTEX
  8
LC_OH_2021_05_O7
  10
232616.500
  20
4511169.000
  0
VERTEX
  8
LC_OH_2021_05_O7
  10
232617.500
  20
4511169.500
  0
VERTEX
  8
LC_OH_2021_05_O7
  10
232660.000
  20
4511162.500
  0
VERTEX
  8
LC_OH_2021_05_O7
  10
233976.500
  20
4510700.500
  0
VERTEX
  8
LC_OH_2021_05_O7
  10
233976.500
  20
4510699.000
  0
SEQEND
  8
LC_OH_2021_05_O7
  0
INSERT
  8
FeatureAttribs
  2
FEATURE
  41
1
  42
1
  43
1
  50
0
  10
236034.199
  20
4508843.749
 66
1
  0
ATTRIB
  8
FeatureAttribs
 70
0
  1
PNOA-H_AMS_1956-57_33k_ES_PAN_21mic_H50_0502_fot_62B-04162_W.tif
  2
NAME
  10
236034.199
  20
4508843.749
 40
34.75186
  0
SEQEND
  0
POLYLINE
  8
LC_OH_2021_05_O7
  70
1
  66
1
  0
VERTEX
  8
LC_OH_2021_05_O7
  10
236655.500
  20
4510660.000
  0
VERTEX
  8
LC_OH_2021_05_O7
  10
237331.000
  20
4510486.500
  0
VERTEX
  8
LC_OH_2021_05_O7
  10
237188.000
  20
4507053.000
  0
VERTEX
  8
LC_OH_2021_05_O7
  10
236502.000
  20
4506712.500
  0
VERTEX
  8
LC_OH_2021_05_O7
  10
236496.500
  20
4506711.000
  0
VERTEX
  8
LC_OH_2021_05_O7
  10
234954.500
  20
4507088.500
  0
VERTEX
  8
LC_OH_2021_05_O7
  10
234946.000
  20
4507091.000
  0
VERTEX
  8
LC_OH_2021_05_O7
  10
234945.000
  20
4507098.500
  0
VERTEX
  8
LC_OH_2021_05_O7
  10
234662.000
  20
4510646.500
  0
VERTEX
  8
LC_OH_2021_05_O7
  10
235424.500
  20
4510976.500
  0
VERTEX
  8
LC_OH_2021_05_O7
  10
235436.000
  20
4510974.500
  0
VERTEX
  8
LC_OH_2021_05_O7
  10
236653.500
  20
4510660.500
  0
VERTEX
  8
LC_OH_2021_05_O7
  10
236655.500
  20
4510660.000
  0
SEQEND
  8
LC_OH_2021_05_O7
  0
INSERT
  8
FeatureAttribs
  2
FEATURE
  41
1
  42
1
  43
1
  50
0
  10
238705.469
  20
4508710.249
 66
1
  0
ATTRIB
  8
FeatureAttribs
 70
0
  1
PNOA-H_AMS_1956-57_33k_ES_PAN_21mic_H50_0502_fot_62B-04161_W.tif
  2
NAME
  10
238705.469
  20
4508710.249
 40
34.75186
  0
SEQEND
  0
POLYLINE
  8
LC_OH_2021_05_O7
  70
1
  66
1
  0
VERTEX
  8
LC_OH_2021_05_O7
  10
237331.000
  20
4510486.500
  0
VERTEX
  8
LC_OH_2021_05_O7
  10
238166.000
  20
4510904.500
  0
VERTEX
  8
LC_OH_2021_05_O7
  10
238701.500
  20
4510805.000
  0
VERTEX
  8
LC_OH_2021_05_O7
  10
238703.500
  20
4510805.000
  0
VERTEX
  8
LC_OH_2021_05_O7
  10
240256.000
  20
4510516.000
  0
VERTEX
  8
LC_OH_2021_05_O7
  10
240046.500
  20
4506810.500
  0
VERTEX
  8
LC_OH_2021_05_O7
  10
239410.000
  20
4506516.000
  0
VERTEX
  8
LC_OH_2021_05_O7
  10
237188.000
  20
4507053.000
  0
SEQEND
  8
LC_OH_2021_05_O7
  0
INSERT
  8
FeatureAttribs
  2
FEATURE
  41
1
  42
1
  43
1
  50
0
  10
255856.604
  20
4507805.498
 66
1
  0
ATTRIB
  8
FeatureAttribs
 70
0
  1
PNOA-H_AMS_1956-57_33k_ES_PAN_21mic_H50_0502_fot_62B-04155_W.tif
  2
NAME
  10
255856.604
  20
4507805.498
 40
34.75186
  0
SEQEND
  0
POLYLINE
  8
LC_OH_2021_05_O7
  70
1
  66
1
  0
VERTEX
  8
LC_OH_2021_05_O7
  10
257214.653
  20
4505722.540
  0
VERTEX
  8
LC_OH_2021_05_O7
  10
255217.264
  20
4505787.908
  0
VERTEX
  8
LC_OH_2021_05_O7
  10
254284.304
  20
4505818.884
  0
VERTEX
  8
LC_OH_2021_05_O7
  10
254581.000
  20
4510249.000
  0
VERTEX
  8
LC_OH_2021_05_O7
  10
255045.500
  20
4510259.000
  0
VERTEX
  8
LC_OH_2021_05_O7
  10
255070.000
  20
4510259.500
  0
VERTEX
  8
LC_OH_2021_05_O7
  10
256929.000
  20
4510297.500
  0
VERTEX
  8
LC_OH_2021_05_O7
  10
257383.000
  20
4510042.500
  0
SEQEND
  8
LC_OH_2021_05_O7
  0
INSERT
  8
FeatureAttribs
  2
FEATURE
  41
1
  42
1
  43
1
  50
0
  10
241567.454
  20
4508569.749
 66
1
  0
ATTRIB
  8
FeatureAttribs
 70
0
  1
PNOA-H_AMS_1956-57_33k_ES_PAN_21mic_H50_0502_fot_62B-04160_W.tif
  2
NAME
  10
241567.454
  20
4508569.749
 40
34.75186
  0
SEQEND
  0
POLYLINE
  8
LC_OH_2021_05_O7
  70
1
  66
1
  0
VERTEX
  8
LC_OH_2021_05_O7
  10
240256.000
  20
4510516.000
  0
VERTEX
  8
LC_OH_2021_05_O7
  10
240749.500
  20
4510767.500
  0
VERTEX
  8
LC_OH_2021_05_O7
  10
240750.500
  20
4510768.000
  0
VERTEX
  8
LC_OH_2021_05_O7
  10
240901.000
  20
4510844.500
  0
VERTEX
  8
LC_OH_2021_05_O7
  10
240904.000
  20
4510844.500
  0
VERTEX
  8
LC_OH_2021_05_O7
  10
242809.000
  20
4510547.500
  0
VERTEX
  8
LC_OH_2021_05_O7
  10
243105.500
  20
4510479.500
  0
VERTEX
  8
LC_OH_2021_05_O7
  10
242865.500
  20
4506547.500
  0
VERTEX
  8
LC_OH_2021_05_O7
  10
242320.500
  20
4506295.000
  0
VERTEX
  8
LC_OH_2021_05_O7
  10
242317.000
  20
4506295.000
  0
VERTEX
  8
LC_OH_2021_05_O7
  10
240046.500
  20
4506810.500
  0
SEQEND
  8
LC_OH_2021_05_O7
  0
INSERT
  8
FeatureAttribs
  2
FEATURE
  41
1
  42
1
  43
1
  50
0
  10
241666.371
  20
4512759.499
 66
1
  0
ATTRIB
  8
FeatureAttribs
 70
0
  1
PNOA-H_AMS_1956-57_33k_ES_PAN_21mic_H50_0502_fot_61B-18271_W.tif
  2
NAME
  10
241666.371
  20
4512759.499
 40
34.75186
  0
SEQEND
  0
POLYLINE
  8
LC_OH_2021_05_O7
  70
1
  66
1
  0
VERTEX
  8
LC_OH_2021_05_O7
  10
241526.000
  20
4514972.500
  0
VERTEX
  8
LC_OH_2021_05_O7
  10
242016.000
  20
4514882.500
  0
VERTEX
  8
LC_OH_2021_05_O7
  10
242018.500
  20
4514882.000
  0
VERTEX
  8
LC_OH_2021_05_O7
  10
242019.500
  20
4514880.000
  0
VERTEX
  8
LC_OH_2021_05_O7
  10
242813.500
  20
4510546.500
  0
VERTEX
  8
LC_OH_2021_05_O7
  10
240901.500
  20
4510844.500
  0
VERTEX
  8
LC_OH_2021_05_O7
  10
240878.000
  20
4511728.000
  0
VERTEX
  8
LC_OH_2021_05_O7
  10
241011.000
  20
4514665.500
  0
VERTEX
  8
LC_OH_2021_05_O7
  10
241525.000
  20
4514972.000
  0
VERTEX
  8
LC_OH_2021_05_O7
  10
241526.000
  20
4514972.500
  0
SEQEND
  8
LC_OH_2021_05_O7
  0
INSERT
  8
FeatureAttribs
  2
FEATURE
  41
1
  42
1
  43
1
  50
0
  10
250212.487
  20
4512761.999
 66
1
  0
ATTRIB
  8
FeatureAttribs
 70
0
  1
PNOA-H_AMS_1956-57_33k_ES_PAN_21mic_H50_0502_fot_61B-18268_W.tif
  2
NAME
  10
250212.487
  20
4512761.999
 40
34.75186
  0
SEQEND
  0
POLYLINE
  8
LC_OH_2021_05_O7
  70
1
  66
1
  0
VERTEX
  8
LC_OH_2021_05_O7
  10
250906.000
  20
4512446.500
  0
VERTEX
  8
LC_OH_2021_05_O7
  10
250273.000
  20
4510481.500
  0
VERTEX
  8
LC_OH_2021_05_O7
  10
249727.000
  20
4510501.500
  0
VERTEX
  8
LC_OH_2021_05_O7
  10
249164.500
  20
4514606.500
  0
VERTEX
  8
LC_OH_2021_05_O7
  10
250435.000
  20
4515042.500
  0
VERTEX
  8
LC_OH_2021_05_O7
  10
251582.000
  20
4514543.500
  0
VERTEX
  8
LC_OH_2021_05_O7
  10
250906.500
  20
4512448.000
  0
VERTEX
  8
LC_OH_2021_05_O7
  10
250906.000
  20
4512446.500
  0
SEQEND
  8
LC_OH_2021_05_O7
  0
INSERT
  8
FeatureAttribs
  2
FEATURE
  41
1
  42
1
  43
1
  50
0
  10
236789.854
  20
4512036.000
 66
1
  0
ATTRIB
  8
FeatureAttribs
 70
0
  1
PNOA-H_AMS_1956-57_33k_ES_PAN_21mic_H50_0502_fot_61B-18273_W.tif
  2
NAME
  10
236789.854
  20
4512036.000
 40
34.75186
  0
SEQEND
  0
POLYLINE
  8
LC_OH_2021_05_O7
  70
1
  66
1
  0
VERTEX
  8
LC_OH_2021_05_O7
  10
236655.000
  20
4512809.500
  0
VERTEX
  8
LC_OH_2021_05_O7
  10
238094.000
  20
4513585.500
  0
VERTEX
  8
LC_OH_2021_05_O7
  10
238167.000
  20
4510904.500
  0
VERTEX
  8
LC_OH_2021_05_O7
  10
237944.500
  20
4510793.000
  0
VERTEX
  8
LC_OH_2021_05_O7
  10
237331.500
  20
4510486.500
  0
VERTEX
  8
LC_OH_2021_05_O7
  10
237329.000
  20
4510486.500
  0
VERTEX
  8
LC_OH_2021_05_O7
  10
235426.000
  20
4510976.500
  0
VERTEX
  8
LC_OH_2021_05_O7
  10
235445.500
  20
4512157.000
  0
VERTEX
  8
LC_OH_2021_05_O7
  10
236654.000
  20
4512809.000
  0
VERTEX
  8
LC_OH_2021_05_O7
  10
236655.000
  20
4512809.500
  0
SEQEND
  8
LC_OH_2021_05_O7
  0
INSERT
  8
FeatureAttribs
  2
FEATURE
  41
1
  42
1
  43
1
  50
0
  10
255733.014
  20
4512548.500
 66
1
  0
ATTRIB
  8
FeatureAttribs
 70
0
  1
PNOA-H_AMS_1956-57_33k_ES_PAN_21mic_H50_0502_fot_61B-18266_W.tif
  2
NAME
  10
255733.014
  20
4512548.500
 40
34.75186
  0
SEQEND
  0
POLYLINE
  8
LC_OH_2021_05_O7
  70
1
  66
1
  0
VERTEX
  8
LC_OH_2021_05_O7
  10
255087.000
  20
4514587.500
  0
VERTEX
  8
LC_OH_2021_05_O7
  10
256381.000
  20
4514848.000
  0
VERTEX
  8
LC_OH_2021_05_O7
  10
257228.500
  20
4514372.000
  0
VERTEX
  8
LC_OH_2021_05_O7
  10
256930.500
  20
4510313.500
  0
VERTEX
  8
LC_OH_2021_05_O7
  10
256929.000
  20
4510297.500
  0
VERTEX
  8
LC_OH_2021_05_O7
  10
256927.000
  20
4510297.000
  0
VERTEX
  8
LC_OH_2021_05_O7
  10
254581.000
  20
4510249.000
  0
VERTEX
  8
LC_OH_2021_05_O7
  10
254309.500
  20
4510408.000
  0
VERTEX
  8
LC_OH_2021_05_O7
  10
254426.500
  20
4514454.000
  0
VERTEX
  8
LC_OH_2021_05_O7
  10
255084.500
  20
4514587.000
  0
VERTEX
  8
LC_OH_2021_05_O7
  10
255087.000
  20
4514587.500
  0
SEQEND
  8
LC_OH_2021_05_O7
  0
INSERT
  8
FeatureAttribs
  2
FEATURE
  41
1
  42
1
  43
1
  50
0
  10
244489.203
  20
4512867.750
 66
1
  0
ATTRIB
  8
FeatureAttribs
 70
0
  1
PNOA-H_AMS_1956-57_33k_ES_PAN_21mic_H50_0502_fot_61B-18270_W.tif
  2
NAME
  10
244489.203
  20
4512867.750
 40
34.75186
  0
SEQEND
  0
POLYLINE
  8
LC_OH_2021_05_O7
  70
1
  66
1
  0
VERTEX
  8
LC_OH_2021_05_O7
  10
244847.500
  20
4515002.000
  0
VERTEX
  8
LC_OH_2021_05_O7
  10
245721.000
  20
4514766.000
  0
VERTEX
  8
LC_OH_2021_05_O7
  10
245730.000
  20
4514763.500
  0
VERTEX
  8
LC_OH_2021_05_O7
  10
245731.000
  20
4514761.500
  0
VERTEX
  8
LC_OH_2021_05_O7
  10
244709.000
  20
4510637.000
  0
VERTEX
  8
LC_OH_2021_05_O7
  10
243740.500
  20
4510741.500
  0
VERTEX
  8
LC_OH_2021_05_O7
  10
243696.000
  20
4514707.000
  0
VERTEX
  8
LC_OH_2021_05_O7
  10
244488.500
  20
4515098.500
  0
VERTEX
  8
LC_OH_2021_05_O7
  10
244504.500
  20
4515095.000
  0
VERTEX
  8
LC_OH_2021_05_O7
  10
244846.500
  20
4515002.000
  0
VERTEX
  8
LC_OH_2021_05_O7
  10
244847.500
  20
4515002.000
  0
SEQEND
  8
LC_OH_2021_05_O7
  0
INSERT
  8
FeatureAttribs
  2
FEATURE
  41
1
  42
1
  43
1
  50
0
  10
247350.068
  20
4512851.250
 66
1
  0
ATTRIB
  8
FeatureAttribs
 70
0
  1
PNOA-H_AMS_1956-57_33k_ES_PAN_21mic_H50_0502_fot_61B-18269_W.tif
  2
NAME
  10
247350.068
  20
4512851.250
 40
34.75186
  0
SEQEND
  0
POLYLINE
  8
LC_OH_2021_05_O7
  70
1
  66
1
  0
VERTEX
  8
LC_OH_2021_05_O7
  10
247416.000
  20
4515115.500
  0
VERTEX
  8
LC_OH_2021_05_O7
  10
248671.000
  20
4514667.000
  0
VERTEX
  8
LC_OH_2021_05_O7
  10
248697.500
  20
4514657.500
  0
VERTEX
  8
LC_OH_2021_05_O7
  10
248698.500
  20
4514656.000
  0
VERTEX
  8
LC_OH_2021_05_O7
  10
247358.500
  20
4510587.000
  0
VERTEX
  8
LC_OH_2021_05_O7
  10
246791.000
  20
4510626.500
  0
VERTEX
  8
LC_OH_2021_05_O7
  10
246784.500
  20
4510627.000
  0
VERTEX
  8
LC_OH_2021_05_O7
  10
246784.000
  20
4510628.500
  0
VERTEX
  8
LC_OH_2021_05_O7
  10
246439.000
  20
4514706.500
  0
VERTEX
  8
LC_OH_2021_05_O7
  10
247415.000
  20
4515115.000
  0
VERTEX
  8
LC_OH_2021_05_O7
  10
247416.000
  20
4515115.500
  0
SEQEND
  8
LC_OH_2021_05_O7
  0
INSERT
  8
FeatureAttribs
  2
FEATURE
  41
1
  42
1
  43
1
  50
0
  10
253325.648
  20
4512683.249
 66
1
  0
ATTRIB
  8
FeatureAttribs
 70
0
  1
PNOA-H_AMS_1956-57_33k_ES_PAN_21mic_H50_0502_fot_61B-18267_W.tif
  2
NAME
  10
253325.648
  20
4512683.249
 40
34.75186
  0
SEQEND
  0
POLYLINE
  8
LC_OH_2021_05_O7
  70
1
  66
1
  0
VERTEX
  8
LC_OH_2021_05_O7
  10
253442.000
  20
4514958.500
  0
VERTEX
  8
LC_OH_2021_05_O7
  10
254426.500
  20
4514454.000
  0
VERTEX
  8
LC_OH_2021_05_O7
  10
254309.500
  20
4510408.000
  0
VERTEX
  8
LC_OH_2021_05_O7
  10
252877.500
  20
4510408.000
  0
VERTEX
  8
LC_OH_2021_05_O7
  10
251790.000
  20
4514521.500
  0
VERTEX
  8
LC_OH_2021_05_O7
  10
251790.000
  20
4514523.000
  0
VERTEX
  8
LC_OH_2021_05_O7
  10
251792.500
  20
4514524.000
  0
VERTEX
  8
LC_OH_2021_05_O7
  10
253440.000
  20
4514958.000
  0
VERTEX
  8
LC_OH_2021_05_O7
  10
253442.000
  20
4514958.500
  0
SEQEND
  8
LC_OH_2021_05_O7
  0
INSERT
  8
FeatureAttribs
  2
FEATURE
  41
1
  42
1
  43
1
  50
0
  10
231722.551
  20
4512927.250
 66
1
  0
ATTRIB
  8
FeatureAttribs
 70
0
  1
PNOA-H_AMS_1956-57_33k_ES_PAN_21mic_H50_0502_fot_61B-18275_W.tif
  2
NAME
  10
231722.551
  20
4512927.250
 40
34.75186
  0
SEQEND
  0
POLYLINE
  8
LC_OH_2021_05_O7
  70
1
  66
1
  0
VERTEX
  8
LC_OH_2021_05_O7
  10
230765.509
  20
4512323.700
  0
VERTEX
  8
LC_OH_2021_05_O7
  10
231560.500
  20
4514854.000
  0
VERTEX
  8
LC_OH_2021_05_O7
  10
232335.000
  20
4514953.500
  0
VERTEX
  8
LC_OH_2021_05_O7
  10
232339.000
  20
4514954.000
  0
VERTEX
  8
LC_OH_2021_05_O7
  10
232341.500
  20
4514954.000
  0
VERTEX
  8
LC_OH_2021_05_O7
  10
232343.000
  20
4514936.500
  0
VERTEX
  8
LC_OH_2021_05_O7
  10
232618.500
  20
4511169.500
  0
VERTEX
  8
LC_OH_2021_05_O7
  10
231878.000
  20
4510900.500
  0
VERTEX
  8
LC_OH_2021_05_O7
  10
230720.178
  20
4511075.841
  0
VERTEX
  8
LC_OH_2021_05_O7
  10
230727.156
  20
4511267.982
  0
SEQEND
  8
LC_OH_2021_05_O7
  0
INSERT
  8
FeatureAttribs
  2
FEATURE
  41
1
  42
1
  43
1
  50
0
  10
239185.466
  20
4512248.499
 66
1
  0
ATTRIB
  8
FeatureAttribs
 70
0
  1
PNOA-H_AMS_1956-57_33k_ES_PAN_21mic_H50_0502_fot_61B-18272_W.tif
  2
NAME
  10
239185.466
  20
4512248.499
 40
34.75186
  0
SEQEND
  0
POLYLINE
  8
LC_OH_2021_05_O7
  70
1
  66
1
  0
VERTEX
  8
LC_OH_2021_05_O7
  10
238131.000
  20
4513981.000
  0
VERTEX
  8
LC_OH_2021_05_O7
  10
240878.000
  20
4511725.000
  0
VERTEX
  8
LC_OH_2021_05_O7
  10
240901.500
  20
4510861.000
  0
VERTEX
  8
LC_OH_2021_05_O7
  10
240901.000
  20
4510844.000
  0
VERTEX
  8
LC_OH_2021_05_O7
  10
240255.500
  20
4510516.000
  0
VERTEX
  8
LC_OH_2021_05_O7
  10
238167.000
  20
4510904.500
  0
VERTEX
  8
LC_OH_2021_05_O7
  10
238094.000
  20
4513582.000
  0
VERTEX
  8
LC_OH_2021_05_O7
  10
238131.000
  20
4513976.000
  0
VERTEX
  8
LC_OH_2021_05_O7
  10
238131.000
  20
4513981.000
  0
SEQEND
  8
LC_OH_2021_05_O7
  0
INSERT
  8
FeatureAttribs
  2
FEATURE
  41
1
  42
1
  43
1
  50
0
  10
250148.363
  20
4508129.499
 66
1
  0
ATTRIB
  8
FeatureAttribs
 70
0
  1
PNOA-H_AMS_1956-57_33k_ES_PAN_21mic_H50_0502_fot_62B-04157_W.tif
  2
NAME
  10
250148.363
  20
4508129.499
 40
34.75186
  0
SEQEND
  0
POLYLINE
  8
LC_OH_2021_05_O7
  70
1
  66
1
  0
VERTEX
  8
LC_OH_2021_05_O7
  10
251443.701
  20
4505913.316
  0
VERTEX
  8
LC_OH_2021_05_O7
  10
249700.492
  20
4505972.022
  0
VERTEX
  8
LC_OH_2021_05_O7
  10
248614.000
  20
4506137.500
  0
VERTEX
  8
LC_OH_2021_05_O7
  10
248808.500
  20
4510161.500
  0
VERTEX
  8
LC_OH_2021_05_O7
  10
249726.000
  20
4510501.500
  0
VERTEX
  8
LC_OH_2021_05_O7
  10
250273.000
  20
4510481.500
  0
VERTEX
  8
LC_OH_2021_05_O7
  10
251666.500
  20
4510013.000
  0
VERTEX
  8
LC_OH_2021_05_O7
  10
251509.000
  20
4506308.000
  0
VERTEX
  8
LC_OH_2021_05_O7
  10
251509.000
  20
4506302.500
  0
VERTEX
  8
LC_OH_2021_05_O7
  10
251493.500
  20
4505936.500
  0
SEQEND
  8
LC_OH_2021_05_O7
  0
INSERT
  8
FeatureAttribs
  2
FEATURE
  41
1
  42
1
  43
1
  50
0
  10
234537.456
  20
4512697.748
 66
1
  0
ATTRIB
  8
FeatureAttribs
 70
0
  1
PNOA-H_AMS_1956-57_33k_ES_PAN_21mic_H50_0502_fot_61B-18274_W.tif
  2
NAME
  10
234537.456
  20
4512697.748
 40
34.75186
  0
SEQEND
  0
POLYLINE
  8
LC_OH_2021_05_O7
  70
1
  66
1
  0
VERTEX
  8
LC_OH_2021_05_O7
  10
235123.500
  20
4514749.000
  0
VERTEX
  8
LC_OH_2021_05_O7
  10
235128.500
  20
4514749.000
  0
VERTEX
  8
LC_OH_2021_05_O7
  10
235130.000
  20
4514739.500
  0
VERTEX
  8
LC_OH_2021_05_O7
  10
235445.500
  20
4512161.000
  0
VERTEX
  8
LC_OH_2021_05_O7
  10
235426.000
  20
4510976.500
  0
VERTEX
  8
LC_OH_2021_05_O7
  10
234662.500
  20
4510646.500
  0
VERTEX
  8
LC_OH_2021_05_O7
  10
233976.500
  20
4510700.000
  0
VERTEX
  8
LC_OH_2021_05_O7
  10
232657.500
  20
4511163.500
  0
VERTEX
  8
LC_OH_2021_05_O7
  10
235074.500
  20
4514737.500
  0
VERTEX
  8
LC_OH_2021_05_O7
  10
235081.000
  20
4514747.000
  0
VERTEX
  8
LC_OH_2021_05_O7
  10
235110.000
  20
4514748.500
  0
VERTEX
  8
LC_OH_2021_05_O7
  10
235123.500
  20
4514749.000
  0
SEQEND
  8
LC_OH_2021_05_O7
  0
INSERT
  8
FeatureAttribs
  2
FEATURE
  41
1
  42
1
  43
1
  50
0
  10
258438.453
  20
4512358.249
 66
1
  0
ATTRIB
  8
FeatureAttribs
 70
0
  1
PNOA-H_AMS_1956-57_33k_ES_PAN_21mic_H50_0502_fot_61B-18265_W.tif
  2
NAME
  10
258438.453
  20
4512358.249
 40
34.75186
  0
SEQEND
  0
POLYLINE
  8
LC_OH_2021_05_O7
  70
1
  66
1
  0
VERTEX
  8
LC_OH_2021_05_O7
  10
258884.790
  20
4510134.590
  0
VERTEX
  8
LC_OH_2021_05_O7
  10
257389.500
  20
4510042.500
  0
VERTEX
  8
LC_OH_2021_05_O7
  10
257382.000
  20
4510042.500
  0
VERTEX
  8
LC_OH_2021_05_O7
  10
256929.000
  20
4510297.000
  0
VERTEX
  8
LC_OH_2021_05_O7
  10
257228.500
  20
4514372.000
  0
VERTEX
  8
LC_OH_2021_05_O7
  10
259031.100
  20
4514632.417
  0
VERTEX
  8
LC_OH_2021_05_O7
  10
258965.351
  20
4512611.659
  0
VERTEX
  8
LC_OH_2021_05_O7
  10
258890.123
  20
4510298.643
  0
SEQEND
  8
LC_OH_2021_05_O7
  0
INSERT
  8
FeatureAttribs
  2
FEATURE
  41
1
  42
1
  43
1
  50
0
  10
230940.281
  20
4516827.999
 66
1
  0
ATTRIB
  8
FeatureAttribs
 70
0
  1
PNOA-H_AMS_1956-57_33k_ES_PAN_21mic_H50_0502_fot_60A-04421_E.tif
  2
NAME
  10
230940.281
  20
4516827.999
 40
34.75186
  0
SEQEND
  0
POLYLINE
  8
LC_OH_2021_05_O7
  70
1
  66
1
  0
VERTEX
  8
LC_OH_2021_05_O7
  10
230996.989
  20
4518691.878
  0
VERTEX
  8
LC_OH_2021_05_O7
  10
232434.000
  20
4518582.000
  0
VERTEX
  8
LC_OH_2021_05_O7
  10
232506.500
  20
4515073.000
  0
VERTEX
  8
LC_OH_2021_05_O7
  10
232341.500
  20
4514954.000
  0
VERTEX
  8
LC_OH_2021_05_O7
  10
231564.500
  20
4514854.000
  0
VERTEX
  8
LC_OH_2021_05_O7
  10
231520.500
  20
4514858.000
  0
VERTEX
  8
LC_OH_2021_05_O7
  10
230860.293
  20
4514932.157
  0
VERTEX
  8
LC_OH_2021_05_O7
  10
230895.260
  20
4515894.234
  0
VERTEX
  8
LC_OH_2021_05_O7
  10
230979.365
  20
4518207.368
  0
SEQEND
  8
LC_OH_2021_05_O7
  0
INSERT
  8
FeatureAttribs
  2
FEATURE
  41
1
  42
1
  43
1
  50
0
  10
236947.942
  20
4516708.499
 66
1
  0
ATTRIB
  8
FeatureAttribs
 70
0
  1
PNOA-H_AMS_1956-57_33k_ES_PAN_21mic_H50_0502_fot_60A-04423_E.tif
  2
NAME
  10
236947.942
  20
4516708.499
 40
34.75186
  0
SEQEND
  0
POLYLINE
  8
LC_OH_2021_05_O7
  70
1
  66
1
  0
VERTEX
  8
LC_OH_2021_05_O7
  10
236655.500
  20
4518608.500
  0
VERTEX
  8
LC_OH_2021_05_O7
  10
238490.000
  20
4518456.500
  0
VERTEX
  8
LC_OH_2021_05_O7
  10
238387.500
  20
4514895.000
  0
VERTEX
  8
LC_OH_2021_05_O7
  10
238153.000
  20
4514728.500
  0
VERTEX
  8
LC_OH_2021_05_O7
  10
238148.500
  20
4514727.000
  0
VERTEX
  8
LC_OH_2021_05_O7
  10
235453.000
  20
4514975.000
  0
VERTEX
  8
LC_OH_2021_05_O7
  10
235459.500
  20
4518538.000
  0
VERTEX
  8
LC_OH_2021_05_O7
  10
235673.500
  20
4518690.000
  0
VERTEX
  8
LC_OH_2021_05_O7
  10
236649.000
  20
4518609.000
  0
VERTEX
  8
LC_OH_2021_05_O7
  10
236655.500
  20
4518608.500
  0
SEQEND
  8
LC_OH_2021_05_O7
  0
INSERT
  8
FeatureAttribs
  2
FEATURE
  41
1
  42
1
  43
1
  50
0
  10
242956.640
  20
4516655.749
 66
1
  0
ATTRIB
  8
FeatureAttribs
 70
0
  1
PNOA-H_AMS_1956-57_33k_ES_PAN_21mic_H50_0502_fot_60A-04425_E.tif
  2
NAME
  10
242956.640
  20
4516655.749
 40
34.75186
  0
SEQEND
  0
POLYLINE
  8
LC_OH_2021_05_O7
  70
1
  66
1
  0
VERTEX
  8
LC_OH_2021_05_O7
  10
244457.500
  20
4516542.500
  0
VERTEX
  8
LC_OH_2021_05_O7
  10
244489.500
  20
4515098.500
  0
VERTEX
  8
LC_OH_2021_05_O7
  10
243697.000
  20
4514707.000
  0
VERTEX
  8
LC_OH_2021_05_O7
  10
242018.500
  20
4514881.500
  0
VERTEX
  8
LC_OH_2021_05_O7
  10
241526.500
  20
4514972.500
  0
VERTEX
  8
LC_OH_2021_05_O7
  10
241389.500
  20
4518347.000
  0
VERTEX
  8
LC_OH_2021_05_O7
  10
241389.500
  20
4518349.500
  0
VERTEX
  8
LC_OH_2021_05_O7
  10
241391.000
  20
4518351.000
  0
VERTEX
  8
LC_OH_2021_05_O7
  10
241708.500
  20
4518591.000
  0
VERTEX
  8
LC_OH_2021_05_O7
  10
241726.500
  20
4518604.500
  0
VERTEX
  8
LC_OH_2021_05_O7
  10
241731.500
  20
4518604.500
  0
VERTEX
  8
LC_OH_2021_05_O7
  10
244417.500
  20
4518345.000
  0
VERTEX
  8
LC_OH_2021_05_O7
  10
244457.500
  20
4516549.500
  0
VERTEX
  8
LC_OH_2021_05_O7
  10
244457.500
  20
4516542.500
  0
SEQEND
  8
LC_OH_2021_05_O7
  0
INSERT
  8
FeatureAttribs
  2
FEATURE
  41
1
  42
1
  43
1
  50
0
  10
233964.232
  20
4516731.499
 66
1
  0
ATTRIB
  8
FeatureAttribs
 70
0
  1
PNOA-H_AMS_1956-57_33k_ES_PAN_21mic_H50_0502_fot_60A-04422_E.tif
  2
NAME
  10
233964.232
  20
4516731.499
 40
34.75186
  0
SEQEND
  0
POLYLINE
  8
LC_OH_2021_05_O7
  70
1
  66
1
  0
VERTEX
  8
LC_OH_2021_05_O7
  10
232559.000
  20
4518667.500
  0
VERTEX
  8
LC_OH_2021_05_O7
  10
232630.000
  20
4518716.000
  0
VERTEX
  8
LC_OH_2021_05_O7
  10
232633.500
  20
4518716.000
  0
VERTEX
  8
LC_OH_2021_05_O7
  10
235459.500
  20
4518538.000
  0
VERTEX
  8
LC_OH_2021_05_O7
  10
235453.000
  20
4514975.000
  0
VERTEX
  8
LC_OH_2021_05_O7
  10
235129.000
  20
4514749.000
  0
VERTEX
  8
LC_OH_2021_05_O7
  10
235080.500
  20
4514747.000
  0
VERTEX
  8
LC_OH_2021_05_O7
  10
232506.500
  20
4515073.500
  0
VERTEX
  8
LC_OH_2021_05_O7
  10
232434.000
  20
4518582.500
  0
VERTEX
  8
LC_OH_2021_05_O7
  10
232558.000
  20
4518667.000
  0
VERTEX
  8
LC_OH_2021_05_O7
  10
232559.000
  20
4518667.500
  0
SEQEND
  8
LC_OH_2021_05_O7
  0
INSERT
  8
FeatureAttribs
  2
FEATURE
  41
1
  42
1
  43
1
  50
0
  10
239948.355
  20
4516630.249
 66
1
  0
ATTRIB
  8
FeatureAttribs
 70
0
  1
PNOA-H_AMS_1956-57_33k_ES_PAN_21mic_H50_0502_fot_60A-04424_E.tif
  2
NAME
  10
239948.355
  20
4516630.249
 40
34.75186
  0
SEQEND
  0
POLYLINE
  8
LC_OH_2021_05_O7
  70
1
  66
1
  0
VERTEX
  8
LC_OH_2021_05_O7
  10
238683.500
  20
4518595.000
  0
VERTEX
  8
LC_OH_2021_05_O7
  10
241389.500
  20
4518349.500
  0
VERTEX
  8
LC_OH_2021_05_O7
  10
241526.500
  20
4514972.500
  0
VERTEX
  8
LC_OH_2021_05_O7
  10
241011.500
  20
4514665.500
  0
VERTEX
  8
LC_OH_2021_05_O7
  10
238387.500
  20
4514895.000
  0
VERTEX
  8
LC_OH_2021_05_O7
  10
238490.000
  20
4518456.500
  0
VERTEX
  8
LC_OH_2021_05_O7
  10
238683.000
  20
4518594.000
  0
VERTEX
  8
LC_OH_2021_05_O7
  10
238683.500
  20
4518595.000
  0
SEQEND
  8
LC_OH_2021_05_O7
  0
INSERT
  8
FeatureAttribs
  2
FEATURE
  41
1
  42
1
  43
1
  50
0
  10
245955.896
  20
4516678.499
 66
1
  0
ATTRIB
  8
FeatureAttribs
 70
0
  1
PNOA-H_AMS_1956-57_33k_ES_PAN_21mic_H50_0502_fot_60A-04426_E.tif
  2
NAME
  10
245955.896
  20
4516678.499
 40
34.75186
  0
SEQEND
  0
POLYLINE
  8
LC_OH_2021_05_O7
  70
1
  66
1
  0
VERTEX
  8
LC_OH_2021_05_O7
  10
244807.000
  20
4518651.000
  0
VERTEX
  8
LC_OH_2021_05_O7
  10
247500.000
  20
4518332.500
  0
VERTEX
  8
LC_OH_2021_05_O7
  10
247417.000
  20
4515115.500
  0
VERTEX
  8
LC_OH_2021_05_O7
  10
246439.000
  20
4514706.000
  0
VERTEX
  8
LC_OH_2021_05_O7
  10
245730.000
  20
4514763.000
  0
VERTEX
  8
LC_OH_2021_05_O7
  10
244489.500
  20
4515098.500
  0
VERTEX
  8
LC_OH_2021_05_O7
  10
244417.500
  20
4518345.000
  0
VERTEX
  8
LC_OH_2021_05_O7
  10
244806.500
  20
4518650.000
  0
VERTEX
  8
LC_OH_2021_05_O7
  10
244807.000
  20
4518651.000
  0
SEQEND
  8
LC_OH_2021_05_O7
  0
INSERT
  8
FeatureAttribs
  2
FEATURE
  41
1
  42
1
  43
1
  50
0
  10
251980.236
  20
4516545.999
 66
1
  0
ATTRIB
  8
FeatureAttribs
 70
0
  1
PNOA-H_AMS_1956-57_33k_ES_PAN_21mic_H50_0502_fot_60A-04428_E.tif
  2
NAME
  10
251980.236
  20
4516545.999
 40
34.75186
  0
SEQEND
  0
POLYLINE
  8
LC_OH_2021_05_O7
  70
1
  66
1
  0
VERTEX
  8
LC_OH_2021_05_O7
  10
253039.500
  20
4518281.000
  0
VERTEX
  8
LC_OH_2021_05_O7
  10
253513.000
  20
4518216.500
  0
VERTEX
  8
LC_OH_2021_05_O7
  10
253442.500
  20
4514958.500
  0
VERTEX
  8
LC_OH_2021_05_O7
  10
251791.000
  20
4514523.000
  0
VERTEX
  8
LC_OH_2021_05_O7
  10
251582.000
  20
4514543.000
  0
VERTEX
  8
LC_OH_2021_05_O7
  10
250434.500
  20
4515042.500
  0
VERTEX
  8
LC_OH_2021_05_O7
  10
250540.000
  20
4518273.500
  0
VERTEX
  8
LC_OH_2021_05_O7
  10
250936.000
  20
4518569.000
  0
VERTEX
  8
LC_OH_2021_05_O7
  10
253035.500
  20
4518281.500
  0
VERTEX
  8
LC_OH_2021_05_O7
  10
253039.500
  20
4518281.000
  0
SEQEND
  8
LC_OH_2021_05_O7
  0
INSERT
  8
FeatureAttribs
  2
FEATURE
  41
1
  42
1
  43
1
  50
0
  10
254946.953
  20
4516509.248
 66
1
  0
ATTRIB
  8
FeatureAttribs
 70
0
  1
PNOA-H_AMS_1956-57_33k_ES_PAN_21mic_H50_0502_fot_60A-04429_E.tif
  2
NAME
  10
254946.953
  20
4516509.248
 40
34.75186
  0
SEQEND
  0
POLYLINE
  8
LC_OH_2021_05_O7
  70
1
  66
1
  0
VERTEX
  8
LC_OH_2021_05_O7
  10
254626.000
  20
4514494.500
  0
VERTEX
  8
LC_OH_2021_05_O7
  10
254426.000
  20
4514454.000
  0
VERTEX
  8
LC_OH_2021_05_O7
  10
253442.500
  20
4514958.500
  0
VERTEX
  8
LC_OH_2021_05_O7
  10
253513.000
  20
4518216.500
  0
VERTEX
  8
LC_OH_2021_05_O7
  10
254012.500
  20
4518564.500
  0
VERTEX
  8
LC_OH_2021_05_O7
  10
256455.000
  20
4518162.500
  0
VERTEX
  8
LC_OH_2021_05_O7
  10
256380.500
  20
4514848.000
  0
VERTEX
  8
LC_OH_2021_05_O7
  10
254628.500
  20
4514494.500
  0
VERTEX
  8
LC_OH_2021_05_O7
  10
254626.000
  20
4514494.500
  0
SEQEND
  8
LC_OH_2021_05_O7
  0
INSERT
  8
FeatureAttribs
  2
FEATURE
  41
1
  42
1
  43
1
  50
0
  10
257875.872
  20
4516479.249
 66
1
  0
ATTRIB
  8
FeatureAttribs
 70
0
  1
PNOA-H_AMS_1956-57_33k_ES_PAN_21mic_H50_0502_fot_60A-04430_E.tif
  2
NAME
  10
257875.872
  20
4516479.249
 40
34.75186
  0
SEQEND
  0
POLYLINE
  8
LC_OH_2021_05_O7
  70
1
  66
1
  0
VERTEX
  8
LC_OH_2021_05_O7
  10
259146.376
  20
4518173.543
  0
VERTEX
  8
LC_OH_2021_05_O7
  10
259115.901
  20
4517237.711
  0
VERTEX
  8
LC_OH_2021_05_O7
  10
259040.610
  20
4514924.682
  0
VERTEX
  8
LC_OH_2021_05_O7
  10
259031.092
  20
4514632.169
  0
VERTEX
  8
LC_OH_2021_05_O7
  10
257228.000
  20
4514372.000
  0
VERTEX
  8
LC_OH_2021_05_O7
  10
256380.500
  20
4514848.000
  0
VERTEX
  8
LC_OH_2021_05_O7
  10
256455.000
  20
4518162.500
  0
VERTEX
  8
LC_OH_2021_05_O7
  10
257114.500
  20
4518585.500
  0
VERTEX
  8
LC_OH_2021_05_O7
  10
257115.000
  20
4518586.500
  0
VERTEX
  8
LC_OH_2021_05_O7
  10
257322.000
  20
4518569.500
  0
SEQEND
  8
LC_OH_2021_05_O7
  0
INSERT
  8
FeatureAttribs
  2
FEATURE
  41
1
  42
1
  43
1
  50
0
  10
248970.275
  20
4516602.249
 66
1
  0
ATTRIB
  8
FeatureAttribs
 70
0
  1
PNOA-H_AMS_1956-57_33k_ES_PAN_21mic_H50_0502_fot_60A-04427_E.tif
  2
NAME
  10
248970.275
  20
4516602.249
 40
34.75186
  0
SEQEND
  0
POLYLINE
  8
LC_OH_2021_05_O7
  70
1
  66
1
  0
VERTEX
  8
LC_OH_2021_05_O7
  10
250483.500
  20
4516542.500
  0
VERTEX
  8
LC_OH_2021_05_O7
  10
250435.000
  20
4515055.500
  0
VERTEX
  8
LC_OH_2021_05_O7
  10
250434.500
  20
4515042.500
  0
VERTEX
  8
LC_OH_2021_05_O7
  10
250433.500
  20
4515042.000
  0
VERTEX
  8
LC_OH_2021_05_O7
  10
249163.500
  20
4514606.000
  0
VERTEX
  8
LC_OH_2021_05_O7
  10
248699.000
  20
4514656.500
  0
VERTEX
  8
LC_OH_2021_05_O7
  10
247417.000
  20
4515115.500
  0
VERTEX
  8
LC_OH_2021_05_O7
  10
247500.000
  20
4518332.500
  0
VERTEX
  8
LC_OH_2021_05_O7
  10
247845.000
  20
4518598.500
  0
VERTEX
  8
LC_OH_2021_05_O7
  10
250540.000
  20
4518273.500
  0
VERTEX
  8
LC_OH_2021_05_O7
  10
250483.500
  20
4516551.000
  0
VERTEX
  8
LC_OH_2021_05_O7
  10
250483.500
  20
4516542.500
  0
SEQEND
  8
LC_OH_2021_05_O7
  0
INSERT
  8
FeatureAttribs
  2
FEATURE
  41
1
  42
1
  43
1
  50
0
  10
257520.521
  20
4521502.500
 66
1
  0
ATTRIB
  8
FeatureAttribs
 70
0
  1
PNOA-H_AMS_1956-57_33k_ES_PAN_21mic_H50_0502_fot_59B-29279_W.tif
  2
NAME
  10
257520.521
  20
4521502.500
 40
34.75186
  0
SEQEND
  0
POLYLINE
  8
LC_OH_2021_05_O7
  70
1
  66
1
  0
VERTEX
  8
LC_OH_2021_05_O7
  10
257715.000
  20
4522972.500
  0
VERTEX
  8
LC_OH_2021_05_O7
  10
257716.000
  20
4522973.000
  0
VERTEX
  8
LC_OH_2021_05_O7
  10
259099.500
  20
4522184.500
  0
VERTEX
  8
LC_OH_2021_05_O7
  10
259088.000
  20
4521857.000
  0
VERTEX
  8
LC_OH_2021_05_O7
  10
256918.500
  20
4520032.000
  0
VERTEX
  8
LC_OH_2021_05_O7
  10
256601.000
  20
4520638.000
  0
VERTEX
  8
LC_OH_2021_05_O7
  10
256201.500
  20
4522162.500
  0
SEQEND
  8
LC_OH_2021_05_O7
  0
INSERT
  8
FeatureAttribs
  2
FEATURE
  41
1
  42
1
  43
1
  50
0
  10
254542.357
  20
4521463.250
 66
1
  0
ATTRIB
  8
FeatureAttribs
 70
0
  1
PNOA-H_AMS_1956-57_33k_ES_PAN_21mic_H50_0502_fot_59B-29280_W.tif
  2
NAME
  10
254542.357
  20
4521463.250
 40
34.75186
  0
SEQEND
  0
POLYLINE
  8
LC_OH_2021_05_O7
  70
1
  66
1
  0
VERTEX
  8
LC_OH_2021_05_O7
  10
254772.500
  20
4520638.500
  0
VERTEX
  8
LC_OH_2021_05_O7
  10
254310.500
  20
4520144.500
  0
VERTEX
  8
LC_OH_2021_05_O7
  10
254018.000
  20
4519942.000
  0
VERTEX
  8
LC_OH_2021_05_O7
  10
254012.000
  20
4519938.000
  0
VERTEX
  8
LC_OH_2021_05_O7
  10
254011.000
  20
4519938.500
  0
VERTEX
  8
LC_OH_2021_05_O7
  10
253796.000
  20
4520359.500
  0
VERTEX
  8
LC_OH_2021_05_O7
  10
253383.000
  20
4522132.500
  0
VERTEX
  8
LC_OH_2021_05_O7
  10
253383.500
  20
4522134.500
  0
VERTEX
  8
LC_OH_2021_05_O7
  10
254752.000
  20
4522988.500
  0
VERTEX
  8
LC_OH_2021_05_O7
  10
256201.000
  20
4522162.500
  0
VERTEX
  8
LC_OH_2021_05_O7
  10
254773.500
  20
4520639.000
  0
VERTEX
  8
LC_OH_2021_05_O7
  10
254772.500
  20
4520638.500
  0
SEQEND
  8
LC_OH_2021_05_O7
  0
INSERT
  8
FeatureAttribs
  2
FEATURE
  41
1
  42
1
  43
1
  50
0
  10
251615.985
  20
4521552.750
 66
1
  0
ATTRIB
  8
FeatureAttribs
 70
0
  1
PNOA-H_AMS_1956-57_33k_ES_PAN_21mic_H50_0502_fot_000-29281_R.tif
  2
NAME
  10
251615.985
  20
4521552.750
 40
34.75186
  0
SEQEND
  0
POLYLINE
  8
LC_OH_2021_05_O7
  70
1
  66
1
  0
VERTEX
  8
LC_OH_2021_05_O7
  10
251825.000
  20
4520638.500
  0
VERTEX
  8
LC_OH_2021_05_O7
  10
251727.500
  20
4520526.000
  0
VERTEX
  8
LC_OH_2021_05_O7
  10
250940.000
  20
4520133.500
  0
VERTEX
  8
LC_OH_2021_05_O7
  10
250933.500
  20
4520130.500
  0
VERTEX
  8
LC_OH_2021_05_O7
  10
250932.500
  20
4520131.000
  0
VERTEX
  8
LC_OH_2021_05_O7
  10
250910.500
  20
4520175.500
  0
VERTEX
  8
LC_OH_2021_05_O7
  10
250909.500
  20
4520180.000
  0
VERTEX
  8
LC_OH_2021_05_O7
  10
250504.000
  20
4522059.500
  0
VERTEX
  8
LC_OH_2021_05_O7
  10
250505.500
  20
4522062.500
  0
VERTEX
  8
LC_OH_2021_05_O7
  10
251795.000
  20
4522975.000
  0
VERTEX
  8
LC_OH_2021_05_O7
  10
251821.000
  20
4522961.000
  0
VERTEX
  8
LC_OH_2021_05_O7
  10
253167.500
  20
4522185.500
  0
VERTEX
  8
LC_OH_2021_05_O7
  10
251826.000
  20
4520639.000
  0
VERTEX
  8
LC_OH_2021_05_O7
  10
251825.000
  20
4520638.500
  0
SEQEND
  8
LC_OH_2021_05_O7
  0
INSERT
  8
FeatureAttribs
  2
FEATURE
  41
1
  42
1
  43
1
  50
0
  10
259183.901
  20
4521820.436
 66
1
  0
ATTRIB
  8
FeatureAttribs
 70
0
  1
PNOA-H_AMS_1956-57_33k_ES_PAN_21mic_H50_0503_fot_59B-29278_W.tif
  2
NAME
  10
259183.901
  20
4521820.436
 40
34.75186
  0
SEQEND
  0
POLYLINE
  8
LC_OH_2021_05_O7
  70
1
  66
1
  0
VERTEX
  8
LC_OH_2021_05_O7
  10
259279.803
  20
4522269.502
  0
VERTEX
  8
LC_OH_2021_05_O7
  10
259266.580
  20
4521863.788
  0
VERTEX
  8
LC_OH_2021_05_O7
  10
259250.537
  20
4521371.369
  0
VERTEX
  8
LC_OH_2021_05_O7
  10
259176.500
  20
4521521.500
  0
VERTEX
  8
LC_OH_2021_05_O7
  10
259088.000
  20
4521856.000
  0
VERTEX
  8
LC_OH_2021_05_O7
  10
259100.000
  20
4522184.000
  0
SEQEND
  8
LC_OH_2021_05_O7
  0
INSERT
  8
FeatureAttribs
  2
FEATURE
  41
1
  42
1
  43
1
  50
0
  10
231087.562
  20
4508716.499
 66
1
  0
ATTRIB
  8
FeatureAttribs
 70
0
  1
PNOA-H_AMS_1956-57_33k_ES_PAN_21mic_H50_0503_fot_62C-05344_E.tif
  2
NAME
  10
231087.562
  20
4508716.499
 40
34.75186
  0
SEQEND
  0
POLYLINE
  8
LC_OH_2021_05_O7
  70
1
  66
1
  0
VERTEX
  8
LC_OH_2021_05_O7
  10
231819.468
  20
4506596.317
  0
VERTEX
  8
LC_OH_2021_05_O7
  10
230559.194
  20
4506641.754
  0
VERTEX
  8
LC_OH_2021_05_O7
  10
230643.157
  20
4508954.865
  0
VERTEX
  8
LC_OH_2021_05_O7
  10
230720.190
  20
4511076.164
  0
VERTEX
  8
LC_OH_2021_05_O7
  10
231877.000
  20
4510900.500
  0
SEQEND
  8
LC_OH_2021_05_O7
  0
INSERT
  8
FeatureAttribs
  2
FEATURE
  41
1
  42
1
  43
1
  50
0
  10
234032.791
  20
4508576.999
 66
1
  0
ATTRIB
  8
FeatureAttribs
 70
0
  1
PNOA-H_AMS_1956-57_33k_ES_PAN_21mic_H50_0503_fot_62C-05345_E.tif
  2
NAME
  10
234032.791
  20
4508576.999
 40
34.75186
  0
SEQEND
  0
POLYLINE
  8
LC_OH_2021_05_O7
  70
1
  66
1
  0
VERTEX
  8
LC_OH_2021_05_O7
  10
233110.503
  20
4506549.771
  0
VERTEX
  8
LC_OH_2021_05_O7
  10
232540.264
  20
4506570.330
  0
VERTEX
  8
LC_OH_2021_05_O7
  10
233976.500
  20
4510700.000
  0
VERTEX
  8
LC_OH_2021_05_O7
  10
234662.000
  20
4510646.500
  0
VERTEX
  8
LC_OH_2021_05_O7
  10
234845.000
  20
4508357.000
  0
VERTEX
  8
LC_OH_2021_05_O7
  10
234845.500
  20
4508350.500
  0
VERTEX
  8
LC_OH_2021_05_O7
  10
234945.500
  20
4507090.500
  0
SEQEND
  8
LC_OH_2021_05_O7
  0
INSERT
  8
FeatureAttribs
  2
FEATURE
  41
1
  42
1
  43
1
  50
0
  10
231237.519
  20
4524544.656
 66
1
  0
ATTRIB
  8
FeatureAttribs
 70
0
  1
PNOA-H_AMS_1956-57_33k_ES_PAN_21mic_H50_0501_fot_000-36794_R.tif
  2
NAME
  10
231237.519
  20
4524544.656
 40
34.75186
  0
SEQEND
  0
POLYLINE
  8
LC_OH_2021_05_O7
  70
1
  66
1
  0
VERTEX
  8
LC_OH_2021_05_O7
  10
231223.911
  20
4524927.470
  0
VERTEX
  8
LC_OH_2021_05_O7
  10
231279.000
  20
4524811.500
  0
VERTEX
  8
LC_OH_2021_05_O7
  10
231196.037
  20
4524161.841
  0
SEQEND
  8
LC_OH_2021_05_O7
  0
INSERT
  8
FeatureAttribs
  2
FEATURE
  41
1
  42
1
  43
1
  50
0
  10
259117.347
  20
4523344.999
 66
1
  0
ATTRIB
  8
FeatureAttribs
 70
0
  1
PNOA-H_AMS_1956-57_33k_ES_PAN_21mic_H50_0502_fot_000-36784_R.tif
  2
NAME
  10
259117.347
  20
4523344.999
 40
34.75186
  0
SEQEND
  0
POLYLINE
  8
LC_OH_2021_05_O7
  70
1
  66
1
  0
VERTEX
  8
LC_OH_2021_05_O7
  10
259279.807
  20
4522269.639
  0
VERTEX
  8
LC_OH_2021_05_O7
  10
259099.500
  20
4522184.000
  0
VERTEX
  8
LC_OH_2021_05_O7
  10
257717.000
  20
4522972.500
  0
VERTEX
  8
LC_OH_2021_05_O7
  10
257705.000
  20
4523313.500
  0
VERTEX
  8
LC_OH_2021_05_O7
  10
258141.043
  20
4524216.272
  0
VERTEX
  8
LC_OH_2021_05_O7
  10
259341.967
  20
4524176.836
  0
SEQEND
  8
LC_OH_2021_05_O7
  0
INSERT
  8
FeatureAttribs
  2
FEATURE
  41
1
  42
1
  43
1
  50
0
  10
256210.292
  20
4523336.250
 66
1
  0
ATTRIB
  8
FeatureAttribs
 70
0
  1
PNOA-H_AMS_1956-57_33k_ES_PAN_21mic_H50_0502_fot_000-36785_R.tif
  2
NAME
  10
256210.292
  20
4523336.250
 40
34.75186
  0
SEQEND
  0
POLYLINE
  8
LC_OH_2021_05_O7
  70
1
  66
1
  0
VERTEX
  8
LC_OH_2021_05_O7
  10
256839.003
  20
4524259.027
  0
VERTEX
  8
LC_OH_2021_05_O7
  10
257705.000
  20
4523312.500
  0
VERTEX
  8
LC_OH_2021_05_O7
  10
257716.500
  20
4522973.000
  0
VERTEX
  8
LC_OH_2021_05_O7
  10
257181.500
  20
4522686.500
  0
VERTEX
  8
LC_OH_2021_05_O7
  10
257180.500
  20
4522686.500
  0
VERTEX
  8
LC_OH_2021_05_O7
  10
256217.500
  20
4522170.500
  0
VERTEX
  8
LC_OH_2021_05_O7
  10
256202.500
  20
4522162.500
  0
VERTEX
  8
LC_OH_2021_05_O7
  10
256200.500
  20
4522162.500
  0
VERTEX
  8
LC_OH_2021_05_O7
  10
254752.500
  20
4522988.500
  0
VERTEX
  8
LC_OH_2021_05_O7
  10
254733.500
  20
4523423.500
  0
VERTEX
  8
LC_OH_2021_05_O7
  10
255307.118
  20
4524309.578
  0
VERTEX
  8
LC_OH_2021_05_O7
  10
255828.276
  20
4524292.217
  0
SEQEND
  8
LC_OH_2021_05_O7
  0
INSERT
  8
FeatureAttribs
  2
FEATURE
  41
1
  42
1
  43
1
  50
0
  10
253258.676
  20
4523322.000
 66
1
  0
ATTRIB
  8
FeatureAttribs
 70
0
  1
PNOA-H_AMS_1956-57_33k_ES_PAN_21mic_H50_0502_fot_000-36786_R.tif
  2
NAME
  10
253258.676
  20
4523322.000
 40
34.75186
  0
SEQEND
  0
POLYLINE
  8
LC_OH_2021_05_O7
  70
1
  66
1
  0
VERTEX
  8
LC_OH_2021_05_O7
  10
253854.595
  20
4524357.968
  0
VERTEX
  8
LC_OH_2021_05_O7
  10
254733.500
  20
4523423.500
  0
VERTEX
  8
LC_OH_2021_05_O7
  10
254752.500
  20
4522988.500
  0
VERTEX
  8
LC_OH_2021_05_O7
  10
254270.000
  20
4522687.000
  0
VERTEX
  8
LC_OH_2021_05_O7
  10
254268.500
  20
4522686.500
  0
VERTEX
  8
LC_OH_2021_05_O7
  10
253385.500
  20
4522135.000
  0
VERTEX
  8
LC_OH_2021_05_O7
  10
253381.000
  20
4522134.000
  0
VERTEX
  8
LC_OH_2021_05_O7
  10
253167.000
  20
4522185.500
  0
VERTEX
  8
LC_OH_2021_05_O7
  10
251795.500
  20
4522975.000
  0
VERTEX
  8
LC_OH_2021_05_O7
  10
251765.000
  20
4523633.000
  0
VERTEX
  8
LC_OH_2021_05_O7
  10
252435.073
  20
4524405.258
  0
SEQEND
  8
LC_OH_2021_05_O7
  0
INSERT
  8
FeatureAttribs
  2
FEATURE
  41
1
  42
1
  43
1
  50
0
  10
250297.501
  20
4523353.249
 66
1
  0
ATTRIB
  8
FeatureAttribs
 70
0
  1
PNOA-H_AMS_1956-57_33k_ES_PAN_21mic_H50_0502_fot_000-36787_R.tif
  2
NAME
  10
250297.501
  20
4523353.249
 40
34.75186
  0
SEQEND
  0
POLYLINE
  8
LC_OH_2021_05_O7
  70
1
  66
1
  0
VERTEX
  8
LC_OH_2021_05_O7
  10
250689.722
  20
4524464.177
  0
VERTEX
  8
LC_OH_2021_05_O7
  10
250879.000
  20
4524423.500
  0
VERTEX
  8
LC_OH_2021_05_O7
  10
250881.500
  20
4524422.500
  0
VERTEX
  8
LC_OH_2021_05_O7
  10
250991.000
  20
4524324.500
  0
VERTEX
  8
LC_OH_2021_05_O7
  10
250991.500
  20
4524323.500
  0
VERTEX
  8
LC_OH_2021_05_O7
  10
251765.000
  20
4523633.000
  0
VERTEX
  8
LC_OH_2021_05_O7
  10
251795.500
  20
4522985.000
  0
VERTEX
  8
LC_OH_2021_05_O7
  10
251795.500
  20
4522975.000
  0
VERTEX
  8
LC_OH_2021_05_O7
  10
251794.500
  20
4522974.000
  0
VERTEX
  8
LC_OH_2021_05_O7
  10
250504.500
  20
4522061.000
  0
VERTEX
  8
LC_OH_2021_05_O7
  10
248850.000
  20
4522512.500
  0
VERTEX
  8
LC_OH_2021_05_O7
  10
248798.500
  20
4523818.500
  0
VERTEX
  8
LC_OH_2021_05_O7
  10
248798.500
  20
4523823.500
  0
VERTEX
  8
LC_OH_2021_05_O7
  10
248800.500
  20
4523825.500
  0
VERTEX
  8
LC_OH_2021_05_O7
  10
249659.211
  20
4524498.999
  0
SEQEND
  8
LC_OH_2021_05_O7
  0
INSERT
  8
FeatureAttribs
  2
FEATURE
  41
1
  42
1
  43
1
  50
0
  10
247354.660
  20
4523173.500
 66
1
  0
ATTRIB
  8
FeatureAttribs
 70
0
  1
PNOA-H_AMS_1956-57_33k_ES_PAN_21mic_H50_0502_fot_000-36788_R.tif
  2
NAME
  10
247354.660
  20
4523173.500
 40
34.75186
  0
SEQEND
  0
POLYLINE
  8
LC_OH_2021_05_O7
  70
1
  66
1
  0
VERTEX
  8
LC_OH_2021_05_O7
  10
246875.000
  20
4524582.500
  0
VERTEX
  8
LC_OH_2021_05_O7
  10
246875.500
  20
4524583.500
  0
VERTEX
  8
LC_OH_2021_05_O7
  10
248133.000
  20
4524394.000
  0
VERTEX
  8
LC_OH_2021_05_O7
  10
248798.500
  20
4523824.000
  0
VERTEX
  8
LC_OH_2021_05_O7
  10
248850.000
  20
4522512.000
  0
VERTEX
  8
LC_OH_2021_05_O7
  10
247968.500
  20
4521763.500
  0
VERTEX
  8
LC_OH_2021_05_O7
  10
245887.500
  20
4522516.000
  0
VERTEX
  8
LC_OH_2021_05_O7
  10
245882.500
  20
4524004.000
  0
SEQEND
  8
LC_OH_2021_05_O7
  0
INSERT
  8
FeatureAttribs
  2
FEATURE
  41
1
  42
1
  43
1
  50
0
  10
247515.344
  20
4524493.981
 66
1
  0
ATTRIB
  8
FeatureAttribs
 70
0
  1
PNOA-H_AMS_1956-57_33k_ES_PAN_21mic_H50_0502_fot_000-39640_R.tif
  2
NAME
  10
247515.344
  20
4524493.981
 40
34.75186
  0
SEQEND
  0
POLYLINE
  8
LC_OH_2021_05_O7
  70
1
  66
1
  0
VERTEX
  8
LC_OH_2021_05_O7
  10
248154.688
  20
4524550.146
  0
VERTEX
  8
LC_OH_2021_05_O7
  10
248132.500
  20
4524394.000
  0
VERTEX
  8
LC_OH_2021_05_O7
  10
246876.000
  20
4524583.500
  0
VERTEX
  8
LC_OH_2021_05_O7
  10
246876.056
  20
4524593.962
  0
SEQEND
  8
LC_OH_2021_05_O7
  0
INSERT
  8
FeatureAttribs
  2
FEATURE
  41
1
  42
1
  43
1
  50
0
  10
240650.534
  20
4521503.000
 66
1
  0
ATTRIB
  8
FeatureAttribs
 70
0
  1
PNOA-H_AMS_1956-57_33k_ES_PAN_21mic_H50_0502_fot_000-42170_R.tif
  2
NAME
  10
240650.534
  20
4521503.000
 40
34.75186
  0
SEQEND
  0
POLYLINE
  8
LC_OH_2021_05_O7
  70
1
  66
1
  0
VERTEX
  8
LC_OH_2021_05_O7
  10
241905.500
  20
4520638.500
  0
VERTEX
  8
LC_OH_2021_05_O7
  10
241791.500
  20
4520267.500
  0
VERTEX
  8
LC_OH_2021_05_O7
  10
241790.000
  20
4520263.000
  0
VERTEX
  8
LC_OH_2021_05_O7
  10
241788.500
  20
4520263.000
  0
VERTEX
  8
LC_OH_2021_05_O7
  10
239270.000
  20
4521003.500
  0
VERTEX
  8
LC_OH_2021_05_O7
  10
239413.500
  20
4522363.000
  0
VERTEX
  8
LC_OH_2021_05_O7
  10
239414.500
  20
4522366.000
  0
VERTEX
  8
LC_OH_2021_05_O7
  10
239467.000
  20
4522401.000
  0
VERTEX
  8
LC_OH_2021_05_O7
  10
239982.000
  20
4522743.000
  0
VERTEX
  8
LC_OH_2021_05_O7
  10
239984.000
  20
4522743.000
  0
VERTEX
  8
LC_OH_2021_05_O7
  10
241996.000
  20
4521939.000
  0
VERTEX
  8
LC_OH_2021_05_O7
  10
241949.000
  20
4520778.500
  0
VERTEX
  8
LC_OH_2021_05_O7
  10
241906.000
  20
4520641.000
  0
VERTEX
  8
LC_OH_2021_05_O7
  10
241905.500
  20
4520638.500
  0
SEQEND
  8
LC_OH_2021_05_O7
  0
INSERT
  8
FeatureAttribs
  2
FEATURE
  41
1
  42
1
  43
1
  50
0
  10
250790.663
  20
4524443.600
 66
1
  0
ATTRIB
  8
FeatureAttribs
 70
0
  1
PNOA-H_AMS_1956-57_33k_ES_PAN_21mic_H50_0502_fot_000-39641_R.tif
  2
NAME
  10
250790.663
  20
4524443.600
 40
34.75186
  0
SEQEND
  0
POLYLINE
  8
LC_OH_2021_05_O7
  70
1
  66
1
  0
VERTEX
  8
LC_OH_2021_05_O7
  10
250892.293
  20
4524457.332
  0
VERTEX
  8
LC_OH_2021_05_O7
  10
250880.500
  20
4524423.000
  0
VERTEX
  8
LC_OH_2021_05_O7
  10
250689.033
  20
4524464.201
  0
SEQEND
  8
LC_OH_2021_05_O7
  0
INSERT
  8
FeatureAttribs
  2
FEATURE
  41
1
  42
1
  43
1
  50
0
  10
241515.404
  20
4523469.251
 66
1
  0
ATTRIB
  8
FeatureAttribs
 70
0
  1
PNOA-H_AMS_1956-57_33k_ES_PAN_21mic_H50_0502_fot_000-36790_R.tif
  2
NAME
  10
241515.404
  20
4523469.251
 40
34.75186
  0
SEQEND
  0
POLYLINE
  8
LC_OH_2021_05_O7
  70
1
  66
1
  0
VERTEX
  8
LC_OH_2021_05_O7
  10
242248.173
  20
4524753.997
  0
VERTEX
  8
LC_OH_2021_05_O7
  10
242799.000
  20
4524297.500
  0
VERTEX
  8
LC_OH_2021_05_O7
  10
242799.500
  20
4524296.500
  0
VERTEX
  8
LC_OH_2021_05_O7
  10
243016.000
  20
4524117.500
  0
VERTEX
  8
LC_OH_2021_05_O7
  10
242935.000
  20
4522597.000
  0
VERTEX
  8
LC_OH_2021_05_O7
  10
241996.500
  20
4521938.500
  0
VERTEX
  8
LC_OH_2021_05_O7
  10
239983.000
  20
4522743.000
  0
VERTEX
  8
LC_OH_2021_05_O7
  10
240123.500
  20
4524281.500
  0
VERTEX
  8
LC_OH_2021_05_O7
  10
241185.552
  20
4524791.198
  0
VERTEX
  8
LC_OH_2021_05_O7
  10
241773.321
  20
4524770.496
  0
SEQEND
  8
LC_OH_2021_05_O7
  0
INSERT
  8
FeatureAttribs
  2
FEATURE
  41
1
  42
1
  43
1
  50
0
  10
246439.375
  20
4521464.250
 66
1
  0
ATTRIB
  8
FeatureAttribs
 70
0
  1
PNOA-H_AMS_1956-57_33k_ES_PAN_21mic_H50_0502_fot_000-42172_R.tif
  2
NAME
  10
246439.375
  20
4521464.250
 40
34.75186
  0
SEQEND
  0
POLYLINE
  8
LC_OH_2021_05_O7
  70
1
  66
1
  0
VERTEX
  8
LC_OH_2021_05_O7
  10
245887.000
  20
4522516.000
  0
VERTEX
  8
LC_OH_2021_05_O7
  10
247969.000
  20
4521763.500
  0
VERTEX
  8
LC_OH_2021_05_O7
  10
247966.500
  20
4520825.500
  0
VERTEX
  8
LC_OH_2021_05_O7
  10
247866.500
  20
4520413.500
  0
VERTEX
  8
LC_OH_2021_05_O7
  10
247865.000
  20
4520412.500
  0
VERTEX
  8
LC_OH_2021_05_O7
  10
244892.500
  20
4520617.500
  0
VERTEX
  8
LC_OH_2021_05_O7
  10
244917.500
  20
4521790.000
  0
VERTEX
  8
LC_OH_2021_05_O7
  10
245886.500
  20
4522515.000
  0
VERTEX
  8
LC_OH_2021_05_O7
  10
245887.000
  20
4522516.000
  0
SEQEND
  8
LC_OH_2021_05_O7
  0
INSERT
  8
FeatureAttribs
  2
FEATURE
  41
1
  42
1
  43
1
  50
0
  10
244430.992
  20
4523395.251
 66
1
  0
ATTRIB
  8
FeatureAttribs
 70
0
  1
PNOA-H_AMS_1956-57_33k_ES_PAN_21mic_H50_0502_fot_000-36789_R.tif
  2
NAME
  10
244430.992
  20
4523395.251
 40
34.75186
  0
SEQEND
  0
POLYLINE
  8
LC_OH_2021_05_O7
  70
1
  66
1
  0
VERTEX
  8
LC_OH_2021_05_O7
  10
245083.585
  20
4524655.483
  0
VERTEX
  8
LC_OH_2021_05_O7
  10
245882.500
  20
4524004.000
  0
VERTEX
  8
LC_OH_2021_05_O7
  10
245887.500
  20
4522516.000
  0
VERTEX
  8
LC_OH_2021_05_O7
  10
244932.000
  20
4521800.500
  0
VERTEX
  8
LC_OH_2021_05_O7
  10
244918.500
  20
4521790.500
  0
VERTEX
  8
LC_OH_2021_05_O7
  10
244916.500
  20
4521790.500
  0
VERTEX
  8
LC_OH_2021_05_O7
  10
242936.000
  20
4522596.500
  0
VERTEX
  8
LC_OH_2021_05_O7
  10
242935.000
  20
4522597.000
  0
VERTEX
  8
LC_OH_2021_05_O7
  10
242935.000
  20
4522601.500
  0
VERTEX
  8
LC_OH_2021_05_O7
  10
243016.000
  20
4524117.000
  0
VERTEX
  8
LC_OH_2021_05_O7
  10
244067.108
  20
4524690.800
  0
SEQEND
  8
LC_OH_2021_05_O7
  0
INSERT
  8
FeatureAttribs
  2
FEATURE
  41
1
  42
1
  43
1
  50
0
  10
232644.259
  20
4523800.001
 66
1
  0
ATTRIB
  8
FeatureAttribs
 70
0
  1
PNOA-H_AMS_1956-57_33k_ES_PAN_21mic_H50_0502_fot_000-36793_R.tif
  2
NAME
  10
232644.259
  20
4523800.001
 40
34.75186
  0
SEQEND
  0
POLYLINE
  8
LC_OH_2021_05_O7
  70
1
  66
1
  0
VERTEX
  8
LC_OH_2021_05_O7
  10
234003.368
  20
4525046.548
  0
VERTEX
  8
LC_OH_2021_05_O7
  10
234249.500
  20
4524657.000
  0
VERTEX
  8
LC_OH_2021_05_O7
  10
234005.500
  20
4522770.500
  0
VERTEX
  8
LC_OH_2021_05_O7
  10
234003.500
  20
4522762.000
  0
VERTEX
  8
LC_OH_2021_05_O7
  10
232853.000
  20
4522350.000
  0
VERTEX
  8
LC_OH_2021_05_O7
  10
231153.431
  20
4522991.525
  0
VERTEX
  8
LC_OH_2021_05_O7
  10
231196.021
  20
4524161.397
  0
VERTEX
  8
LC_OH_2021_05_O7
  10
231279.000
  20
4524811.000
  0
VERTEX
  8
LC_OH_2021_05_O7
  10
231923.836
  20
4525121.775
  0
SEQEND
  8
LC_OH_2021_05_O7
  0
INSERT
  8
FeatureAttribs
  2
FEATURE
  41
1
  42
1
  43
1
  50
0
  10
243443.854
  20
4521461.750
 66
1
  0
ATTRIB
  8
FeatureAttribs
 70
0
  1
PNOA-H_AMS_1956-57_33k_ES_PAN_21mic_H50_0502_fot_000-42171_R.tif
  2
NAME
  10
243443.854
  20
4521461.750
 40
34.75186
  0
SEQEND
  0
POLYLINE
  8
LC_OH_2021_05_O7
  70
1
  66
1
  0
VERTEX
  8
LC_OH_2021_05_O7
  10
244893.000
  20
4520638.500
  0
VERTEX
  8
LC_OH_2021_05_O7
  10
244892.500
  20
4520616.500
  0
VERTEX
  8
LC_OH_2021_05_O7
  10
244818.000
  20
4520329.500
  0
VERTEX
  8
LC_OH_2021_05_O7
  10
244817.000
  20
4520326.500
  0
VERTEX
  8
LC_OH_2021_05_O7
  10
244814.500
  20
4520326.500
  0
VERTEX
  8
LC_OH_2021_05_O7
  10
241949.000
  20
4520778.500
  0
VERTEX
  8
LC_OH_2021_05_O7
  10
241996.500
  20
4521939.000
  0
VERTEX
  8
LC_OH_2021_05_O7
  10
242927.000
  20
4522592.000
  0
VERTEX
  8
LC_OH_2021_05_O7
  10
242933.500
  20
4522596.500
  0
VERTEX
  8
LC_OH_2021_05_O7
  10
242936.000
  20
4522597.000
  0
VERTEX
  8
LC_OH_2021_05_O7
  10
244918.000
  20
4521790.500
  0
VERTEX
  8
LC_OH_2021_05_O7
  10
244893.000
  20
4520656.500
  0
VERTEX
  8
LC_OH_2021_05_O7
  10
244893.000
  20
4520638.500
  0
SEQEND
  8
LC_OH_2021_05_O7
  0
INSERT
  8
FeatureAttribs
  2
FEATURE
  41
1
  42
1
  43
1
  50
0
  10
238588.735
  20
4523686.221
 66
1
  0
ATTRIB
  8
FeatureAttribs
 70
0
  1
PNOA-H_AMS_1956-57_33k_ES_PAN_21mic_H50_0502_fot_000-36791_R.tif
  2
NAME
  10
238588.735
  20
4523686.221
 40
34.75186
  0
SEQEND
  0
POLYLINE
  8
LC_OH_2021_05_O7
  70
1
  66
1
  0
VERTEX
  8
LC_OH_2021_05_O7
  10
239538.715
  20
4524849.202
  0
VERTEX
  8
LC_OH_2021_05_O7
  10
240123.000
  20
4524281.500
  0
VERTEX
  8
LC_OH_2021_05_O7
  10
239983.000
  20
4522743.000
  0
VERTEX
  8
LC_OH_2021_05_O7
  10
239414.500
  20
4522365.500
  0
VERTEX
  8
LC_OH_2021_05_O7
  10
237006.500
  20
4522877.000
  0
VERTEX
  8
LC_OH_2021_05_O7
  10
237213.500
  20
4524517.000
  0
VERTEX
  8
LC_OH_2021_05_O7
  10
238108.892
  20
4524899.634
  0
VERTEX
  8
LC_OH_2021_05_O7
  10
238259.533
  20
4524894.256
  0
SEQEND
  8
LC_OH_2021_05_O7
  0
INSERT
  8
FeatureAttribs
  2
FEATURE
  41
1
  42
1
  43
1
  50
0
  10
252979.379
  20
4521271.750
 66
1
  0
ATTRIB
  8
FeatureAttribs
 70
0
  1
PNOA-H_AMS_1956-57_33k_ES_PAN_21mic_H50_0502_fot_000-42174_R.tif
  2
NAME
  10
252979.379
  20
4521271.750
 40
34.75186
  0
SEQEND
  0
POLYLINE
  8
LC_OH_2021_05_O7
  70
1
  66
1
  0
VERTEX
  8
LC_OH_2021_05_O7
  10
253039.000
  20
4522037.500
  0
VERTEX
  8
LC_OH_2021_05_O7
  10
253167.500
  20
4522185.500
  0
VERTEX
  8
LC_OH_2021_05_O7
  10
253383.000
  20
4522134.000
  0
VERTEX
  8
LC_OH_2021_05_O7
  10
253796.500
  20
4520358.000
  0
VERTEX
  8
LC_OH_2021_05_O7
  10
251728.000
  20
4520526.500
  0
VERTEX
  8
LC_OH_2021_05_O7
  10
253038.500
  20
4522036.000
  0
VERTEX
  8
LC_OH_2021_05_O7
  10
253039.000
  20
4522037.500
  0
SEQEND
  8
LC_OH_2021_05_O7
  0
INSERT
  8
FeatureAttribs
  2
FEATURE
  41
1
  42
1
  43
1
  50
0
  10
255860.826
  20
4521153.750
 66
1
  0
ATTRIB
  8
FeatureAttribs
 70
0
  1
PNOA-H_AMS_1956-57_33k_ES_PAN_21mic_H50_0502_fot_000-42175_R.tif
  2
NAME
  10
255860.826
  20
4521153.750
 40
34.75186
  0
SEQEND
  0
POLYLINE
  8
LC_OH_2021_05_O7
  70
1
  66
1
  0
VERTEX
  8
LC_OH_2021_05_O7
  10
255087.000
  20
4520974.000
  0
VERTEX
  8
LC_OH_2021_05_O7
  10
256201.500
  20
4522162.500
  0
VERTEX
  8
LC_OH_2021_05_O7
  10
256601.500
  20
4520637.500
  0
VERTEX
  8
LC_OH_2021_05_O7
  10
254311.000
  20
4520145.000
  0
VERTEX
  8
LC_OH_2021_05_O7
  10
255086.500
  20
4520973.000
  0
VERTEX
  8
LC_OH_2021_05_O7
  10
255087.000
  20
4520974.000
  0
SEQEND
  8
LC_OH_2021_05_O7
  0
INSERT
  8
FeatureAttribs
  2
FEATURE
  41
1
  42
1
  43
1
  50
0
  10
249313.229
  20
4521344.250
 66
1
  0
ATTRIB
  8
FeatureAttribs
 70
0
  1
PNOA-H_AMS_1956-57_33k_ES_PAN_21mic_H50_0502_fot_000-42173_R.tif
  2
NAME
  10
249313.229
  20
4521344.250
 40
34.75186
  0
SEQEND
  0
POLYLINE
  8
LC_OH_2021_05_O7
  70
1
  66
1
  0
VERTEX
  8
LC_OH_2021_05_O7
  10
248850.000
  20
4522512.500
  0
VERTEX
  8
LC_OH_2021_05_O7
  10
250504.000
  20
4522061.000
  0
VERTEX
  8
LC_OH_2021_05_O7
  10
250910.500
  20
4520176.000
  0
VERTEX
  8
LC_OH_2021_05_O7
  10
247966.500
  20
4520826.500
  0
VERTEX
  8
LC_OH_2021_05_O7
  10
247969.000
  20
4521763.500
  0
VERTEX
  8
LC_OH_2021_05_O7
  10
248849.000
  20
4522512.000
  0
VERTEX
  8
LC_OH_2021_05_O7
  10
248850.000
  20
4522512.500
  0
SEQEND
  8
LC_OH_2021_05_O7
  0
INSERT
  8
FeatureAttribs
  2
FEATURE
  41
1
  42
1
  43
1
  50
0
  10
238226.693
  20
4521353.499
 66
1
  0
ATTRIB
  8
FeatureAttribs
 70
0
  1
PNOA-H_AMS_1956-57_33k_ES_PAN_21mic_H50_0502_fot_000-42169_R.tif
  2
NAME
  10
238226.693
  20
4521353.499
 40
34.75186
  0
SEQEND
  0
POLYLINE
  8
LC_OH_2021_05_O7
  70
1
  66
1
  0
VERTEX
  8
LC_OH_2021_05_O7
  10
239103.500
  20
4520638.500
  0
VERTEX
  8
LC_OH_2021_05_O7
  10
238736.000
  20
4519830.000
  0
VERTEX
  8
LC_OH_2021_05_O7
  10
236224.000
  20
4522237.500
  0
VERTEX
  8
LC_OH_2021_05_O7
  10
236220.500
  20
4522242.000
  0
VERTEX
  8
LC_OH_2021_05_O7
  10
237006.000
  20
4522877.000
  0
VERTEX
  8
LC_OH_2021_05_O7
  10
239414.000
  20
4522365.500
  0
VERTEX
  8
LC_OH_2021_05_O7
  10
239270.000
  20
4521003.500
  0
VERTEX
  8
LC_OH_2021_05_O7
  10
239104.000
  20
4520639.500
  0
VERTEX
  8
LC_OH_2021_05_O7
  10
239103.500
  20
4520638.500
  0
SEQEND
  8
LC_OH_2021_05_O7
  0
INSERT
  8
FeatureAttribs
  2
FEATURE
  41
1
  42
1
  43
1
  50
0
  10
235612.413
  20
4523656.750
 66
1
  0
ATTRIB
  8
FeatureAttribs
 70
0
  1
PNOA-H_AMS_1956-57_33k_ES_PAN_21mic_H50_0502_fot_000-36792_R.tif
  2
NAME
  10
235612.413
  20
4523656.750
 40
34.75186
  0
SEQEND
  0
POLYLINE
  8
LC_OH_2021_05_O7
  70
1
  66
1
  0
VERTEX
  8
LC_OH_2021_05_O7
  10
236851.118
  20
4524944.534
  0
VERTEX
  8
LC_OH_2021_05_O7
  10
237213.500
  20
4524517.000
  0
VERTEX
  8
LC_OH_2021_05_O7
  10
237006.500
  20
4522877.000
  0
VERTEX
  8
LC_OH_2021_05_O7
  10
236220.000
  20
4522241.000
  0
VERTEX
  8
LC_OH_2021_05_O7
  10
235780.500
  20
4522063.500
  0
VERTEX
  8
LC_OH_2021_05_O7
  10
235778.000
  20
4522063.500
  0
VERTEX
  8
LC_OH_2021_05_O7
  10
235750.000
  20
4522074.500
  0
VERTEX
  8
LC_OH_2021_05_O7
  10
234004.000
  20
4522762.500
  0
VERTEX
  8
LC_OH_2021_05_O7
  10
234249.500
  20
4524656.500
  0
VERTEX
  8
LC_OH_2021_05_O7
  10
234605.500
  20
4524814.500
  0
VERTEX
  8
LC_OH_2021_05_O7
  10
234607.000
  20
4524815.000
  0
VERTEX
  8
LC_OH_2021_05_O7
  10
235044.666
  20
4525009.021
  0
SEQEND
  8
LC_OH_2021_05_O7
  0
INSERT
  8
FeatureAttribs
  2
FEATURE
  41
1
  42
1
  43
1
  50
0
  10
257743.789
  20
4520213.499
 66
1
  0
ATTRIB
  8
FeatureAttribs
 70
0
  1
PNOA-H_AMS_1956-57_33k_ES_PAN_21mic_H50_0503_fot_000-42176_R.tif
  2
NAME
  10
257743.789
  20
4520213.499
 40
34.75186
  0
SEQEND
  0
POLYLINE
  8
LC_OH_2021_05_O7
  70
1
  66
1
  0
VERTEX
  8
LC_OH_2021_05_O7
  10
259087.000
  20
4521856.000
  0
VERTEX
  8
LC_OH_2021_05_O7
  10
259087.500
  20
4521857.000
  0
VERTEX
  8
LC_OH_2021_05_O7
  10
259091.000
  20
4521847.000
  0
VERTEX
  8
LC_OH_2021_05_O7
  10
259176.000
  20
4521525.000
  0
VERTEX
  8
LC_OH_2021_05_O7
  10
259176.000
  20
4521520.500
  0
VERTEX
  8
LC_OH_2021_05_O7
  10
257320.000
  20
4518570.000
  0
VERTEX
  8
LC_OH_2021_05_O7
  10
257115.500
  20
4518587.000
  0
VERTEX
  8
LC_OH_2021_05_O7
  10
256918.500
  20
4520032.500
  0
SEQEND
  8
LC_OH_2021_05_O7
  0
ENDSEC
  0
EOF
