  0
SECTION
  2
HEADER
  9
$ACADVER
  1
AC1009
  9
$LUNITS
  70
2
  9
$LIMMIN
  10
202377.242
  20
4506641.754
  9
$LIMMAX
  10
231231.896
  20
4526224.092
  9
$EXTMIN
  10
202377.242
  20
4506641.754
  9
$EXTMAX
  10
231231.896
  20
4526224.092
  999
Created by Global Mapper
  999
Projection: UTM
  999
Datum: ETRS89
  999
Ground Units: meters
  999
ZONE: 30
  0
ENDSEC
  0
SECTION
  2
TABLES
  0
ENDSEC
  0
SECTION
  2
BLOCKS
  0
BLOCK
  8
FeatureAttribs
  70
0
  2
FEATURE
  3
FEATURE
  10
0.00000000
  20
0.00000000
  0
ATTDEF
  8
FeatureAttribs
  70
0
  1
 
  2
NAME
  3
NAME
  10
0.00000000
  20
0.00000000
  40
1.00000000
  0
ENDBLK
  0
ENDSEC
  0
SECTION
  2
ENTITIES
  0
INSERT
  8
FeatureAttribs
  2
FEATURE
  41
1
  42
1
  43
1
  50
0
  10
225488.316
  20
4525236.501
 66
1
  0
ATTRIB
  8
FeatureAttribs
 70
0
  1
PNOA-H_AMS_1956-57_33k_ES_PAN_21mic_H50_0476_fot_58A-40163_W.tif
  2
NAME
  10
225488.316
  20
4525236.501
 40
34.87204
  0
SEQEND
  0
POLYLINE
  8
LC_OH_2021_05_O7
  70
1
  66
1
  0
VERTEX
  8
LC_OH_2021_05_O7
  10
225897.259
  20
4525343.201
  0
VERTEX
  8
LC_OH_2021_05_O7
  10
225313.500
  20
4524963.000
  0
VERTEX
  8
LC_OH_2021_05_O7
  10
225209.231
  20
4525368.747
  0
SEQEND
  8
LC_OH_2021_05_O7
  0
INSERT
  8
FeatureAttribs
  2
FEATURE
  41
1
  42
1
  43
1
  50
0
  10
228526.567
  20
4525237.001
 66
1
  0
ATTRIB
  8
FeatureAttribs
 70
0
  1
PNOA-H_AMS_1956-57_33k_ES_PAN_21mic_H50_0476_fot_58A-40162_W.tif
  2
NAME
  10
228526.567
  20
4525237.001
 40
34.87204
  0
SEQEND
  0
POLYLINE
  8
LC_OH_2021_05_O7
  70
1
  66
1
  0
VERTEX
  8
LC_OH_2021_05_O7
  10
228830.457
  20
4525234.824
  0
VERTEX
  8
LC_OH_2021_05_O7
  10
228318.000
  20
4524964.000
  0
VERTEX
  8
LC_OH_2021_05_O7
  10
228211.086
  20
4525257.525
  0
SEQEND
  8
LC_OH_2021_05_O7
  0
INSERT
  8
FeatureAttribs
  2
FEATURE
  41
1
  42
1
  43
1
  50
0
  10
219487.576
  20
4524955.500
 66
1
  0
ATTRIB
  8
FeatureAttribs
 70
0
  1
PNOA-H_AMS_1956-57_33k_ES_PAN_21mic_H50_0476_fot_58A-40165_W.tif
  2
NAME
  10
219487.576
  20
4524955.500
 40
34.87204
  0
SEQEND
  0
POLYLINE
  8
LC_OH_2021_05_O7
  70
1
  66
1
  0
VERTEX
  8
LC_OH_2021_05_O7
  10
220237.371
  20
4525555.456
  0
VERTEX
  8
LC_OH_2021_05_O7
  10
219695.499
  20
4524735.500
  0
VERTEX
  8
LC_OH_2021_05_O7
  10
219694.999
  20
4524734.500
  0
VERTEX
  8
LC_OH_2021_05_O7
  10
219297.499
  20
4524132.000
  0
VERTEX
  8
LC_OH_2021_05_O7
  10
219295.999
  20
4524131.000
  0
VERTEX
  8
LC_OH_2021_05_O7
  10
219161.999
  20
4524170.500
  0
VERTEX
  8
LC_OH_2021_05_O7
  10
219111.532
  20
4525598.332
  0
SEQEND
  8
LC_OH_2021_05_O7
  0
INSERT
  8
FeatureAttribs
  2
FEATURE
  41
1
  42
1
  43
1
  50
0
  10
222474.542
  20
4525175.751
 66
1
  0
ATTRIB
  8
FeatureAttribs
 70
0
  1
PNOA-H_AMS_1956-57_33k_ES_PAN_21mic_H50_0476_fot_58A-40164_W.tif
  2
NAME
  10
222474.542
  20
4525175.751
 40
34.87204
  0
SEQEND
  0
POLYLINE
  8
LC_OH_2021_05_O7
  70
1
  66
1
  0
VERTEX
  8
LC_OH_2021_05_O7
  10
223072.965
  20
4525448.604
  0
VERTEX
  8
LC_OH_2021_05_O7
  10
222217.999
  20
4524571.500
  0
VERTEX
  8
LC_OH_2021_05_O7
  10
222216.999
  20
4524573.000
  0
VERTEX
  8
LC_OH_2021_05_O7
  10
222212.999
  20
4524605.000
  0
VERTEX
  8
LC_OH_2021_05_O7
  10
222103.673
  20
4525485.055
  0
SEQEND
  8
LC_OH_2021_05_O7
  0
INSERT
  8
FeatureAttribs
  2
FEATURE
  41
1
  42
1
  43
1
  50
0
  10
216568.687
  20
4525070.499
 66
1
  0
ATTRIB
  8
FeatureAttribs
 70
0
  1
PNOA-H_AMS_1956-57_33k_ES_PAN_21mic_H50_0476_fot_58A-40166_W.tif
  2
NAME
  10
216568.687
  20
4525070.499
 40
34.87204
  0
SEQEND
  0
POLYLINE
  8
LC_OH_2021_05_O7
  70
1
  66
1
  0
VERTEX
  8
LC_OH_2021_05_O7
  10
217354.991
  20
4525665.227
  0
VERTEX
  8
LC_OH_2021_05_O7
  10
216864.999
  20
4524091.000
  0
VERTEX
  8
LC_OH_2021_05_O7
  10
215932.499
  20
4524350.500
  0
VERTEX
  8
LC_OH_2021_05_O7
  10
215998.918
  20
4525717.432
  0
VERTEX
  8
LC_OH_2021_05_O7
  10
217176.372
  20
4525672.029
  0
SEQEND
  8
LC_OH_2021_05_O7
  0
INSERT
  8
FeatureAttribs
  2
FEATURE
  41
1
  42
1
  43
1
  50
0
  10
204715.739
  20
4525424.499
 66
1
  0
ATTRIB
  8
FeatureAttribs
 70
0
  1
PNOA-H_AMS_1956-57_33k_ES_PAN_21mic_H50_0476_fot_58A-40170_W.tif
  2
NAME
  10
204715.739
  20
4525424.499
 40
34.87204
  0
SEQEND
  0
POLYLINE
  8
LC_OH_2021_05_O7
  70
1
  66
1
  0
VERTEX
  8
LC_OH_2021_05_O7
  10
205510.635
  20
4526128.505
  0
VERTEX
  8
LC_OH_2021_05_O7
  10
205683.999
  20
4524651.000
  0
VERTEX
  8
LC_OH_2021_05_O7
  10
205682.999
  20
4524649.500
  0
VERTEX
  8
LC_OH_2021_05_O7
  10
205674.499
  20
4524646.500
  0
VERTEX
  8
LC_OH_2021_05_O7
  10
205319.499
  20
4524522.500
  0
VERTEX
  8
LC_OH_2021_05_O7
  10
205306.999
  20
4524519.000
  0
VERTEX
  8
LC_OH_2021_05_O7
  10
203800.999
  20
4525038.000
  0
VERTEX
  8
LC_OH_2021_05_O7
  10
203912.188
  20
4526192.431
  0
SEQEND
  8
LC_OH_2021_05_O7
  0
INSERT
  8
FeatureAttribs
  2
FEATURE
  41
1
  42
1
  43
1
  50
0
  10
213665.941
  20
4525043.251
 66
1
  0
ATTRIB
  8
FeatureAttribs
 70
0
  1
PNOA-H_AMS_1956-57_33k_ES_PAN_21mic_H50_0476_fot_58A-40167_W.tif
  2
NAME
  10
213665.941
  20
4525043.251
 40
34.87204
  0
SEQEND
  0
POLYLINE
  8
LC_OH_2021_05_O7
  70
1
  66
1
  0
VERTEX
  8
LC_OH_2021_05_O7
  10
214505.248
  20
4525775.029
  0
VERTEX
  8
LC_OH_2021_05_O7
  10
214554.999
  20
4524036.500
  0
VERTEX
  8
LC_OH_2021_05_O7
  10
212751.499
  20
4524530.000
  0
VERTEX
  8
LC_OH_2021_05_O7
  10
212889.545
  20
4525837.700
  0
VERTEX
  8
LC_OH_2021_05_O7
  10
213662.437
  20
4525807.528
  0
SEQEND
  8
LC_OH_2021_05_O7
  0
INSERT
  8
FeatureAttribs
  2
FEATURE
  41
1
  42
1
  43
1
  50
0
  10
210638.928
  20
4525245.500
 66
1
  0
ATTRIB
  8
FeatureAttribs
 70
0
  1
PNOA-H_AMS_1956-57_33k_ES_PAN_21mic_H50_0476_fot_58A-40168_W.tif
  2
NAME
  10
210638.928
  20
4525245.500
 40
34.87204
  0
SEQEND
  0
POLYLINE
  8
LC_OH_2021_05_O7
  70
1
  66
1
  0
VERTEX
  8
LC_OH_2021_05_O7
  10
211514.685
  20
4525891.372
  0
VERTEX
  8
LC_OH_2021_05_O7
  10
211753.999
  20
4524262.000
  0
VERTEX
  8
LC_OH_2021_05_O7
  10
211525.999
  20
4524161.000
  0
VERTEX
  8
LC_OH_2021_05_O7
  10
211523.999
  20
4524161.000
  0
VERTEX
  8
LC_OH_2021_05_O7
  10
209599.999
  20
4524698.500
  0
VERTEX
  8
LC_OH_2021_05_O7
  10
209757.540
  20
4525960.153
  0
VERTEX
  8
LC_OH_2021_05_O7
  10
210148.480
  20
4525944.705
  0
SEQEND
  8
LC_OH_2021_05_O7
  0
INSERT
  8
FeatureAttribs
  2
FEATURE
  41
1
  42
1
  43
1
  50
0
  10
207657.968
  20
4525329.250
 66
1
  0
ATTRIB
  8
FeatureAttribs
 70
0
  1
PNOA-H_AMS_1956-57_33k_ES_PAN_21mic_H50_0476_fot_58A-40169_W.tif
  2
NAME
  10
207657.968
  20
4525329.250
 40
34.87204
  0
SEQEND
  0
POLYLINE
  8
LC_OH_2021_05_O7
  70
1
  66
1
  0
VERTEX
  8
LC_OH_2021_05_O7
  10
208511.834
  20
4526009.377
  0
VERTEX
  8
LC_OH_2021_05_O7
  10
208761.999
  20
4524483.500
  0
VERTEX
  8
LC_OH_2021_05_O7
  10
208761.999
  20
4524482.000
  0
VERTEX
  8
LC_OH_2021_05_O7
  10
208760.499
  20
4524481.000
  0
VERTEX
  8
LC_OH_2021_05_O7
  10
208375.499
  20
4524328.500
  0
VERTEX
  8
LC_OH_2021_05_O7
  10
206641.999
  20
4524874.000
  0
VERTEX
  8
LC_OH_2021_05_O7
  10
206775.774
  20
4526077.977
  0
SEQEND
  8
LC_OH_2021_05_O7
  0
INSERT
  8
FeatureAttribs
  2
FEATURE
  41
1
  42
1
  43
1
  50
0
  10
231174.557
  20
4525038.749
 66
1
  0
ATTRIB
  8
FeatureAttribs
 70
0
  1
PNOA-H_AMS_1956-57_33k_ES_PAN_21mic_H50_0477_fot_58A-40161_W.tif
  2
NAME
  10
231174.557
  20
4525038.749
 40
34.87204
  0
SEQEND
  0
POLYLINE
  8
LC_OH_2021_05_O7
  70
1
  66
1
  0
VERTEX
  8
LC_OH_2021_05_O7
  10
231223.875
  20
4524926.488
  0
VERTEX
  8
LC_OH_2021_05_O7
  10
231117.217
  20
4525151.009
  0
VERTEX
  8
LC_OH_2021_05_O7
  10
231231.896
  20
4525146.806
  0
SEQEND
  8
LC_OH_2021_05_O7
  0
INSERT
  8
FeatureAttribs
  2
FEATURE
  41
1
  42
1
  43
1
  50
0
  10
225971.004
  20
4513243.249
 66
1
  0
ATTRIB
  8
FeatureAttribs
 70
0
  1
PNOA-H_AMS_1956-57_33k_ES_PAN_21mic_H50_0501_fot_61B-18277_W.tif
  2
NAME
  10
225971.004
  20
4513243.249
 40
34.87204
  0
SEQEND
  0
POLYLINE
  8
LC_OH_2021_05_O7
  70
1
  66
1
  0
VERTEX
  8
LC_OH_2021_05_O7
  10
226415.500
  20
4515302.000
  0
VERTEX
  8
LC_OH_2021_05_O7
  10
226703.500
  20
4515125.000
  0
VERTEX
  8
LC_OH_2021_05_O7
  10
226749.000
  20
4511302.500
  0
VERTEX
  8
LC_OH_2021_05_O7
  10
226457.000
  20
4511161.000
  0
VERTEX
  8
LC_OH_2021_05_O7
  10
226452.000
  20
4511159.500
  0
VERTEX
  8
LC_OH_2021_05_O7
  10
225088.000
  20
4511495.000
  0
VERTEX
  8
LC_OH_2021_05_O7
  10
225346.500
  20
4515023.000
  0
VERTEX
  8
LC_OH_2021_05_O7
  10
226373.500
  20
4515327.000
  0
VERTEX
  8
LC_OH_2021_05_O7
  10
226377.500
  20
4515326.000
  0
VERTEX
  8
LC_OH_2021_05_O7
  10
226414.500
  20
4515302.500
  0
VERTEX
  8
LC_OH_2021_05_O7
  10
226415.500
  20
4515302.000
  0
SEQEND
  8
LC_OH_2021_05_O7
  0
INSERT
  8
FeatureAttribs
  2
FEATURE
  41
1
  42
1
  43
1
  50
0
  10
227408.026
  20
4513213.498
 66
1
  0
ATTRIB
  8
FeatureAttribs
 70
0
  1
PNOA-H_AMS_1956-57_33k_ES_PAN_21mic_H50_0501_fot_61A-39619_W.tif
  2
NAME
  10
227408.026
  20
4513213.498
 40
34.87204
  0
SEQEND
  0
POLYLINE
  8
LC_OH_2021_05_O7
  70
1
  66
1
  0
VERTEX
  8
LC_OH_2021_05_O7
  10
228463.500
  20
4514980.000
  0
VERTEX
  8
LC_OH_2021_05_O7
  10
228594.000
  20
4514969.500
  0
VERTEX
  8
LC_OH_2021_05_O7
  10
228595.000
  20
4514968.000
  0
VERTEX
  8
LC_OH_2021_05_O7
  10
227553.500
  20
4511350.000
  0
VERTEX
  8
LC_OH_2021_05_O7
  10
226753.500
  20
4511302.500
  0
VERTEX
  8
LC_OH_2021_05_O7
  10
226749.000
  20
4511302.500
  0
VERTEX
  8
LC_OH_2021_05_O7
  10
226748.500
  20
4511318.000
  0
VERTEX
  8
LC_OH_2021_05_O7
  10
226703.500
  20
4515124.500
  0
VERTEX
  8
LC_OH_2021_05_O7
  10
228460.000
  20
4514980.000
  0
VERTEX
  8
LC_OH_2021_05_O7
  10
228463.500
  20
4514980.000
  0
SEQEND
  8
LC_OH_2021_05_O7
  0
INSERT
  8
FeatureAttribs
  2
FEATURE
  41
1
  42
1
  43
1
  50
0
  10
228185.834
  20
4521016.749
 66
1
  0
ATTRIB
  8
FeatureAttribs
 70
0
  1
PNOA-H_AMS_1956-57_33k_ES_PAN_21mic_H50_0501_fot_59A-35465_W.tif
  2
NAME
  10
228185.834
  20
4521016.749
 40
34.87204
  0
SEQEND
  0
POLYLINE
  8
LC_OH_2021_05_O7
  70
1
  66
1
  0
VERTEX
  8
LC_OH_2021_05_O7
  10
228463.500
  20
4523191.500
  0
VERTEX
  8
LC_OH_2021_05_O7
  10
229854.000
  20
4522623.500
  0
VERTEX
  8
LC_OH_2021_05_O7
  10
229550.000
  20
4518802.000
  0
VERTEX
  8
LC_OH_2021_05_O7
  10
229409.500
  20
4518710.000
  0
VERTEX
  8
LC_OH_2021_05_O7
  10
229406.500
  20
4518710.000
  0
VERTEX
  8
LC_OH_2021_05_O7
  10
226432.500
  20
4518913.000
  0
VERTEX
  8
LC_OH_2021_05_O7
  10
226840.500
  20
4522943.000
  0
VERTEX
  8
LC_OH_2021_05_O7
  10
228139.500
  20
4523323.500
  0
VERTEX
  8
LC_OH_2021_05_O7
  10
228461.500
  20
4523192.000
  0
VERTEX
  8
LC_OH_2021_05_O7
  10
228463.500
  20
4523191.500
  0
SEQEND
  8
LC_OH_2021_05_O7
  0
INSERT
  8
FeatureAttribs
  2
FEATURE
  41
1
  42
1
  43
1
  50
0
  10
222117.953
  20
4521495.249
 66
1
  0
ATTRIB
  8
FeatureAttribs
 70
0
  1
PNOA-H_AMS_1956-57_33k_ES_PAN_21mic_H50_0501_fot_59A-35467_W.tif
  2
NAME
  10
222117.953
  20
4521495.249
 40
34.87204
  0
SEQEND
  0
POLYLINE
  8
LC_OH_2021_05_O7
  70
1
  66
1
  0
VERTEX
  8
LC_OH_2021_05_O7
  10
220422.499
  20
4519277.500
  0
VERTEX
  8
LC_OH_2021_05_O7
  10
220723.999
  20
4523518.500
  0
VERTEX
  8
LC_OH_2021_05_O7
  10
222149.999
  20
4523942.500
  0
VERTEX
  8
LC_OH_2021_05_O7
  10
222156.999
  20
4523940.500
  0
VERTEX
  8
LC_OH_2021_05_O7
  10
222317.999
  20
4523872.000
  0
VERTEX
  8
LC_OH_2021_05_O7
  10
222319.499
  20
4523871.500
  0
VERTEX
  8
LC_OH_2021_05_O7
  10
223826.000
  20
4523235.500
  0
VERTEX
  8
LC_OH_2021_05_O7
  10
223416.500
  20
4519050.500
  0
VERTEX
  8
LC_OH_2021_05_O7
  10
223412.500
  20
4519048.000
  0
VERTEX
  8
LC_OH_2021_05_O7
  10
223404.000
  20
4519048.000
  0
VERTEX
  8
LC_OH_2021_05_O7
  10
220558.499
  20
4519182.500
  0
VERTEX
  8
LC_OH_2021_05_O7
  10
220422.499
  20
4519273.500
  0
VERTEX
  8
LC_OH_2021_05_O7
  10
220422.499
  20
4519277.500
  0
SEQEND
  8
LC_OH_2021_05_O7
  0
INSERT
  8
FeatureAttribs
  2
FEATURE
  41
1
  42
1
  43
1
  50
0
  10
230310.801
  20
4513135.999
 66
1
  0
ATTRIB
  8
FeatureAttribs
 70
0
  1
PNOA-H_AMS_1956-57_33k_ES_PAN_21mic_H50_0501_fot_61A-39618_W.tif
  2
NAME
  10
230310.801
  20
4513135.999
 40
34.87204
  0
SEQEND
  0
POLYLINE
  8
LC_OH_2021_05_O7
  70
1
  66
1
  0
VERTEX
  8
LC_OH_2021_05_O7
  10
230765.440
  20
4512321.788
  0
VERTEX
  8
LC_OH_2021_05_O7
  10
230409.000
  20
4511187.000
  0
VERTEX
  8
LC_OH_2021_05_O7
  10
229692.000
  20
4511303.000
  0
VERTEX
  8
LC_OH_2021_05_O7
  10
229503.000
  20
4515085.000
  0
VERTEX
  8
LC_OH_2021_05_O7
  10
230510.000
  20
4514971.500
  0
VERTEX
  8
LC_OH_2021_05_O7
  10
230511.500
  20
4514971.500
  0
VERTEX
  8
LC_OH_2021_05_O7
  10
230860.304
  20
4514932.447
  0
VERTEX
  8
LC_OH_2021_05_O7
  10
230811.190
  20
4513581.105
  0
SEQEND
  8
LC_OH_2021_05_O7
  0
INSERT
  8
FeatureAttribs
  2
FEATURE
  41
1
  42
1
  43
1
  50
0
  10
209849.080
  20
4522240.999
 66
1
  0
ATTRIB
  8
FeatureAttribs
 70
0
  1
PNOA-H_AMS_1956-57_33k_ES_PAN_21mic_H50_0501_fot_59A-35471_W.tif
  2
NAME
  10
209849.080
  20
4522240.999
 40
34.87204
  0
SEQEND
  0
POLYLINE
  8
LC_OH_2021_05_O7
  70
1
  66
1
  0
VERTEX
  8
LC_OH_2021_05_O7
  10
208376.499
  20
4524328.500
  0
VERTEX
  8
LC_OH_2021_05_O7
  10
208761.499
  20
4524482.000
  0
VERTEX
  8
LC_OH_2021_05_O7
  10
209597.999
  20
4524698.500
  0
VERTEX
  8
LC_OH_2021_05_O7
  10
209601.499
  20
4524698.500
  0
VERTEX
  8
LC_OH_2021_05_O7
  10
209619.499
  20
4524693.500
  0
VERTEX
  8
LC_OH_2021_05_O7
  10
210028.999
  20
4524578.500
  0
VERTEX
  8
LC_OH_2021_05_O7
  10
210031.499
  20
4524578.000
  0
VERTEX
  8
LC_OH_2021_05_O7
  10
211524.999
  20
4524161.000
  0
VERTEX
  8
LC_OH_2021_05_O7
  10
211285.499
  20
4519843.000
  0
VERTEX
  8
LC_OH_2021_05_O7
  10
208502.499
  20
4519783.500
  0
VERTEX
  8
LC_OH_2021_05_O7
  10
208174.499
  20
4519975.000
  0
VERTEX
  8
LC_OH_2021_05_O7
  10
208376.499
  20
4524328.500
  0
SEQEND
  8
LC_OH_2021_05_O7
  0
INSERT
  8
FeatureAttribs
  2
FEATURE
  41
1
  42
1
  43
1
  50
0
  10
224153.105
  20
4513290.248
 66
1
  0
ATTRIB
  8
FeatureAttribs
 70
0
  1
PNOA-H_AMS_1956-57_33k_ES_PAN_21mic_H50_0501_fot_61A-39620_W.tif
  2
NAME
  10
224153.105
  20
4513290.248
 40
34.87204
  0
SEQEND
  0
POLYLINE
  8
LC_OH_2021_05_O7
  70
1
  66
1
  0
VERTEX
  8
LC_OH_2021_05_O7
  10
224367.500
  20
4515110.000
  0
VERTEX
  8
LC_OH_2021_05_O7
  10
225346.500
  20
4515023.000
  0
VERTEX
  8
LC_OH_2021_05_O7
  10
225088.500
  20
4511495.500
  0
VERTEX
  8
LC_OH_2021_05_O7
  10
223437.000
  20
4511383.500
  0
VERTEX
  8
LC_OH_2021_05_O7
  10
223009.000
  20
4511679.500
  0
VERTEX
  8
LC_OH_2021_05_O7
  10
223169.000
  20
4515008.000
  0
VERTEX
  8
LC_OH_2021_05_O7
  10
223178.500
  20
4515017.500
  0
VERTEX
  8
LC_OH_2021_05_O7
  10
223390.000
  20
4515197.000
  0
VERTEX
  8
LC_OH_2021_05_O7
  10
224366.500
  20
4515110.000
  0
VERTEX
  8
LC_OH_2021_05_O7
  10
224367.500
  20
4515110.000
  0
SEQEND
  8
LC_OH_2021_05_O7
  0
INSERT
  8
FeatureAttribs
  2
FEATURE
  41
1
  42
1
  43
1
  50
0
  10
225151.399
  20
4521260.250
 66
1
  0
ATTRIB
  8
FeatureAttribs
 70
0
  1
PNOA-H_AMS_1956-57_33k_ES_PAN_21mic_H50_0501_fot_59A-35466_W.tif
  2
NAME
  10
225151.399
  20
4521260.250
 40
34.87204
  0
SEQEND
  0
POLYLINE
  8
LC_OH_2021_05_O7
  70
1
  66
1
  0
VERTEX
  8
LC_OH_2021_05_O7
  10
223825.500
  20
4523233.500
  0
VERTEX
  8
LC_OH_2021_05_O7
  10
223826.000
  20
4523235.500
  0
VERTEX
  8
LC_OH_2021_05_O7
  10
223828.000
  20
4523236.500
  0
VERTEX
  8
LC_OH_2021_05_O7
  10
224364.500
  20
4523396.500
  0
VERTEX
  8
LC_OH_2021_05_O7
  10
224366.000
  20
4523397.000
  0
VERTEX
  8
LC_OH_2021_05_O7
  10
225185.000
  20
4523641.000
  0
VERTEX
  8
LC_OH_2021_05_O7
  10
226840.500
  20
4522943.000
  0
VERTEX
  8
LC_OH_2021_05_O7
  10
226433.000
  20
4518916.000
  0
VERTEX
  8
LC_OH_2021_05_O7
  10
226431.500
  20
4518912.000
  0
VERTEX
  8
LC_OH_2021_05_O7
  10
226376.000
  20
4518879.500
  0
VERTEX
  8
LC_OH_2021_05_O7
  10
223416.500
  20
4519050.500
  0
VERTEX
  8
LC_OH_2021_05_O7
  10
223825.500
  20
4523233.500
  0
SEQEND
  8
LC_OH_2021_05_O7
  0
INSERT
  8
FeatureAttribs
  2
FEATURE
  41
1
  42
1
  43
1
  50
0
  10
203629.679
  20
4522488.000
 66
1
  0
ATTRIB
  8
FeatureAttribs
 70
0
  1
PNOA-H_AMS_1956-57_33k_ES_PAN_21mic_H50_0501_fot_59A-35473_W.tif
  2
NAME
  10
203629.679
  20
4522488.000
 40
34.87204
  0
SEQEND
  0
POLYLINE
  8
LC_OH_2021_05_O7
  70
1
  66
1
  0
VERTEX
  8
LC_OH_2021_05_O7
  10
203067.525
  20
4524907.052
  0
VERTEX
  8
LC_OH_2021_05_O7
  10
203796.499
  20
4525037.500
  0
VERTEX
  8
LC_OH_2021_05_O7
  10
203799.499
  20
4525038.000
  0
VERTEX
  8
LC_OH_2021_05_O7
  10
203806.499
  20
4525036.500
  0
VERTEX
  8
LC_OH_2021_05_O7
  10
205307.999
  20
4524519.000
  0
VERTEX
  8
LC_OH_2021_05_O7
  10
205046.499
  20
4520055.500
  0
VERTEX
  8
LC_OH_2021_05_O7
  10
202868.601
  20
4519959.097
  0
VERTEX
  8
LC_OH_2021_05_O7
  10
202934.448
  20
4521597.564
  0
VERTEX
  8
LC_OH_2021_05_O7
  10
203027.454
  20
4523910.825
  0
SEQEND
  8
LC_OH_2021_05_O7
  0
INSERT
  8
FeatureAttribs
  2
FEATURE
  41
1
  42
1
  43
1
  50
0
  10
216021.265
  20
4521909.249
 66
1
  0
ATTRIB
  8
FeatureAttribs
 70
0
  1
PNOA-H_AMS_1956-57_33k_ES_PAN_21mic_H50_0501_fot_59A-35469_W.tif
  2
NAME
  10
216021.265
  20
4521909.249
 40
34.87204
  0
SEQEND
  0
POLYLINE
  8
LC_OH_2021_05_O7
  70
1
  66
1
  0
VERTEX
  8
LC_OH_2021_05_O7
  10
214640.499
  20
4524000.500
  0
VERTEX
  8
LC_OH_2021_05_O7
  10
215930.999
  20
4524350.500
  0
VERTEX
  8
LC_OH_2021_05_O7
  10
215937.499
  20
4524349.500
  0
VERTEX
  8
LC_OH_2021_05_O7
  10
216174.499
  20
4524283.000
  0
VERTEX
  8
LC_OH_2021_05_O7
  10
216175.499
  20
4524283.000
  0
VERTEX
  8
LC_OH_2021_05_O7
  10
216865.499
  20
4524091.000
  0
VERTEX
  8
LC_OH_2021_05_O7
  10
217658.999
  20
4523752.000
  0
VERTEX
  8
LC_OH_2021_05_O7
  10
217386.999
  20
4519468.000
  0
VERTEX
  8
LC_OH_2021_05_O7
  10
214686.499
  20
4519491.000
  0
VERTEX
  8
LC_OH_2021_05_O7
  10
214352.999
  20
4519705.000
  0
VERTEX
  8
LC_OH_2021_05_O7
  10
214640.499
  20
4524000.500
  0
SEQEND
  8
LC_OH_2021_05_O7
  0
INSERT
  8
FeatureAttribs
  2
FEATURE
  41
1
  42
1
  43
1
  50
0
  10
219063.157
  20
4521722.249
 66
1
  0
ATTRIB
  8
FeatureAttribs
 70
0
  1
PNOA-H_AMS_1956-57_33k_ES_PAN_21mic_H50_0501_fot_59A-35468_W.tif
  2
NAME
  10
219063.157
  20
4521722.249
 40
34.87204
  0
SEQEND
  0
POLYLINE
  8
LC_OH_2021_05_O7
  70
1
  66
1
  0
VERTEX
  8
LC_OH_2021_05_O7
  10
217658.499
  20
4523751.000
  0
VERTEX
  8
LC_OH_2021_05_O7
  10
217658.999
  20
4523752.500
  0
VERTEX
  8
LC_OH_2021_05_O7
  10
217662.499
  20
4523753.500
  0
VERTEX
  8
LC_OH_2021_05_O7
  10
218219.999
  20
4523908.500
  0
VERTEX
  8
LC_OH_2021_05_O7
  10
218221.999
  20
4523909.000
  0
VERTEX
  8
LC_OH_2021_05_O7
  10
219162.499
  20
4524170.500
  0
VERTEX
  8
LC_OH_2021_05_O7
  10
219297.499
  20
4524131.000
  0
VERTEX
  8
LC_OH_2021_05_O7
  10
220723.999
  20
4523518.500
  0
VERTEX
  8
LC_OH_2021_05_O7
  10
220422.499
  20
4519274.000
  0
VERTEX
  8
LC_OH_2021_05_O7
  10
217626.499
  20
4519319.000
  0
VERTEX
  8
LC_OH_2021_05_O7
  10
217618.999
  20
4519319.500
  0
VERTEX
  8
LC_OH_2021_05_O7
  10
217615.499
  20
4519321.500
  0
VERTEX
  8
LC_OH_2021_05_O7
  10
217386.999
  20
4519468.000
  0
VERTEX
  8
LC_OH_2021_05_O7
  10
217658.499
  20
4523751.000
  0
SEQEND
  8
LC_OH_2021_05_O7
  0
INSERT
  8
FeatureAttribs
  2
FEATURE
  41
1
  42
1
  43
1
  50
0
  10
218628.364
  20
4513509.750
 66
1
  0
ATTRIB
  8
FeatureAttribs
 70
0
  1
PNOA-H_AMS_1956-57_33k_ES_PAN_21mic_H50_0501_fot_61A-39622_W.tif
  2
NAME
  10
218628.364
  20
4513509.750
 40
34.87204
  0
SEQEND
  0
POLYLINE
  8
LC_OH_2021_05_O7
  70
1
  66
1
  0
VERTEX
  8
LC_OH_2021_05_O7
  10
218223.499
  20
4515342.500
  0
VERTEX
  8
LC_OH_2021_05_O7
  10
220161.999
  20
4515134.000
  0
VERTEX
  8
LC_OH_2021_05_O7
  10
220046.999
  20
4511725.000
  0
VERTEX
  8
LC_OH_2021_05_O7
  10
217461.499
  20
4511587.500
  0
VERTEX
  8
LC_OH_2021_05_O7
  10
217455.499
  20
4511590.500
  0
VERTEX
  8
LC_OH_2021_05_O7
  10
217073.999
  20
4511840.500
  0
VERTEX
  8
LC_OH_2021_05_O7
  10
217230.499
  20
4515300.000
  0
VERTEX
  8
LC_OH_2021_05_O7
  10
217230.999
  20
4515302.000
  0
VERTEX
  8
LC_OH_2021_05_O7
  10
217234.999
  20
4515305.500
  0
VERTEX
  8
LC_OH_2021_05_O7
  10
217390.999
  20
4515432.000
  0
VERTEX
  8
LC_OH_2021_05_O7
  10
218220.499
  20
4515342.500
  0
VERTEX
  8
LC_OH_2021_05_O7
  10
218223.499
  20
4515342.500
  0
SEQEND
  8
LC_OH_2021_05_O7
  0
INSERT
  8
FeatureAttribs
  2
FEATURE
  41
1
  42
1
  43
1
  50
0
  10
212962.857
  20
4522114.249
 66
1
  0
ATTRIB
  8
FeatureAttribs
 70
0
  1
PNOA-H_AMS_1956-57_33k_ES_PAN_21mic_H50_0501_fot_59A-35470_W.tif
  2
NAME
  10
212962.857
  20
4522114.249
 40
34.87204
  0
SEQEND
  0
POLYLINE
  8
LC_OH_2021_05_O7
  70
1
  66
1
  0
VERTEX
  8
LC_OH_2021_05_O7
  10
211524.999
  20
4524161.000
  0
VERTEX
  8
LC_OH_2021_05_O7
  10
211753.999
  20
4524262.500
  0
VERTEX
  8
LC_OH_2021_05_O7
  10
212076.499
  20
4524349.000
  0
VERTEX
  8
LC_OH_2021_05_O7
  10
212078.499
  20
4524349.500
  0
VERTEX
  8
LC_OH_2021_05_O7
  10
212751.999
  20
4524530.000
  0
VERTEX
  8
LC_OH_2021_05_O7
  10
214553.499
  20
4524037.500
  0
VERTEX
  8
LC_OH_2021_05_O7
  10
214640.499
  20
4524000.500
  0
VERTEX
  8
LC_OH_2021_05_O7
  10
214352.999
  20
4519705.500
  0
VERTEX
  8
LC_OH_2021_05_O7
  10
211517.499
  20
4519698.500
  0
VERTEX
  8
LC_OH_2021_05_O7
  10
211285.499
  20
4519843.000
  0
VERTEX
  8
LC_OH_2021_05_O7
  10
211524.999
  20
4524161.000
  0
SEQEND
  8
LC_OH_2021_05_O7
  0
INSERT
  8
FeatureAttribs
  2
FEATURE
  41
1
  42
1
  43
1
  50
0
  10
221597.633
  20
4513399.999
 66
1
  0
ATTRIB
  8
FeatureAttribs
 70
0
  1
PNOA-H_AMS_1956-57_33k_ES_PAN_21mic_H50_0501_fot_61A-39621_W.tif
  2
NAME
  10
221597.633
  20
4513399.999
 40
34.87204
  0
SEQEND
  0
POLYLINE
  8
LC_OH_2021_05_O7
  70
1
  66
1
  0
VERTEX
  8
LC_OH_2021_05_O7
  10
220270.999
  20
4515224.500
  0
VERTEX
  8
LC_OH_2021_05_O7
  10
220362.499
  20
4515300.000
  0
VERTEX
  8
LC_OH_2021_05_O7
  10
220367.499
  20
4515301.000
  0
VERTEX
  8
LC_OH_2021_05_O7
  10
223169.500
  20
4515009.500
  0
VERTEX
  8
LC_OH_2021_05_O7
  10
223009.000
  20
4511679.500
  0
VERTEX
  8
LC_OH_2021_05_O7
  10
220382.499
  20
4511499.000
  0
VERTEX
  8
LC_OH_2021_05_O7
  10
220046.999
  20
4511725.000
  0
VERTEX
  8
LC_OH_2021_05_O7
  10
220161.499
  20
4515130.500
  0
VERTEX
  8
LC_OH_2021_05_O7
  10
220162.999
  20
4515135.500
  0
VERTEX
  8
LC_OH_2021_05_O7
  10
220270.499
  20
4515223.500
  0
VERTEX
  8
LC_OH_2021_05_O7
  10
220270.999
  20
4515224.500
  0
SEQEND
  8
LC_OH_2021_05_O7
  0
INSERT
  8
FeatureAttribs
  2
FEATURE
  41
1
  42
1
  43
1
  50
0
  10
215716.431
  20
4513627.500
 66
1
  0
ATTRIB
  8
FeatureAttribs
 70
0
  1
PNOA-H_AMS_1956-57_33k_ES_PAN_21mic_H50_0501_fot_61A-39623_W.tif
  2
NAME
  10
215716.431
  20
4513627.500
 40
34.87204
  0
SEQEND
  0
POLYLINE
  8
LC_OH_2021_05_O7
  70
1
  66
1
  0
VERTEX
  8
LC_OH_2021_05_O7
  10
216175.499
  20
4515402.500
  0
VERTEX
  8
LC_OH_2021_05_O7
  10
217230.999
  20
4515301.500
  0
VERTEX
  8
LC_OH_2021_05_O7
  10
217074.499
  20
4511841.500
  0
VERTEX
  8
LC_OH_2021_05_O7
  10
217073.999
  20
4511840.500
  0
VERTEX
  8
LC_OH_2021_05_O7
  10
217066.999
  20
4511840.000
  0
VERTEX
  8
LC_OH_2021_05_O7
  10
214541.499
  20
4511680.500
  0
VERTEX
  8
LC_OH_2021_05_O7
  10
214241.999
  20
4511864.500
  0
VERTEX
  8
LC_OH_2021_05_O7
  10
214315.999
  20
4515531.000
  0
VERTEX
  8
LC_OH_2021_05_O7
  10
214370.499
  20
4515574.500
  0
VERTEX
  8
LC_OH_2021_05_O7
  10
214375.499
  20
4515574.500
  0
VERTEX
  8
LC_OH_2021_05_O7
  10
216171.999
  20
4515402.500
  0
VERTEX
  8
LC_OH_2021_05_O7
  10
216175.499
  20
4515402.500
  0
SEQEND
  8
LC_OH_2021_05_O7
  0
INSERT
  8
FeatureAttribs
  2
FEATURE
  41
1
  42
1
  43
1
  50
0
  10
209878.033
  20
4513660.499
 66
1
  0
ATTRIB
  8
FeatureAttribs
 70
0
  1
PNOA-H_AMS_1956-57_33k_ES_PAN_21mic_H50_0501_fot_61A-39625_W.tif
  2
NAME
  10
209878.033
  20
4513660.499
 40
34.87204
  0
SEQEND
  0
POLYLINE
  8
LC_OH_2021_05_O7
  70
1
  66
1
  0
VERTEX
  8
LC_OH_2021_05_O7
  10
210031.499
  20
4515588.500
  0
VERTEX
  8
LC_OH_2021_05_O7
  10
211358.499
  20
4515558.000
  0
VERTEX
  8
LC_OH_2021_05_O7
  10
211398.999
  20
4511922.500
  0
VERTEX
  8
LC_OH_2021_05_O7
  10
208748.999
  20
4511695.500
  0
VERTEX
  8
LC_OH_2021_05_O7
  10
208742.999
  20
4511696.000
  0
VERTEX
  8
LC_OH_2021_05_O7
  10
208384.499
  20
4511911.500
  0
VERTEX
  8
LC_OH_2021_05_O7
  10
208367.499
  20
4515588.500
  0
VERTEX
  8
LC_OH_2021_05_O7
  10
208410.999
  20
4515625.500
  0
VERTEX
  8
LC_OH_2021_05_O7
  10
210013.499
  20
4515588.500
  0
VERTEX
  8
LC_OH_2021_05_O7
  10
210031.499
  20
4515588.500
  0
SEQEND
  8
LC_OH_2021_05_O7
  0
INSERT
  8
FeatureAttribs
  2
FEATURE
  41
1
  42
1
  43
1
  50
0
  10
203871.198
  20
4513667.752
 66
1
  0
ATTRIB
  8
FeatureAttribs
 70
0
  1
PNOA-H_AMS_1956-57_33k_ES_PAN_21mic_H50_0501_fot_61A-39627_W.tif
  2
NAME
  10
203871.198
  20
4513667.752
 40
34.87204
  0
SEQEND
  0
POLYLINE
  8
LC_OH_2021_05_O7
  70
1
  66
1
  0
VERTEX
  8
LC_OH_2021_05_O7
  10
202695.427
  20
4515647.956
  0
VERTEX
  8
LC_OH_2021_05_O7
  10
203828.499
  20
4515641.000
  0
VERTEX
  8
LC_OH_2021_05_O7
  10
203887.499
  20
4515641.000
  0
VERTEX
  8
LC_OH_2021_05_O7
  10
205411.999
  20
4515631.500
  0
VERTEX
  8
LC_OH_2021_05_O7
  10
205330.499
  20
4511928.000
  0
VERTEX
  8
LC_OH_2021_05_O7
  10
202745.999
  20
4511685.500
  0
VERTEX
  8
LC_OH_2021_05_O7
  10
202740.999
  20
4511686.000
  0
VERTEX
  8
LC_OH_2021_05_O7
  10
202541.426
  20
4511811.326
  0
VERTEX
  8
LC_OH_2021_05_O7
  10
202562.820
  20
4512344.570
  0
VERTEX
  8
LC_OH_2021_05_O7
  10
202655.668
  20
4514657.810
  0
SEQEND
  8
LC_OH_2021_05_O7
  0
INSERT
  8
FeatureAttribs
  2
FEATURE
  41
1
  42
1
  43
1
  50
0
  10
212829.062
  20
4513686.249
 66
1
  0
ATTRIB
  8
FeatureAttribs
 70
0
  1
PNOA-H_AMS_1956-57_33k_ES_PAN_21mic_H50_0501_fot_61A-39624_W.tif
  2
NAME
  10
212829.062
  20
4513686.249
 40
34.87204
  0
SEQEND
  0
POLYLINE
  8
LC_OH_2021_05_O7
  70
1
  66
1
  0
VERTEX
  8
LC_OH_2021_05_O7
  10
211452.499
  20
4515640.000
  0
VERTEX
  8
LC_OH_2021_05_O7
  10
214315.999
  20
4515530.500
  0
VERTEX
  8
LC_OH_2021_05_O7
  10
214241.999
  20
4511865.000
  0
VERTEX
  8
LC_OH_2021_05_O7
  10
211701.999
  20
4511732.500
  0
VERTEX
  8
LC_OH_2021_05_O7
  10
211398.999
  20
4511922.500
  0
VERTEX
  8
LC_OH_2021_05_O7
  10
211358.499
  20
4515558.000
  0
VERTEX
  8
LC_OH_2021_05_O7
  10
211451.999
  20
4515639.000
  0
VERTEX
  8
LC_OH_2021_05_O7
  10
211452.499
  20
4515640.000
  0
SEQEND
  8
LC_OH_2021_05_O7
  0
INSERT
  8
FeatureAttribs
  2
FEATURE
  41
1
  42
1
  43
1
  50
0
  10
206733.687
  20
4522366.750
 66
1
  0
ATTRIB
  8
FeatureAttribs
 70
0
  1
PNOA-H_AMS_1956-57_33k_ES_PAN_21mic_H50_0501_fot_59A-35472_W.tif
  2
NAME
  10
206733.687
  20
4522366.750
 40
34.87204
  0
SEQEND
  0
POLYLINE
  8
LC_OH_2021_05_O7
  70
1
  66
1
  0
VERTEX
  8
LC_OH_2021_05_O7
  10
205307.999
  20
4524519.000
  0
VERTEX
  8
LC_OH_2021_05_O7
  10
205684.499
  20
4524650.500
  0
VERTEX
  8
LC_OH_2021_05_O7
  10
206639.499
  20
4524874.000
  0
VERTEX
  8
LC_OH_2021_05_O7
  10
206646.999
  20
4524873.000
  0
VERTEX
  8
LC_OH_2021_05_O7
  10
208376.499
  20
4524328.500
  0
VERTEX
  8
LC_OH_2021_05_O7
  10
208205.499
  20
4520644.500
  0
VERTEX
  8
LC_OH_2021_05_O7
  10
208205.499
  20
4520638.500
  0
VERTEX
  8
LC_OH_2021_05_O7
  10
208174.499
  20
4519975.000
  0
VERTEX
  8
LC_OH_2021_05_O7
  10
205402.999
  20
4519859.500
  0
VERTEX
  8
LC_OH_2021_05_O7
  10
205046.499
  20
4520055.500
  0
VERTEX
  8
LC_OH_2021_05_O7
  10
205307.999
  20
4524519.000
  0
SEQEND
  8
LC_OH_2021_05_O7
  0
INSERT
  8
FeatureAttribs
  2
FEATURE
  41
1
  42
1
  43
1
  50
0
  10
206872.325
  20
4513638.001
 66
1
  0
ATTRIB
  8
FeatureAttribs
 70
0
  1
PNOA-H_AMS_1956-57_33k_ES_PAN_21mic_H50_0501_fot_61A-39626_W.tif
  2
NAME
  10
206872.325
  20
4513638.001
 40
34.87204
  0
SEQEND
  0
POLYLINE
  8
LC_OH_2021_05_O7
  70
1
  66
1
  0
VERTEX
  8
LC_OH_2021_05_O7
  10
205428.999
  20
4515646.500
  0
VERTEX
  8
LC_OH_2021_05_O7
  10
208367.499
  20
4515588.500
  0
VERTEX
  8
LC_OH_2021_05_O7
  10
208384.499
  20
4511911.500
  0
VERTEX
  8
LC_OH_2021_05_O7
  10
205814.499
  20
4511629.500
  0
VERTEX
  8
LC_OH_2021_05_O7
  10
205330.499
  20
4511928.000
  0
VERTEX
  8
LC_OH_2021_05_O7
  10
205411.999
  20
4515631.500
  0
VERTEX
  8
LC_OH_2021_05_O7
  10
205428.499
  20
4515645.500
  0
VERTEX
  8
LC_OH_2021_05_O7
  10
205428.999
  20
4515646.500
  0
SEQEND
  8
LC_OH_2021_05_O7
  0
INSERT
  8
FeatureAttribs
  2
FEATURE
  41
1
  42
1
  43
1
  50
0
  10
230351.722
  20
4520860.810
 66
1
  0
ATTRIB
  8
FeatureAttribs
 70
0
  1
PNOA-H_AMS_1956-57_33k_ES_PAN_21mic_H50_0502_fot_59A-35464_W.tif
  2
NAME
  10
230351.722
  20
4520860.810
 40
34.87204
  0
SEQEND
  0
POLYLINE
  8
LC_OH_2021_05_O7
  70
1
  66
1
  0
VERTEX
  8
LC_OH_2021_05_O7
  10
231153.444
  20
4522991.887
  0
VERTEX
  8
LC_OH_2021_05_O7
  10
231147.683
  20
4522833.654
  0
VERTEX
  8
LC_OH_2021_05_O7
  10
231063.506
  20
4520520.508
  0
VERTEX
  8
LC_OH_2021_05_O7
  10
230996.980
  20
4518691.620
  0
VERTEX
  8
LC_OH_2021_05_O7
  10
229550.000
  20
4518802.000
  0
VERTEX
  8
LC_OH_2021_05_O7
  10
229854.000
  20
4522623.500
  0
VERTEX
  8
LC_OH_2021_05_O7
  10
230508.500
  20
4522846.000
  0
VERTEX
  8
LC_OH_2021_05_O7
  10
230510.000
  20
4522846.500
  0
VERTEX
  8
LC_OH_2021_05_O7
  10
231035.000
  20
4523025.000
  0
VERTEX
  8
LC_OH_2021_05_O7
  10
231052.500
  20
4523030.000
  0
SEQEND
  8
LC_OH_2021_05_O7
  0
INSERT
  8
FeatureAttribs
  2
FEATURE
  41
1
  42
1
  43
1
  50
0
  10
226316.146
  20
4506813.080
 66
1
  0
ATTRIB
  8
FeatureAttribs
 70
0
  1
PNOA-H_AMS_1956-57_33k_ES_PAN_21mic_H50_0526_fot_63A-40307_W.tif
  2
NAME
  10
226316.146
  20
4506813.080
 40
34.87204
  0
SEQEND
  0
POLYLINE
  8
LC_OH_2021_05_O7
  70
1
  66
1
  0
VERTEX
  8
LC_OH_2021_05_O7
  10
226489.854
  20
4506790.661
  0
VERTEX
  8
LC_OH_2021_05_O7
  10
226142.437
  20
4506803.517
  0
VERTEX
  8
LC_OH_2021_05_O7
  10
226226.500
  20
4506835.000
  0
VERTEX
  8
LC_OH_2021_05_O7
  10
226227.500
  20
4506835.500
  0
SEQEND
  8
LC_OH_2021_05_O7
  0
INSERT
  8
FeatureAttribs
  2
FEATURE
  41
1
  42
1
  43
1
  50
0
  10
229615.395
  20
4508964.499
 66
1
  0
ATTRIB
  8
FeatureAttribs
 70
0
  1
PNOA-H_AMS_1956-57_33k_ES_PAN_21mic_H50_0501_fot_62B-04164_W.tif
  2
NAME
  10
229615.395
  20
4508964.499
 40
34.87204
  0
SEQEND
  0
POLYLINE
  8
LC_OH_2021_05_O7
  70
1
  66
1
  0
VERTEX
  8
LC_OH_2021_05_O7
  10
230036.918
  20
4506660.832
  0
VERTEX
  8
LC_OH_2021_05_O7
  10
228763.903
  20
4506707.333
  0
VERTEX
  8
LC_OH_2021_05_O7
  10
228966.000
  20
4511062.000
  0
VERTEX
  8
LC_OH_2021_05_O7
  10
229692.000
  20
4511303.000
  0
VERTEX
  8
LC_OH_2021_05_O7
  10
230407.000
  20
4511187.500
  0
VERTEX
  8
LC_OH_2021_05_O7
  10
230662.000
  20
4511085.000
  0
VERTEX
  8
LC_OH_2021_05_O7
  10
230275.500
  20
4508352.000
  0
VERTEX
  8
LC_OH_2021_05_O7
  10
230275.500
  20
4508350.500
  0
SEQEND
  8
LC_OH_2021_05_O7
  0
INSERT
  8
FeatureAttribs
  2
FEATURE
  41
1
  42
1
  43
1
  50
0
  10
230587.254
  20
4511699.770
 66
1
  0
ATTRIB
  8
FeatureAttribs
 70
0
  1
PNOA-H_AMS_1956-57_33k_ES_PAN_21mic_H50_0502_fot_61B-18275_W.tif
  2
NAME
  10
230587.254
  20
4511699.770
 40
34.87204
  0
SEQEND
  0
POLYLINE
  8
LC_OH_2021_05_O7
  70
1
  66
1
  0
VERTEX
  8
LC_OH_2021_05_O7
  10
230720.178
  20
4511075.841
  0
VERTEX
  8
LC_OH_2021_05_O7
  10
230663.000
  20
4511084.500
  0
VERTEX
  8
LC_OH_2021_05_O7
  10
230409.000
  20
4511186.500
  0
VERTEX
  8
LC_OH_2021_05_O7
  10
230409.000
  20
4511189.000
  0
VERTEX
  8
LC_OH_2021_05_O7
  10
230765.509
  20
4512323.700
  0
VERTEX
  8
LC_OH_2021_05_O7
  10
230727.156
  20
4511267.982
  0
SEQEND
  8
LC_OH_2021_05_O7
  0
INSERT
  8
FeatureAttribs
  2
FEATURE
  41
1
  42
1
  43
1
  50
0
  10
228829.986
  20
4513103.750
 66
1
  0
ATTRIB
  8
FeatureAttribs
 70
0
  1
PNOA-H_AMS_1956-57_33k_ES_PAN_21mic_H50_0502_fot_61B-18276_W.tif
  2
NAME
  10
228829.986
  20
4513103.750
 40
34.87204
  0
SEQEND
  0
POLYLINE
  8
LC_OH_2021_05_O7
  70
1
  66
1
  0
VERTEX
  8
LC_OH_2021_05_O7
  10
229411.500
  20
4515145.500
  0
VERTEX
  8
LC_OH_2021_05_O7
  10
229502.500
  20
4515085.500
  0
VERTEX
  8
LC_OH_2021_05_O7
  10
229503.500
  20
4515078.500
  0
VERTEX
  8
LC_OH_2021_05_O7
  10
229692.000
  20
4511302.500
  0
VERTEX
  8
LC_OH_2021_05_O7
  10
228967.500
  20
4511062.000
  0
VERTEX
  8
LC_OH_2021_05_O7
  10
228951.000
  20
4511064.500
  0
VERTEX
  8
LC_OH_2021_05_O7
  10
227565.500
  20
4511347.500
  0
VERTEX
  8
LC_OH_2021_05_O7
  10
227553.500
  20
4511350.000
  0
VERTEX
  8
LC_OH_2021_05_O7
  10
227553.500
  20
4511351.500
  0
VERTEX
  8
LC_OH_2021_05_O7
  10
228594.500
  20
4514968.000
  0
VERTEX
  8
LC_OH_2021_05_O7
  10
228595.500
  20
4514969.500
  0
VERTEX
  8
LC_OH_2021_05_O7
  10
228604.500
  20
4514971.500
  0
VERTEX
  8
LC_OH_2021_05_O7
  10
229409.000
  20
4515145.000
  0
VERTEX
  8
LC_OH_2021_05_O7
  10
229411.500
  20
4515145.500
  0
SEQEND
  8
LC_OH_2021_05_O7
  0
INSERT
  8
FeatureAttribs
  2
FEATURE
  41
1
  42
1
  43
1
  50
0
  10
203867.452
  20
4517843.500
 66
1
  0
ATTRIB
  8
FeatureAttribs
 70
0
  1
PNOA-H_AMS_1956-57_33k_ES_PAN_21mic_H50_0501_fot_60A-04412_E.tif
  2
NAME
  10
203867.452
  20
4517843.500
 40
34.87204
  0
SEQEND
  0
POLYLINE
  8
LC_OH_2021_05_O7
  70
1
  66
1
  0
VERTEX
  8
LC_OH_2021_05_O7
  10
202868.603
  20
4519959.150
  0
VERTEX
  8
LC_OH_2021_05_O7
  10
205028.499
  20
4520055.000
  0
VERTEX
  8
LC_OH_2021_05_O7
  10
205039.999
  20
4520055.500
  0
VERTEX
  8
LC_OH_2021_05_O7
  10
205046.999
  20
4520055.500
  0
VERTEX
  8
LC_OH_2021_05_O7
  10
205051.999
  20
4520053.000
  0
VERTEX
  8
LC_OH_2021_05_O7
  10
205403.499
  20
4519859.500
  0
VERTEX
  8
LC_OH_2021_05_O7
  10
205429.499
  20
4515669.500
  0
VERTEX
  8
LC_OH_2021_05_O7
  10
205429.499
  20
4515646.500
  0
VERTEX
  8
LC_OH_2021_05_O7
  10
205412.499
  20
4515631.500
  0
VERTEX
  8
LC_OH_2021_05_O7
  10
202695.428
  20
4515647.981
  0
VERTEX
  8
LC_OH_2021_05_O7
  10
202748.555
  20
4516971.056
  0
VERTEX
  8
LC_OH_2021_05_O7
  10
202841.482
  20
4519284.307
  0
SEQEND
  8
LC_OH_2021_05_O7
  0
INSERT
  8
FeatureAttribs
  2
FEATURE
  41
1
  42
1
  43
1
  50
0
  10
209971.463
  20
4517700.500
 66
1
  0
ATTRIB
  8
FeatureAttribs
 70
0
  1
PNOA-H_AMS_1956-57_33k_ES_PAN_21mic_H50_0501_fot_60A-04414_E.tif
  2
NAME
  10
209971.463
  20
4517700.500
 40
34.87204
  0
SEQEND
  0
POLYLINE
  8
LC_OH_2021_05_O7
  70
1
  66
1
  0
VERTEX
  8
LC_OH_2021_05_O7
  10
211266.499
  20
4519843.000
  0
VERTEX
  8
LC_OH_2021_05_O7
  10
211286.999
  20
4519842.500
  0
VERTEX
  8
LC_OH_2021_05_O7
  10
211517.999
  20
4519698.500
  0
VERTEX
  8
LC_OH_2021_05_O7
  10
211452.999
  20
4515640.000
  0
VERTEX
  8
LC_OH_2021_05_O7
  10
211358.999
  20
4515558.000
  0
VERTEX
  8
LC_OH_2021_05_O7
  10
208411.499
  20
4515625.500
  0
VERTEX
  8
LC_OH_2021_05_O7
  10
208502.499
  20
4519783.500
  0
VERTEX
  8
LC_OH_2021_05_O7
  10
211242.999
  20
4519842.500
  0
VERTEX
  8
LC_OH_2021_05_O7
  10
211266.499
  20
4519843.000
  0
SEQEND
  8
LC_OH_2021_05_O7
  0
INSERT
  8
FeatureAttribs
  2
FEATURE
  41
1
  42
1
  43
1
  50
0
  10
224888.016
  20
4517036.749
 66
1
  0
ATTRIB
  8
FeatureAttribs
 70
0
  1
PNOA-H_AMS_1956-57_33k_ES_PAN_21mic_H50_0501_fot_60A-04419_E.tif
  2
NAME
  10
224888.016
  20
4517036.749
 40
34.87204
  0
SEQEND
  0
POLYLINE
  8
LC_OH_2021_05_O7
  70
1
  66
1
  0
VERTEX
  8
LC_OH_2021_05_O7
  10
224367.500
  20
4518995.500
  0
VERTEX
  8
LC_OH_2021_05_O7
  10
226375.500
  20
4518879.500
  0
VERTEX
  8
LC_OH_2021_05_O7
  10
226375.000
  20
4515327.000
  0
VERTEX
  8
LC_OH_2021_05_O7
  10
225348.000
  20
4515023.000
  0
VERTEX
  8
LC_OH_2021_05_O7
  10
223390.500
  20
4515197.000
  0
VERTEX
  8
LC_OH_2021_05_O7
  10
223412.000
  20
4519048.000
  0
VERTEX
  8
LC_OH_2021_05_O7
  10
223416.000
  20
4519050.500
  0
VERTEX
  8
LC_OH_2021_05_O7
  10
223420.000
  20
4519050.500
  0
VERTEX
  8
LC_OH_2021_05_O7
  10
224363.000
  20
4518995.500
  0
VERTEX
  8
LC_OH_2021_05_O7
  10
224367.500
  20
4518995.500
  0
SEQEND
  8
LC_OH_2021_05_O7
  0
INSERT
  8
FeatureAttribs
  2
FEATURE
  41
1
  42
1
  43
1
  50
0
  10
221927.669
  20
4517095.999
 66
1
  0
ATTRIB
  8
FeatureAttribs
 70
0
  1
PNOA-H_AMS_1956-57_33k_ES_PAN_21mic_H50_0501_fot_60A-04418_E.tif
  2
NAME
  10
221927.669
  20
4517095.999
 40
34.87204
  0
SEQEND
  0
POLYLINE
  8
LC_OH_2021_05_O7
  70
1
  66
1
  0
VERTEX
  8
LC_OH_2021_05_O7
  10
222319.499
  20
4519099.500
  0
VERTEX
  8
LC_OH_2021_05_O7
  10
223412.000
  20
4519048.000
  0
VERTEX
  8
LC_OH_2021_05_O7
  10
223390.500
  20
4515197.000
  0
VERTEX
  8
LC_OH_2021_05_O7
  10
223170.000
  20
4515009.500
  0
VERTEX
  8
LC_OH_2021_05_O7
  10
220364.499
  20
4515301.000
  0
VERTEX
  8
LC_OH_2021_05_O7
  10
220558.499
  20
4519182.500
  0
VERTEX
  8
LC_OH_2021_05_O7
  10
222313.999
  20
4519099.500
  0
VERTEX
  8
LC_OH_2021_05_O7
  10
222319.499
  20
4519099.500
  0
SEQEND
  8
LC_OH_2021_05_O7
  0
INSERT
  8
FeatureAttribs
  2
FEATURE
  41
1
  42
1
  43
1
  50
0
  10
213010.245
  20
4517618.000
 66
1
  0
ATTRIB
  8
FeatureAttribs
 70
0
  1
PNOA-H_AMS_1956-57_33k_ES_PAN_21mic_H50_0501_fot_60A-04415_E.tif
  2
NAME
  10
213010.245
  20
4517618.000
 40
34.87204
  0
SEQEND
  0
POLYLINE
  8
LC_OH_2021_05_O7
  70
1
  66
1
  0
VERTEX
  8
LC_OH_2021_05_O7
  10
211999.999
  20
4519700.000
  0
VERTEX
  8
LC_OH_2021_05_O7
  10
214352.999
  20
4519705.500
  0
VERTEX
  8
LC_OH_2021_05_O7
  10
214686.999
  20
4519491.000
  0
VERTEX
  8
LC_OH_2021_05_O7
  10
214371.499
  20
4515577.000
  0
VERTEX
  8
LC_OH_2021_05_O7
  10
214369.499
  20
4515573.000
  0
VERTEX
  8
LC_OH_2021_05_O7
  10
214315.999
  20
4515530.500
  0
VERTEX
  8
LC_OH_2021_05_O7
  10
211452.999
  20
4515640.000
  0
VERTEX
  8
LC_OH_2021_05_O7
  10
211517.499
  20
4519694.000
  0
VERTEX
  8
LC_OH_2021_05_O7
  10
211517.999
  20
4519698.500
  0
VERTEX
  8
LC_OH_2021_05_O7
  10
211787.499
  20
4519699.500
  0
VERTEX
  8
LC_OH_2021_05_O7
  10
211999.999
  20
4519700.000
  0
SEQEND
  8
LC_OH_2021_05_O7
  0
INSERT
  8
FeatureAttribs
  2
FEATURE
  41
1
  42
1
  43
1
  50
0
  10
218978.657
  20
4517226.750
 66
1
  0
ATTRIB
  8
FeatureAttribs
 70
0
  1
PNOA-H_AMS_1956-57_33k_ES_PAN_21mic_H50_0501_fot_60A-04417_E.tif
  2
NAME
  10
218978.657
  20
4517226.750
 40
34.87204
  0
SEQEND
  0
POLYLINE
  8
LC_OH_2021_05_O7
  70
1
  66
1
  0
VERTEX
  8
LC_OH_2021_05_O7
  10
217619.499
  20
4519319.500
  0
VERTEX
  8
LC_OH_2021_05_O7
  10
220422.499
  20
4519274.000
  0
VERTEX
  8
LC_OH_2021_05_O7
  10
220558.499
  20
4519183.000
  0
VERTEX
  8
LC_OH_2021_05_O7
  10
220364.499
  20
4515301.000
  0
VERTEX
  8
LC_OH_2021_05_O7
  10
220161.499
  20
4515134.000
  0
VERTEX
  8
LC_OH_2021_05_O7
  10
217390.999
  20
4515432.000
  0
VERTEX
  8
LC_OH_2021_05_O7
  10
217619.499
  20
4519316.500
  0
VERTEX
  8
LC_OH_2021_05_O7
  10
217619.499
  20
4519319.500
  0
SEQEND
  8
LC_OH_2021_05_O7
  0
INSERT
  8
FeatureAttribs
  2
FEATURE
  41
1
  42
1
  43
1
  50
0
  10
206937.507
  20
4517781.749
 66
1
  0
ATTRIB
  8
FeatureAttribs
 70
0
  1
PNOA-H_AMS_1956-57_33k_ES_PAN_21mic_H50_0501_fot_60A-04413_E.tif
  2
NAME
  10
206937.507
  20
4517781.749
 40
34.87204
  0
SEQEND
  0
POLYLINE
  8
LC_OH_2021_05_O7
  70
1
  66
1
  0
VERTEX
  8
LC_OH_2021_05_O7
  10
205924.999
  20
4519881.500
  0
VERTEX
  8
LC_OH_2021_05_O7
  10
208174.999
  20
4519975.000
  0
VERTEX
  8
LC_OH_2021_05_O7
  10
208502.499
  20
4519784.000
  0
VERTEX
  8
LC_OH_2021_05_O7
  10
208411.499
  20
4515625.500
  0
VERTEX
  8
LC_OH_2021_05_O7
  10
208367.999
  20
4515588.500
  0
VERTEX
  8
LC_OH_2021_05_O7
  10
205429.499
  20
4515646.500
  0
VERTEX
  8
LC_OH_2021_05_O7
  10
205403.499
  20
4519859.500
  0
VERTEX
  8
LC_OH_2021_05_O7
  10
205912.999
  20
4519881.000
  0
VERTEX
  8
LC_OH_2021_05_O7
  10
205924.999
  20
4519881.500
  0
SEQEND
  8
LC_OH_2021_05_O7
  0
INSERT
  8
FeatureAttribs
  2
FEATURE
  41
1
  42
1
  43
1
  50
0
  10
230202.995
  20
4516867.078
 66
1
  0
ATTRIB
  8
FeatureAttribs
 70
0
  1
PNOA-H_AMS_1956-57_33k_ES_PAN_21mic_H50_0502_fot_60A-04421_E.tif
  2
NAME
  10
230202.995
  20
4516867.078
 40
34.87204
  0
SEQEND
  0
POLYLINE
  8
LC_OH_2021_05_O7
  70
1
  66
1
  0
VERTEX
  8
LC_OH_2021_05_O7
  10
230996.989
  20
4518691.878
  0
VERTEX
  8
LC_OH_2021_05_O7
  10
230979.365
  20
4518207.368
  0
VERTEX
  8
LC_OH_2021_05_O7
  10
230895.260
  20
4515894.234
  0
VERTEX
  8
LC_OH_2021_05_O7
  10
230860.293
  20
4514932.157
  0
VERTEX
  8
LC_OH_2021_05_O7
  10
229504.000
  20
4515084.500
  0
VERTEX
  8
LC_OH_2021_05_O7
  10
229411.500
  20
4515145.500
  0
VERTEX
  8
LC_OH_2021_05_O7
  10
229409.000
  20
4518710.000
  0
VERTEX
  8
LC_OH_2021_05_O7
  10
229549.000
  20
4518802.000
  0
VERTEX
  8
LC_OH_2021_05_O7
  10
230505.500
  20
4518729.000
  0
VERTEX
  8
LC_OH_2021_05_O7
  10
230511.500
  20
4518729.000
  0
SEQEND
  8
LC_OH_2021_05_O7
  0
INSERT
  8
FeatureAttribs
  2
FEATURE
  41
1
  42
1
  43
1
  50
0
  10
227892.735
  20
4516941.000
 66
1
  0
ATTRIB
  8
FeatureAttribs
 70
0
  1
PNOA-H_AMS_1956-57_33k_ES_PAN_21mic_H50_0501_fot_60A-04420_E.tif
  2
NAME
  10
227892.735
  20
4516941.000
 40
34.87204
  0
SEQEND
  0
POLYLINE
  8
LC_OH_2021_05_O7
  70
1
  66
1
  0
VERTEX
  8
LC_OH_2021_05_O7
  10
226375.500
  20
4518879.500
  0
VERTEX
  8
LC_OH_2021_05_O7
  10
226414.500
  20
4518902.000
  0
VERTEX
  8
LC_OH_2021_05_O7
  10
226415.000
  20
4518903.000
  0
VERTEX
  8
LC_OH_2021_05_O7
  10
226432.000
  20
4518913.000
  0
VERTEX
  8
LC_OH_2021_05_O7
  10
226435.000
  20
4518913.000
  0
VERTEX
  8
LC_OH_2021_05_O7
  10
229409.000
  20
4518710.000
  0
VERTEX
  8
LC_OH_2021_05_O7
  10
229411.500
  20
4515145.000
  0
VERTEX
  8
LC_OH_2021_05_O7
  10
228594.000
  20
4514969.000
  0
VERTEX
  8
LC_OH_2021_05_O7
  10
226703.500
  20
4515124.500
  0
VERTEX
  8
LC_OH_2021_05_O7
  10
226375.000
  20
4515327.000
  0
SEQEND
  8
LC_OH_2021_05_O7
  0
INSERT
  8
FeatureAttribs
  2
FEATURE
  41
1
  42
1
  43
1
  50
0
  10
216012.205
  20
4517396.250
 66
1
  0
ATTRIB
  8
FeatureAttribs
 70
0
  1
PNOA-H_AMS_1956-57_33k_ES_PAN_21mic_H50_0501_fot_60A-04416_E.tif
  2
NAME
  10
216012.205
  20
4517396.250
 40
34.87204
  0
SEQEND
  0
POLYLINE
  8
LC_OH_2021_05_O7
  70
1
  66
1
  0
VERTEX
  8
LC_OH_2021_05_O7
  10
216175.499
  20
4519478.500
  0
VERTEX
  8
LC_OH_2021_05_O7
  10
217387.499
  20
4519468.000
  0
VERTEX
  8
LC_OH_2021_05_O7
  10
217619.499
  20
4519319.500
  0
VERTEX
  8
LC_OH_2021_05_O7
  10
217391.499
  20
4515434.000
  0
VERTEX
  8
LC_OH_2021_05_O7
  10
217389.999
  20
4515430.500
  0
VERTEX
  8
LC_OH_2021_05_O7
  10
217230.999
  20
4515301.500
  0
VERTEX
  8
LC_OH_2021_05_O7
  10
214370.999
  20
4515574.500
  0
VERTEX
  8
LC_OH_2021_05_O7
  10
214686.499
  20
4519490.500
  0
VERTEX
  8
LC_OH_2021_05_O7
  10
214733.499
  20
4519491.000
  0
VERTEX
  8
LC_OH_2021_05_O7
  10
216137.999
  20
4519478.500
  0
VERTEX
  8
LC_OH_2021_05_O7
  10
216175.499
  20
4519478.500
  0
SEQEND
  8
LC_OH_2021_05_O7
  0
INSERT
  8
FeatureAttribs
  2
FEATURE
  41
1
  42
1
  43
1
  50
0
  10
230378.345
  20
4508863.377
 66
1
  0
ATTRIB
  8
FeatureAttribs
 70
0
  1
PNOA-H_AMS_1956-57_33k_ES_PAN_21mic_H50_0503_fot_62C-05344_E.tif
  2
NAME
  10
230378.345
  20
4508863.377
 40
34.87204
  0
SEQEND
  0
POLYLINE
  8
LC_OH_2021_05_O7
  70
1
  66
1
  0
VERTEX
  8
LC_OH_2021_05_O7
  10
230720.190
  20
4511076.164
  0
VERTEX
  8
LC_OH_2021_05_O7
  10
230643.157
  20
4508954.865
  0
VERTEX
  8
LC_OH_2021_05_O7
  10
230559.194
  20
4506641.754
  0
VERTEX
  8
LC_OH_2021_05_O7
  10
230036.500
  20
4506660.847
  0
VERTEX
  8
LC_OH_2021_05_O7
  10
230662.000
  20
4511082.500
  0
VERTEX
  8
LC_OH_2021_05_O7
  10
230662.000
  20
4511085.000
  0
SEQEND
  8
LC_OH_2021_05_O7
  0
INSERT
  8
FeatureAttribs
  2
FEATURE
  41
1
  42
1
  43
1
  50
0
  10
202559.871
  20
4509757.892
 66
1
  0
ATTRIB
  8
FeatureAttribs
 70
0
  1
PNOA-H_AMS_1956-57_33k_ES_PAN_21mic_H50_0502_fot_62C-05334_E.tif
  2
NAME
  10
202559.871
  20
4509757.892
 40
34.87204
  0
SEQEND
  0
POLYLINE
  8
LC_OH_2021_05_O7
  70
1
  66
1
  0
VERTEX
  8
LC_OH_2021_05_O7
  10
202732.975
  20
4507703.925
  0
VERTEX
  8
LC_OH_2021_05_O7
  10
202377.242
  20
4507718.104
  0
VERTEX
  8
LC_OH_2021_05_O7
  10
202470.011
  20
4510031.334
  0
VERTEX
  8
LC_OH_2021_05_O7
  10
202541.447
  20
4511811.859
  0
VERTEX
  8
LC_OH_2021_05_O7
  10
202742.499
  20
4511685.500
  0
SEQEND
  8
LC_OH_2021_05_O7
  0
INSERT
  8
FeatureAttribs
  2
FEATURE
  41
1
  42
1
  43
1
  50
0
  10
227601.413
  20
4508911.500
 66
1
  0
ATTRIB
  8
FeatureAttribs
 70
0
  1
PNOA-H_AMS_1956-57_33k_ES_PAN_21mic_H50_0503_fot_62C-05343_E.tif
  2
NAME
  10
227601.413
  20
4508911.500
 40
34.87204
  0
SEQEND
  0
POLYLINE
  8
LC_OH_2021_05_O7
  70
1
  66
1
  0
VERTEX
  8
LC_OH_2021_05_O7
  10
228764.280
  20
4506707.319
  0
VERTEX
  8
LC_OH_2021_05_O7
  10
227036.529
  20
4506770.432
  0
VERTEX
  8
LC_OH_2021_05_O7
  10
226491.130
  20
4506790.614
  0
VERTEX
  8
LC_OH_2021_05_O7
  10
226228.500
  20
4506835.500
  0
VERTEX
  8
LC_OH_2021_05_O7
  10
226415.000
  20
4510422.500
  0
VERTEX
  8
LC_OH_2021_05_O7
  10
226415.000
  20
4510432.000
  0
VERTEX
  8
LC_OH_2021_05_O7
  10
226453.000
  20
4511159.500
  0
VERTEX
  8
LC_OH_2021_05_O7
  10
226748.500
  20
4511302.500
  0
VERTEX
  8
LC_OH_2021_05_O7
  10
227556.000
  20
4511350.000
  0
VERTEX
  8
LC_OH_2021_05_O7
  10
228966.000
  20
4511062.000
  0
SEQEND
  8
LC_OH_2021_05_O7
  0
INSERT
  8
FeatureAttribs
  2
FEATURE
  41
1
  42
1
  43
1
  50
0
  10
210226.958
  20
4509374.499
 66
1
  0
ATTRIB
  8
FeatureAttribs
 70
0
  1
PNOA-H_AMS_1956-57_33k_ES_PAN_21mic_H50_0502_fot_62C-05337_E.tif
  2
NAME
  10
210226.958
  20
4509374.499
 40
34.87204
  0
SEQEND
  0
POLYLINE
  8
LC_OH_2021_05_O7
  70
1
  66
1
  0
VERTEX
  8
LC_OH_2021_05_O7
  10
211625.969
  20
4507353.245
  0
VERTEX
  8
LC_OH_2021_05_O7
  10
209422.867
  20
4507438.959
  0
VERTEX
  8
LC_OH_2021_05_O7
  10
208832.271
  20
4507462.218
  0
VERTEX
  8
LC_OH_2021_05_O7
  10
208744.499
  20
4511695.500
  0
VERTEX
  8
LC_OH_2021_05_O7
  10
211388.499
  20
4511922.000
  0
VERTEX
  8
LC_OH_2021_05_O7
  10
211394.499
  20
4511922.500
  0
VERTEX
  8
LC_OH_2021_05_O7
  10
211401.499
  20
4511921.500
  0
VERTEX
  8
LC_OH_2021_05_O7
  10
211702.499
  20
4511732.500
  0
SEQEND
  8
LC_OH_2021_05_O7
  0
INSERT
  8
FeatureAttribs
  2
FEATURE
  41
1
  42
1
  43
1
  50
0
  10
207298.948
  20
4509392.750
 66
1
  0
ATTRIB
  8
FeatureAttribs
 70
0
  1
PNOA-H_AMS_1956-57_33k_ES_PAN_21mic_H50_0502_fot_62C-05336_E.tif
  2
NAME
  10
207298.948
  20
4509392.750
 40
34.87204
  0
SEQEND
  0
POLYLINE
  8
LC_OH_2021_05_O7
  70
1
  66
1
  0
VERTEX
  8
LC_OH_2021_05_O7
  10
208832.271
  20
4507462.218
  0
VERTEX
  8
LC_OH_2021_05_O7
  10
205900.067
  20
4507577.693
  0
VERTEX
  8
LC_OH_2021_05_O7
  10
205797.722
  20
4507581.772
  0
VERTEX
  8
LC_OH_2021_05_O7
  10
205815.499
  20
4511629.500
  0
VERTEX
  8
LC_OH_2021_05_O7
  10
205928.499
  20
4511642.000
  0
VERTEX
  8
LC_OH_2021_05_O7
  10
205933.499
  20
4511642.500
  0
VERTEX
  8
LC_OH_2021_05_O7
  10
208381.499
  20
4511911.500
  0
VERTEX
  8
LC_OH_2021_05_O7
  10
208385.999
  20
4511911.000
  0
VERTEX
  8
LC_OH_2021_05_O7
  10
208744.499
  20
4511695.500
  0
SEQEND
  8
LC_OH_2021_05_O7
  0
INSERT
  8
FeatureAttribs
  2
FEATURE
  41
1
  42
1
  43
1
  50
0
  10
204271.634
  20
4509482.501
 66
1
  0
ATTRIB
  8
FeatureAttribs
 70
0
  1
PNOA-H_AMS_1956-57_33k_ES_PAN_21mic_H50_0502_fot_62C-05335_E.tif
  2
NAME
  10
204271.634
  20
4509482.501
 40
34.87204
  0
SEQEND
  0
POLYLINE
  8
LC_OH_2021_05_O7
  70
1
  66
1
  0
VERTEX
  8
LC_OH_2021_05_O7
  10
205797.722
  20
4507581.772
  0
VERTEX
  8
LC_OH_2021_05_O7
  10
202732.975
  20
4507703.925
  0
VERTEX
  8
LC_OH_2021_05_O7
  10
202742.499
  20
4511685.500
  0
VERTEX
  8
LC_OH_2021_05_O7
  10
205319.999
  20
4511927.500
  0
VERTEX
  8
LC_OH_2021_05_O7
  10
205325.499
  20
4511928.000
  0
VERTEX
  8
LC_OH_2021_05_O7
  10
205331.499
  20
4511928.000
  0
VERTEX
  8
LC_OH_2021_05_O7
  10
205815.499
  20
4511629.500
  0
SEQEND
  8
LC_OH_2021_05_O7
  0
INSERT
  8
FeatureAttribs
  2
FEATURE
  41
1
  42
1
  43
1
  50
0
  10
215961.469
  20
4509269.251
 66
1
  0
ATTRIB
  8
FeatureAttribs
 70
0
  1
PNOA-H_AMS_1956-57_33k_ES_PAN_21mic_H50_0503_fot_62C-05339_E.tif
  2
NAME
  10
215961.469
  20
4509269.251
 40
34.87204
  0
SEQEND
  0
POLYLINE
  8
LC_OH_2021_05_O7
  70
1
  66
1
  0
VERTEX
  8
LC_OH_2021_05_O7
  10
217340.293
  20
4507133.428
  0
VERTEX
  8
LC_OH_2021_05_O7
  10
216468.400
  20
4507166.520
  0
VERTEX
  8
LC_OH_2021_05_O7
  10
214511.859
  20
4507241.711
  0
VERTEX
  8
LC_OH_2021_05_O7
  10
214540.499
  20
4511680.500
  0
VERTEX
  8
LC_OH_2021_05_O7
  10
217058.999
  20
4511840.000
  0
VERTEX
  8
LC_OH_2021_05_O7
  10
217066.999
  20
4511840.500
  0
VERTEX
  8
LC_OH_2021_05_O7
  10
217074.999
  20
4511840.500
  0
VERTEX
  8
LC_OH_2021_05_O7
  10
217080.499
  20
4511837.000
  0
VERTEX
  8
LC_OH_2021_05_O7
  10
217457.499
  20
4511590.000
  0
VERTEX
  8
LC_OH_2021_05_O7
  10
217460.499
  20
4511588.000
  0
VERTEX
  8
LC_OH_2021_05_O7
  10
217460.499
  20
4511582.000
  0
SEQEND
  8
LC_OH_2021_05_O7
  0
INSERT
  8
FeatureAttribs
  2
FEATURE
  41
1
  42
1
  43
1
  50
0
  10
221862.920
  20
4509113.749
 66
1
  0
ATTRIB
  8
FeatureAttribs
 70
0
  1
PNOA-H_AMS_1956-57_33k_ES_PAN_21mic_H50_0503_fot_62C-05341_E.tif
  2
NAME
  10
221862.920
  20
4509113.749
 40
34.87204
  0
SEQEND
  0
POLYLINE
  8
LC_OH_2021_05_O7
  70
1
  66
1
  0
VERTEX
  8
LC_OH_2021_05_O7
  10
223296.223
  20
4506908.942
  0
VERTEX
  8
LC_OH_2021_05_O7
  10
220340.733
  20
4507019.712
  0
VERTEX
  8
LC_OH_2021_05_O7
  10
220382.999
  20
4511499.000
  0
VERTEX
  8
LC_OH_2021_05_O7
  10
222994.500
  20
4511679.000
  0
VERTEX
  8
LC_OH_2021_05_O7
  10
223001.500
  20
4511679.500
  0
VERTEX
  8
LC_OH_2021_05_O7
  10
223010.000
  20
4511679.500
  0
VERTEX
  8
LC_OH_2021_05_O7
  10
223436.500
  20
4511384.000
  0
SEQEND
  8
LC_OH_2021_05_O7
  0
INSERT
  8
FeatureAttribs
  2
FEATURE
  41
1
  42
1
  43
1
  50
0
  10
213092.779
  20
4509312.251
 66
1
  0
ATTRIB
  8
FeatureAttribs
 70
0
  1
PNOA-H_AMS_1956-57_33k_ES_PAN_21mic_H50_0502_fot_62C-05338_E.tif
  2
NAME
  10
213092.779
  20
4509312.251
 40
34.87204
  0
SEQEND
  0
POLYLINE
  8
LC_OH_2021_05_O7
  70
1
  66
1
  0
VERTEX
  8
LC_OH_2021_05_O7
  10
214512.229
  20
4507241.697
  0
VERTEX
  8
LC_OH_2021_05_O7
  10
212945.645
  20
4507301.902
  0
VERTEX
  8
LC_OH_2021_05_O7
  10
211625.847
  20
4507353.250
  0
VERTEX
  8
LC_OH_2021_05_O7
  10
211702.499
  20
4511732.500
  0
VERTEX
  8
LC_OH_2021_05_O7
  10
212065.499
  20
4511751.500
  0
VERTEX
  8
LC_OH_2021_05_O7
  10
212074.999
  20
4511752.000
  0
VERTEX
  8
LC_OH_2021_05_O7
  10
214241.999
  20
4511865.000
  0
VERTEX
  8
LC_OH_2021_05_O7
  10
214540.499
  20
4511681.000
  0
SEQEND
  8
LC_OH_2021_05_O7
  0
INSERT
  8
FeatureAttribs
  2
FEATURE
  41
1
  42
1
  43
1
  50
0
  10
218877.888
  20
4509162.000
 66
1
  0
ATTRIB
  8
FeatureAttribs
 70
0
  1
PNOA-H_AMS_1956-57_33k_ES_PAN_21mic_H50_0503_fot_62C-05340_E.tif
  2
NAME
  10
218877.888
  20
4509162.000
 40
34.87204
  0
SEQEND
  0
POLYLINE
  8
LC_OH_2021_05_O7
  70
1
  66
1
  0
VERTEX
  8
LC_OH_2021_05_O7
  10
220340.733
  20
4507019.712
  0
VERTEX
  8
LC_OH_2021_05_O7
  10
219991.132
  20
4507032.815
  0
VERTEX
  8
LC_OH_2021_05_O7
  10
217339.917
  20
4507133.442
  0
VERTEX
  8
LC_OH_2021_05_O7
  10
217460.499
  20
4511587.500
  0
VERTEX
  8
LC_OH_2021_05_O7
  10
218204.999
  20
4511627.500
  0
VERTEX
  8
LC_OH_2021_05_O7
  10
218214.499
  20
4511628.000
  0
VERTEX
  8
LC_OH_2021_05_O7
  10
220047.499
  20
4511725.000
  0
VERTEX
  8
LC_OH_2021_05_O7
  10
220382.999
  20
4511499.000
  0
SEQEND
  8
LC_OH_2021_05_O7
  0
INSERT
  8
FeatureAttribs
  2
FEATURE
  41
1
  42
1
  43
1
  50
0
  10
224852.168
  20
4509018.000
 66
1
  0
ATTRIB
  8
FeatureAttribs
 70
0
  1
PNOA-H_AMS_1956-57_33k_ES_PAN_21mic_H50_0503_fot_62C-05342_E.tif
  2
NAME
  10
224852.168
  20
4509018.000
 40
34.87204
  0
SEQEND
  0
POLYLINE
  8
LC_OH_2021_05_O7
  70
1
  66
1
  0
VERTEX
  8
LC_OH_2021_05_O7
  10
226143.076
  20
4506803.493
  0
VERTEX
  8
LC_OH_2021_05_O7
  10
223513.841
  20
4506900.786
  0
VERTEX
  8
LC_OH_2021_05_O7
  10
223296.224
  20
4506908.942
  0
VERTEX
  8
LC_OH_2021_05_O7
  10
223436.500
  20
4511383.500
  0
VERTEX
  8
LC_OH_2021_05_O7
  10
225090.000
  20
4511495.000
  0
VERTEX
  8
LC_OH_2021_05_O7
  10
226413.000
  20
4511169.000
  0
VERTEX
  8
LC_OH_2021_05_O7
  10
226415.500
  20
4511168.500
  0
VERTEX
  8
LC_OH_2021_05_O7
  10
226452.000
  20
4511160.000
  0
VERTEX
  8
LC_OH_2021_05_O7
  10
226453.000
  20
4511159.500
  0
VERTEX
  8
LC_OH_2021_05_O7
  10
226453.000
  20
4511153.500
  0
VERTEX
  8
LC_OH_2021_05_O7
  10
226228.500
  20
4506835.500
  0
SEQEND
  8
LC_OH_2021_05_O7
  0
INSERT
  8
FeatureAttribs
  2
FEATURE
  41
1
  42
1
  43
1
  50
0
  10
229702.429
  20
4524066.751
 66
1
  0
ATTRIB
  8
FeatureAttribs
 70
0
  1
PNOA-H_AMS_1956-57_33k_ES_PAN_21mic_H50_0501_fot_000-36794_R.tif
  2
NAME
  10
229702.429
  20
4524066.751
 40
34.87204
  0
SEQEND
  0
POLYLINE
  8
LC_OH_2021_05_O7
  70
1
  66
1
  0
VERTEX
  8
LC_OH_2021_05_O7
  10
231117.732
  20
4525150.991
  0
VERTEX
  8
LC_OH_2021_05_O7
  10
231223.911
  20
4524927.470
  0
VERTEX
  8
LC_OH_2021_05_O7
  10
231196.037
  20
4524161.841
  0
VERTEX
  8
LC_OH_2021_05_O7
  10
231051.500
  20
4523030.000
  0
VERTEX
  8
LC_OH_2021_05_O7
  10
229853.500
  20
4522623.500
  0
VERTEX
  8
LC_OH_2021_05_O7
  10
228140.500
  20
4523323.500
  0
VERTEX
  8
LC_OH_2021_05_O7
  10
228318.000
  20
4524963.500
  0
VERTEX
  8
LC_OH_2021_05_O7
  10
228830.925
  20
4525234.807
  0
SEQEND
  8
LC_OH_2021_05_O7
  0
INSERT
  8
FeatureAttribs
  2
FEATURE
  41
1
  42
1
  43
1
  50
0
  10
226740.062
  20
4524226.501
 66
1
  0
ATTRIB
  8
FeatureAttribs
 70
0
  1
PNOA-H_AMS_1956-57_33k_ES_PAN_21mic_H50_0501_fot_000-36795_R.tif
  2
NAME
  10
226740.062
  20
4524226.501
 40
34.87204
  0
SEQEND
  0
POLYLINE
  8
LC_OH_2021_05_O7
  70
1
  66
1
  0
VERTEX
  8
LC_OH_2021_05_O7
  10
228211.567
  20
4525257.508
  0
VERTEX
  8
LC_OH_2021_05_O7
  10
228318.500
  20
4524964.000
  0
VERTEX
  8
LC_OH_2021_05_O7
  10
228140.500
  20
4523323.500
  0
VERTEX
  8
LC_OH_2021_05_O7
  10
226859.500
  20
4522948.000
  0
VERTEX
  8
LC_OH_2021_05_O7
  10
226839.000
  20
4522943.000
  0
VERTEX
  8
LC_OH_2021_05_O7
  10
225184.500
  20
4523641.000
  0
VERTEX
  8
LC_OH_2021_05_O7
  10
225313.500
  20
4524963.000
  0
VERTEX
  8
LC_OH_2021_05_O7
  10
225897.068
  20
4525343.208
  0
VERTEX
  8
LC_OH_2021_05_O7
  10
227718.047
  20
4525275.596
  0
SEQEND
  8
LC_OH_2021_05_O7
  0
INSERT
  8
FeatureAttribs
  2
FEATURE
  41
1
  42
1
  43
1
  50
0
  10
215245.962
  20
4525025.251
 66
1
  0
ATTRIB
  8
FeatureAttribs
 70
0
  1
PNOA-H_AMS_1956-57_33k_ES_PAN_21mic_H50_0501_fot_000-36799_R.tif
  2
NAME
  10
215245.962
  20
4525025.251
 40
34.87204
  0
SEQEND
  0
POLYLINE
  8
LC_OH_2021_05_O7
  70
1
  66
1
  0
VERTEX
  8
LC_OH_2021_05_O7
  10
215998.612
  20
4525717.444
  0
VERTEX
  8
LC_OH_2021_05_O7
  10
215950.999
  20
4524740.000
  0
VERTEX
  8
LC_OH_2021_05_O7
  10
215950.999
  20
4524734.500
  0
VERTEX
  8
LC_OH_2021_05_O7
  10
215932.499
  20
4524350.500
  0
VERTEX
  8
LC_OH_2021_05_O7
  10
214640.999
  20
4524000.500
  0
VERTEX
  8
LC_OH_2021_05_O7
  10
214555.499
  20
4524036.500
  0
VERTEX
  8
LC_OH_2021_05_O7
  10
214505.431
  20
4525775.022
  0
SEQEND
  8
LC_OH_2021_05_O7
  0
INSERT
  8
FeatureAttribs
  2
FEATURE
  41
1
  42
1
  43
1
  50
0
  10
209149.468
  20
4525405.999
 66
1
  0
ATTRIB
  8
FeatureAttribs
 70
0
  1
PNOA-H_AMS_1956-57_33k_ES_PAN_21mic_H50_0501_fot_000-36801_R.tif
  2
NAME
  10
209149.468
  20
4525405.999
 40
34.87204
  0
SEQEND
  0
POLYLINE
  8
LC_OH_2021_05_O7
  70
1
  66
1
  0
VERTEX
  8
LC_OH_2021_05_O7
  10
209757.540
  20
4525960.153
  0
VERTEX
  8
LC_OH_2021_05_O7
  10
209599.999
  20
4524698.500
  0
VERTEX
  8
LC_OH_2021_05_O7
  10
208761.999
  20
4524482.000
  0
VERTEX
  8
LC_OH_2021_05_O7
  10
208511.692
  20
4526009.383
  0
SEQEND
  8
LC_OH_2021_05_O7
  0
INSERT
  8
FeatureAttribs
  2
FEATURE
  41
1
  42
1
  43
1
  50
0
  10
212219.955
  20
4525156.250
 66
1
  0
ATTRIB
  8
FeatureAttribs
 70
0
  1
PNOA-H_AMS_1956-57_33k_ES_PAN_21mic_H50_0501_fot_000-36800_R.tif
  2
NAME
  10
212219.955
  20
4525156.250
 40
34.87204
  0
SEQEND
  0
POLYLINE
  8
LC_OH_2021_05_O7
  70
1
  66
1
  0
VERTEX
  8
LC_OH_2021_05_O7
  10
212889.705
  20
4525837.694
  0
VERTEX
  8
LC_OH_2021_05_O7
  10
212751.499
  20
4524530.000
  0
VERTEX
  8
LC_OH_2021_05_O7
  10
211755.999
  20
4524262.500
  0
VERTEX
  8
LC_OH_2021_05_O7
  10
211753.499
  20
4524262.500
  0
VERTEX
  8
LC_OH_2021_05_O7
  10
211751.999
  20
4524272.500
  0
VERTEX
  8
LC_OH_2021_05_O7
  10
211514.236
  20
4525891.389
  0
SEQEND
  8
LC_OH_2021_05_O7
  0
INSERT
  8
FeatureAttribs
  2
FEATURE
  41
1
  42
1
  43
1
  50
0
  10
218107.800
  20
4524766.000
 66
1
  0
ATTRIB
  8
FeatureAttribs
 70
0
  1
PNOA-H_AMS_1956-57_33k_ES_PAN_21mic_H50_0501_fot_000-36798_R.tif
  2
NAME
  10
218107.800
  20
4524766.000
 40
34.87204
  0
SEQEND
  0
POLYLINE
  8
LC_OH_2021_05_O7
  70
1
  66
1
  0
VERTEX
  8
LC_OH_2021_05_O7
  10
219111.515
  20
4525598.333
  0
VERTEX
  8
LC_OH_2021_05_O7
  10
219161.999
  20
4524170.000
  0
VERTEX
  8
LC_OH_2021_05_O7
  10
217658.999
  20
4523752.000
  0
VERTEX
  8
LC_OH_2021_05_O7
  10
216867.499
  20
4524089.500
  0
VERTEX
  8
LC_OH_2021_05_O7
  10
216864.999
  20
4524091.000
  0
VERTEX
  8
LC_OH_2021_05_O7
  10
216864.999
  20
4524092.500
  0
VERTEX
  8
LC_OH_2021_05_O7
  10
217354.585
  20
4525665.242
  0
SEQEND
  8
LC_OH_2021_05_O7
  0
INSERT
  8
FeatureAttribs
  2
FEATURE
  41
1
  42
1
  43
1
  50
0
  10
220923.468
  20
4524649.250
 66
1
  0
ATTRIB
  8
FeatureAttribs
 70
0
  1
PNOA-H_AMS_1956-57_33k_ES_PAN_21mic_H50_0501_fot_000-36797_R.tif
  2
NAME
  10
220923.468
  20
4524649.250
 40
34.87204
  0
SEQEND
  0
POLYLINE
  8
LC_OH_2021_05_O7
  70
1
  66
1
  0
VERTEX
  8
LC_OH_2021_05_O7
  10
222104.207
  20
4525485.035
  0
VERTEX
  8
LC_OH_2021_05_O7
  10
222217.499
  20
4524573.000
  0
VERTEX
  8
LC_OH_2021_05_O7
  10
222151.499
  20
4523942.500
  0
VERTEX
  8
LC_OH_2021_05_O7
  10
220723.499
  20
4523518.500
  0
VERTEX
  8
LC_OH_2021_05_O7
  10
219296.499
  20
4524131.000
  0
VERTEX
  8
LC_OH_2021_05_O7
  10
220237.612
  20
4525555.447
  0
VERTEX
  8
LC_OH_2021_05_O7
  10
220690.285
  20
4525538.208
  0
SEQEND
  8
LC_OH_2021_05_O7
  0
INSERT
  8
FeatureAttribs
  2
FEATURE
  41
1
  42
1
  43
1
  50
0
  10
206147.744
  20
4525490.000
 66
1
  0
ATTRIB
  8
FeatureAttribs
 70
0
  1
PNOA-H_AMS_1956-57_33k_ES_PAN_21mic_H50_0501_fot_000-36802_R.tif
  2
NAME
  10
206147.744
  20
4525490.000
 40
34.87204
  0
SEQEND
  0
POLYLINE
  8
LC_OH_2021_05_O7
  70
1
  66
1
  0
VERTEX
  8
LC_OH_2021_05_O7
  10
206775.774
  20
4526077.977
  0
VERTEX
  8
LC_OH_2021_05_O7
  10
206641.999
  20
4524874.000
  0
VERTEX
  8
LC_OH_2021_05_O7
  10
205684.499
  20
4524650.000
  0
VERTEX
  8
LC_OH_2021_05_O7
  10
205683.499
  20
4524651.000
  0
VERTEX
  8
LC_OH_2021_05_O7
  10
205680.999
  20
4524672.000
  0
VERTEX
  8
LC_OH_2021_05_O7
  10
205510.125
  20
4526128.526
  0
VERTEX
  8
LC_OH_2021_05_O7
  10
206634.501
  20
4526083.560
  0
SEQEND
  8
LC_OH_2021_05_O7
  0
INSERT
  8
FeatureAttribs
  2
FEATURE
  41
1
  42
1
  43
1
  50
0
  10
203254.620
  20
4525730.750
 66
1
  0
ATTRIB
  8
FeatureAttribs
 70
0
  1
PNOA-H_AMS_1956-57_33k_ES_PAN_21mic_H50_0501_fot_000-36803_R.tif
  2
NAME
  10
203254.620
  20
4525730.750
 40
34.87204
  0
SEQEND
  0
POLYLINE
  8
LC_OH_2021_05_O7
  70
1
  66
1
  0
VERTEX
  8
LC_OH_2021_05_O7
  10
203912.188
  20
4526192.431
  0
VERTEX
  8
LC_OH_2021_05_O7
  10
203800.999
  20
4525038.000
  0
VERTEX
  8
LC_OH_2021_05_O7
  10
203067.512
  20
4524906.734
  0
VERTEX
  8
LC_OH_2021_05_O7
  10
203120.499
  20
4526224.092
  0
SEQEND
  8
LC_OH_2021_05_O7
  0
INSERT
  8
FeatureAttribs
  2
FEATURE
  41
1
  42
1
  43
1
  50
0
  10
223739.982
  20
4524507.750
 66
1
  0
ATTRIB
  8
FeatureAttribs
 70
0
  1
PNOA-H_AMS_1956-57_33k_ES_PAN_21mic_H50_0501_fot_000-36796_R.tif
  2
NAME
  10
223739.982
  20
4524507.750
 40
34.87204
  0
SEQEND
  0
POLYLINE
  8
LC_OH_2021_05_O7
  70
1
  66
1
  0
VERTEX
  8
LC_OH_2021_05_O7
  10
225209.549
  20
4525368.735
  0
VERTEX
  8
LC_OH_2021_05_O7
  10
225313.500
  20
4524964.000
  0
VERTEX
  8
LC_OH_2021_05_O7
  10
225185.000
  20
4523642.000
  0
VERTEX
  8
LC_OH_2021_05_O7
  10
225184.000
  20
4523640.500
  0
VERTEX
  8
LC_OH_2021_05_O7
  10
225167.500
  20
4523635.500
  0
VERTEX
  8
LC_OH_2021_05_O7
  10
223825.500
  20
4523235.500
  0
VERTEX
  8
LC_OH_2021_05_O7
  10
222151.499
  20
4523942.500
  0
VERTEX
  8
LC_OH_2021_05_O7
  10
222217.499
  20
4524571.500
  0
VERTEX
  8
LC_OH_2021_05_O7
  10
223072.637
  20
4525448.616
  0
VERTEX
  8
LC_OH_2021_05_O7
  10
224204.176
  20
4525406.063
  0
SEQEND
  8
LC_OH_2021_05_O7
  0
INSERT
  8
FeatureAttribs
  2
FEATURE
  41
1
  42
1
  43
1
  50
0
  10
231123.760
  20
4523576.461
 66
1
  0
ATTRIB
  8
FeatureAttribs
 70
0
  1
PNOA-H_AMS_1956-57_33k_ES_PAN_21mic_H50_0502_fot_000-36793_R.tif
  2
NAME
  10
231123.760
  20
4523576.461
 40
34.87204
  0
SEQEND
  0
POLYLINE
  8
LC_OH_2021_05_O7
  70
1
  66
1
  0
VERTEX
  8
LC_OH_2021_05_O7
  10
231153.431
  20
4522991.525
  0
VERTEX
  8
LC_OH_2021_05_O7
  10
231051.500
  20
4523030.000
  0
VERTEX
  8
LC_OH_2021_05_O7
  10
231196.021
  20
4524161.397
  0
SEQEND
  8
LC_OH_2021_05_O7
  0
ENDSEC
  0
EOF
